ISO-10303-21;
HEADER;
FILE_DESCRIPTION (( 'STEP AP203' ),
    '1' );
FILE_NAME ('8831.STEP',
    '2022-07-08T15:46:31',
    ( '' ),
    ( '' ),
    'SwSTEP 2.0',
    'SolidWorks 2019',
    '' );
FILE_SCHEMA (( 'CONFIG_CONTROL_DESIGN' ));
ENDSEC;

DATA;
#1 = DIRECTION ( 'NONE',  ( 0.000000000000000000, 0.000000000000000000, 1.000000000000000000 ) ) ;
#2 = AXIS2_PLACEMENT_3D ( 'NONE', #158, #216, #97 ) ;
#3 = AXIS2_PLACEMENT_3D ( 'NONE', #217, #343, #195 ) ;
#4 = COORDINATED_UNIVERSAL_TIME_OFFSET ( 1, 0, .AHEAD. ) ;
#5 = SHAPE_DEFINITION_REPRESENTATION ( #149, #147 ) ;
#6 = EDGE_CURVE ( 'NONE', #218, #139, #285, .T. ) ;
#7 = VERTEX_POINT ( 'NONE', #48 ) ;
#8 = CARTESIAN_POINT ( 'NONE',  ( 0.000000000000000000, 0.000000000000000000, 3.300000000000025135 ) ) ;
#9 = TOROIDAL_SURFACE ( 'NONE', #75, 2.799999999999999822, 0.2999999999999999889 ) ;
#10 = SECURITY_CLASSIFICATION ( '', '', #208 ) ;
#11 = LINE ( 'NONE', #240, #61 ) ;
#12 = CIRCLE ( 'NONE', #85, 5.000000000000000000 ) ;
#13 = AXIS2_PLACEMENT_3D ( 'NONE', #166, #348, #376 ) ;
#14 = CARTESIAN_POINT ( 'NONE',  ( 2.799999999999999822, 0.000000000000000000, 3.300000000000025135 ) ) ;
#15 = DIRECTION ( 'NONE',  ( 0.000000000000000000, 0.000000000000000000, 1.000000000000000000 ) ) ;
#16 = CC_DESIGN_PERSON_AND_ORGANIZATION_ASSIGNMENT ( #332, #298, ( #83 ) ) ;
#17 = DIRECTION ( 'NONE',  ( 0.000000000000000000, 0.000000000000000000, -1.000000000000000000 ) ) ;
#18 = VERTEX_POINT ( 'NONE', #171 ) ;
#19 = DIRECTION ( 'NONE',  ( 1.000000000000000000, 0.000000000000000000, -0.000000000000000000 ) ) ;
#20 = CYLINDRICAL_SURFACE ( 'NONE', #87, 5.000000000000000000 ) ;
#21 = EDGE_LOOP ( 'NONE', ( #80, #372, #194, #170 ) ) ;
#22 = AXIS2_PLACEMENT_3D ( 'NONE', #379, #283, #19 ) ;
#23 = CIRCLE ( 'NONE', #130, 1.250000000000000000 ) ;
#24 = PLANE ( 'NONE',  #22 ) ;
#25 = DIRECTION ( 'NONE',  ( 1.000000000000000000, 0.000000000000000000, 0.000000000000000000 ) ) ;
#26 = ADVANCED_FACE ( 'NONE', ( #141 ), #256, .T. ) ;
#27 = PERSON_AND_ORGANIZATION ( #126, #235 ) ;
#28 = VECTOR ( 'NONE', #54, 1000.000000000000000 ) ;
#29 = CIRCLE ( 'NONE', #13, 1.250000000000000000 ) ;
#30 = ORIENTED_EDGE ( 'NONE', *, *, #262, .F. ) ;
#31 = DATE_AND_TIME ( #57, #96 ) ;
#32 = DIRECTION ( 'NONE',  ( 0.000000000000000000, 0.000000000000000000, 1.000000000000000000 ) ) ;
#33 = DATE_TIME_ROLE ( 'classification_date' ) ;
#34 = APPROVAL_STATUS ( 'not_yet_approved' ) ;
#35 = AXIS2_PLACEMENT_3D ( 'NONE', #191, #252, #51 ) ;
#36 = APPROVAL_PERSON_ORGANIZATION ( #179, #362, #119 ) ;
#37 = PLANE ( 'NONE',  #286 ) ;
#38 = ADVANCED_FACE ( 'NONE', ( #282 ), #20, .T. ) ;
#39 = CYLINDRICAL_SURFACE ( 'NONE', #334, 1.250000000000000000 ) ;
#40 = ORIENTED_EDGE ( 'NONE', *, *, #162, .F. ) ;
#41 = DIRECTION ( 'NONE',  ( 1.000000000000000000, 0.000000000000000000, 0.000000000000000000 ) ) ;
#42 = DIRECTION ( 'NONE',  ( 0.000000000000000000, -1.000000000000000000, 0.000000000000000000 ) ) ;
#43 = APPROVAL ( #64, 'NEURÈENÝ' ) ;
#44 = VERTEX_POINT ( 'NONE', #250 ) ;
#45 = CARTESIAN_POINT ( 'NONE',  ( -5.000000000000000000, 0.000000000000000000, 3.000000000000000000 ) ) ;
#46 = FACE_OUTER_BOUND ( 'NONE', #21, .T. ) ;
#47 = AXIS2_PLACEMENT_3D ( 'NONE', #78, #318, #104 ) ;
#48 = CARTESIAN_POINT ( 'NONE',  ( 5.000000000000000000, 6.123233995736766282E-16, 0.000000000000000000 ) ) ;
#49 = APPLICATION_CONTEXT ( 'configuration controlled 3d designs of mechanical parts and assemblies' ) ;
#50 = EDGE_LOOP ( 'NONE', ( #259, #342 ) ) ;
#51 = DIRECTION ( 'NONE',  ( -1.000000000000000000, 0.000000000000000000, 0.000000000000000000 ) ) ;
#52 = DIRECTION ( 'NONE',  ( 1.000000000000000000, 0.000000000000000000, 0.000000000000000000 ) ) ;
#53 = CIRCLE ( 'NONE', #257, 2.500000000000000000 ) ;
#54 = DIRECTION ( 'NONE',  ( -0.000000000000000000, -0.000000000000000000, -1.000000000000000000 ) ) ;
#55 = EDGE_CURVE ( 'NONE', #197, #367, #53, .T. ) ;
#56 = ORIENTED_EDGE ( 'NONE', *, *, #341, .T. ) ;
#57 = CALENDAR_DATE ( 2022, 8, 7 ) ;
#58 = PERSON_AND_ORGANIZATION ( #126, #235 ) ;
#59 = ADVANCED_FACE ( 'NONE', ( #79 ), #347, .T. ) ;
#60 = DATE_AND_TIME ( #62, #215 ) ;
#61 = VECTOR ( 'NONE', #274, 1000.000000000000000 ) ;
#62 = CALENDAR_DATE ( 2022, 8, 7 ) ;
#63 = ORIENTED_EDGE ( 'NONE', *, *, #226, .T. ) ;
#64 = APPROVAL_STATUS ( 'not_yet_approved' ) ;
#65 = CARTESIAN_POINT ( 'NONE',  ( -5.000000000000000000, 0.000000000000000000, 0.000000000000000000 ) ) ;
#66 = PRODUCT_RELATED_PRODUCT_CATEGORY ( 'detail', '', ( #83 ) ) ;
#67 = CARTESIAN_POINT ( 'NONE',  ( 0.000000000000000000, 0.000000000000000000, 0.000000000000000000 ) ) ;
#68 = CARTESIAN_POINT ( 'NONE',  ( 1.250000000000000000, 1.530808498934191324E-16, 0.000000000000000000 ) ) ;
#69 = ORIENTED_EDGE ( 'NONE', *, *, #352, .F. ) ;
#70 = PRODUCT_DEFINITION ( 'NEZNÁMÝ', '', #72, #299 ) ;
#71 = DIRECTION ( 'NONE',  ( -0.000000000000000000, -0.000000000000000000, -1.000000000000000000 ) ) ;
#72 = PRODUCT_DEFINITION_FORMATION_WITH_SPECIFIED_SOURCE ( 'LIBOVOLNÝ', '', #83, .NOT_KNOWN. ) ;
#73 = LINE ( 'NONE', #214, #143 ) ;
#74 = DIRECTION ( 'NONE',  ( 1.000000000000000000, 0.000000000000000000, 0.000000000000000000 ) ) ;
#75 = AXIS2_PLACEMENT_3D ( 'NONE', #8, #116, #93 ) ;
#76 = APPROVAL_PERSON_ORGANIZATION ( #228, #113, #152 ) ;
#77 = DIRECTION ( 'NONE',  ( 0.000000000000000000, 0.000000000000000000, 1.000000000000000000 ) ) ;
#78 = CARTESIAN_POINT ( 'NONE',  ( 0.000000000000000000, 0.000000000000000000, 0.000000000000000000 ) ) ;
#79 = FACE_OUTER_BOUND ( 'NONE', #288, .T. ) ;
#80 = ORIENTED_EDGE ( 'NONE', *, *, #245, .F. ) ;
#81 = DIRECTION ( 'NONE',  ( 0.000000000000000000, 0.000000000000000000, 1.000000000000000000 ) ) ;
#82 = DIRECTION ( 'NONE',  ( -0.000000000000000000, -0.000000000000000000, -1.000000000000000000 ) ) ;
#83 = PRODUCT ( '8831', '8831', '', ( #112 ) ) ;
#84 = VERTEX_POINT ( 'NONE', #199 ) ;
#85 = AXIS2_PLACEMENT_3D ( 'NONE', #100, #209, #212 ) ;
#86 = CARTESIAN_POINT ( 'NONE',  ( -2.500000000000000000, 0.000000000000000000, 453.0000000000000000 ) ) ;
#87 = AXIS2_PLACEMENT_3D ( 'NONE', #103, #133, #381 ) ;
#88 = FACE_OUTER_BOUND ( 'NONE', #176, .T. ) ;
#89 = APPLICATION_PROTOCOL_DEFINITION ( 'international standard', 'config_control_design', 1994, #49 ) ;
#90 = CC_DESIGN_DATE_AND_TIME_ASSIGNMENT ( #331, #204, ( #70 ) ) ;
#91 = ORIENTED_EDGE ( 'NONE', *, *, #211, .T. ) ;
#92 = COORDINATED_UNIVERSAL_TIME_OFFSET ( 1, 0, .AHEAD. ) ;
#93 = DIRECTION ( 'NONE',  ( 1.000000000000000000, 0.000000000000000000, 0.000000000000000000 ) ) ;
#94 = DIRECTION ( 'NONE',  ( 1.000000000000000000, 0.000000000000000000, 0.000000000000000000 ) ) ;
#95 = DIRECTION ( 'NONE',  ( 1.224646799147353207E-16, 1.000000000000000000, -0.000000000000000000 ) ) ;
#96 = LOCAL_TIME ( 17, 46, 31.00000000000000000, #351 ) ;
#97 = DIRECTION ( 'NONE',  ( 1.000000000000000000, 0.000000000000000000, 0.000000000000000000 ) ) ;
#98 = ORIENTED_EDGE ( 'NONE', *, *, #146, .T. ) ;
#99 = ADVANCED_FACE ( 'NONE', ( #349, #88 ), #201, .T. ) ;
#100 = CARTESIAN_POINT ( 'NONE',  ( 0.000000000000000000, 0.000000000000000000, 3.000000000000000000 ) ) ;
#101 = CARTESIAN_POINT ( 'NONE',  ( 0.000000000000000000, 0.000000000000000000, 453.0000000000000000 ) ) ;
#102 = ADVANCED_FACE ( 'NONE', ( #269, #207 ), #37, .F. ) ;
#103 = CARTESIAN_POINT ( 'NONE',  ( 0.000000000000000000, 0.000000000000000000, 3.000000000000000000 ) ) ;
#104 = DIRECTION ( 'NONE',  ( 1.000000000000000000, 0.000000000000000000, 0.000000000000000000 ) ) ;
#105 = MANIFOLD_SOLID_BREP ( 'Odebrat vysunutím3', #323 ) ;
#106 = CIRCLE ( 'NONE', #267, 0.2999999999999999334 ) ;
#107 = EDGE_LOOP ( 'NONE', ( #63, #369 ) ) ;
#108 = CARTESIAN_POINT ( 'NONE',  ( 0.000000000000000000, 0.000000000000000000, 453.0000000000000000 ) ) ;
#109 = VERTEX_POINT ( 'NONE', #360 ) ;
#110 = LINE ( 'NONE', #225, #186 ) ;
#111 = AXIS2_PLACEMENT_3D ( 'NONE', #180, #1, #333 ) ;
#112 = MECHANICAL_CONTEXT ( 'NONE', #49, 'mechanical' ) ;
#113 = APPROVAL ( #34, 'NEURÈENÝ' ) ;
#114 = ORIENTED_EDGE ( 'NONE', *, *, #226, .F. ) ;
#115 = COORDINATED_UNIVERSAL_TIME_OFFSET ( 1, 0, .AHEAD. ) ;
#116 = DIRECTION ( 'NONE',  ( 0.000000000000000000, 0.000000000000000000, 1.000000000000000000 ) ) ;
#117 = AXIS2_PLACEMENT_3D ( 'NONE', #183, #15, #41 ) ;
#118 = EDGE_CURVE ( 'NONE', #139, #7, #303, .T. ) ;
#119 = APPROVAL_ROLE ( '' ) ;
#120 = FACE_OUTER_BOUND ( 'NONE', #229, .T. ) ;
#121 = AXIS2_PLACEMENT_3D ( 'NONE', #188, #276, #247 ) ;
#122 = EDGE_CURVE ( 'NONE', #84, #233, #164, .T. ) ;
#123 = LOCAL_TIME ( 17, 46, 31.00000000000000000, #115 ) ;
#124 = CARTESIAN_POINT ( 'NONE',  ( 5.000000000000000000, 6.123233995736766282E-16, 3.000000000000000000 ) ) ;
#125 = ORIENTED_EDGE ( 'NONE', *, *, #241, .T. ) ;
#126 = PERSON ( 'NEURÈENÝ', 'NEURÈENÝ', 'NEURÈENÝ', ('NEURÈENÝ'), ('NEURÈENÝ'), ('NEURÈENÝ') ) ;
#127 = DIRECTION ( 'NONE',  ( 0.000000000000000000, 0.000000000000000000, 1.000000000000000000 ) ) ;
#128 = CARTESIAN_POINT ( 'NONE',  ( 5.000000000000000000, 6.123233995736766282E-16, 3.000000000000000000 ) ) ;
#129 = AXIS2_PLACEMENT_3D ( 'NONE', #310, #127, #368 ) ;
#130 = AXIS2_PLACEMENT_3D ( 'NONE', #108, #81, #254 ) ;
#131 = CC_DESIGN_PERSON_AND_ORGANIZATION_ASSIGNMENT ( #325, #148, ( #72 ) ) ;
#132 = ORIENTED_EDGE ( 'NONE', *, *, #146, .F. ) ;
#133 = DIRECTION ( 'NONE',  ( -0.000000000000000000, -0.000000000000000000, -1.000000000000000000 ) ) ;
#134 = ADVANCED_FACE ( 'NONE', ( #295 ), #9, .F. ) ;
#135 = TOROIDAL_SURFACE ( 'NONE', #309, 2.799999999999999822, 0.2999999999999999889 ) ;
#136 = CARTESIAN_POINT ( 'NONE',  ( -1.250000000000000000, 0.000000000000000000, 0.000000000000000000 ) ) ;
#137 = DIRECTION ( 'NONE',  ( -0.000000000000000000, -0.000000000000000000, -1.000000000000000000 ) ) ;
#138 = DIRECTION ( 'NONE',  ( -1.000000000000000000, 0.000000000000000000, 0.000000000000000000 ) ) ;
#139 = VERTEX_POINT ( 'NONE', #65 ) ;
#140 = PERSON_AND_ORGANIZATION ( #126, #235 ) ;
#141 = FACE_OUTER_BOUND ( 'NONE', #160, .T. ) ;
#142 = ORIENTED_EDGE ( 'NONE', *, *, #55, .T. ) ;
#143 = VECTOR ( 'NONE', #273, 1000.000000000000000 ) ;
#144 = CALENDAR_DATE ( 2022, 8, 7 ) ;
#145 = CC_DESIGN_APPROVAL ( #43, ( #10 ) ) ;
#146 = EDGE_CURVE ( 'NONE', #84, #109, #106, .T. ) ;
#147 = ADVANCED_BREP_SHAPE_REPRESENTATION ( '8831', ( #105, #210 ), #355 ) ;
#148 = PERSON_AND_ORGANIZATION_ROLE ( 'design_supplier' ) ;
#149 = PRODUCT_DEFINITION_SHAPE ( 'NONE', 'NONE',  #70 ) ;
#150 = ORIENTED_EDGE ( 'NONE', *, *, #231, .F. ) ;
#151 = EDGE_CURVE ( 'NONE', #109, #18, #339, .T. ) ;
#152 = APPROVAL_ROLE ( '' ) ;
#153 = DIRECTION ( 'NONE',  ( 0.000000000000000000, 0.000000000000000000, 1.000000000000000000 ) ) ;
#154 = AXIS2_PLACEMENT_3D ( 'NONE', #169, #82, #138 ) ;
#155 = EDGE_CURVE ( 'NONE', #218, #189, #12, .T. ) ;
#156 = DIRECTION ( 'NONE',  ( 0.000000000000000000, 0.000000000000000000, -1.000000000000000000 ) ) ;
#157 = ORIENTED_EDGE ( 'NONE', *, *, #280, .F. ) ;
#158 = CARTESIAN_POINT ( 'NONE',  ( 0.000000000000000000, 0.000000000000000000, 3.000000000000000000 ) ) ;
#159 = AXIS2_PLACEMENT_3D ( 'NONE', #14, #42, #271 ) ;
#160 = EDGE_LOOP ( 'NONE', ( #316, #150, #232, #378 ) ) ;
#161 = DIRECTION ( 'NONE',  ( -1.000000000000000000, 1.224646799147353207E-16, 0.000000000000000000 ) ) ;
#162 = EDGE_CURVE ( 'NONE', #233, #84, #315, .T. ) ;
#163 = CARTESIAN_POINT ( 'NONE',  ( 0.000000000000000000, 0.000000000000000000, 3.300000000000025135 ) ) ;
#164 = CIRCLE ( 'NONE', #182, 2.500000000000000000 ) ;
#165 = AXIS2_PLACEMENT_3D ( 'NONE', #198, #322, #52 ) ;
#166 = CARTESIAN_POINT ( 'NONE',  ( 0.000000000000000000, 0.000000000000000000, 453.0000000000000000 ) ) ;
#167 = EDGE_CURVE ( 'NONE', #367, #84, #73, .T. ) ;
#168 = EDGE_LOOP ( 'NONE', ( #266, #364 ) ) ;
#169 = CARTESIAN_POINT ( 'NONE',  ( 0.000000000000000000, 0.000000000000000000, 3.000000000000000000 ) ) ;
#170 = ORIENTED_EDGE ( 'NONE', *, *, #280, .T. ) ;
#171 = CARTESIAN_POINT ( 'NONE',  ( 2.799999999999999822, 0.000000000000000000, 3.000000000000012434 ) ) ;
#172 = APPROVAL_STATUS ( 'not_yet_approved' ) ;
#173 = EDGE_CURVE ( 'NONE', #44, #290, #304, .T. ) ;
#174 = ORIENTED_EDGE ( 'NONE', *, *, #253, .F. ) ;
#175 = CALENDAR_DATE ( 2022, 8, 7 ) ;
#176 = EDGE_LOOP ( 'NONE', ( #307, #142 ) ) ;
#177 = APPROVAL_ROLE ( '' ) ;
#178 = CARTESIAN_POINT ( 'NONE',  ( 0.000000000000000000, 0.000000000000000000, 3.300000000000025135 ) ) ;
#179 = PERSON_AND_ORGANIZATION ( #126, #235 ) ;
#180 = CARTESIAN_POINT ( 'NONE',  ( 0.000000000000000000, 0.000000000000000000, 0.000000000000000000 ) ) ;
#181 = PERSON_AND_ORGANIZATION_ROLE ( 'classification_officer' ) ;
#182 = AXIS2_PLACEMENT_3D ( 'NONE', #178, #32, #301 ) ;
#183 = CARTESIAN_POINT ( 'NONE',  ( 0.000000000000000000, 0.000000000000000000, 3.300000000000025135 ) ) ;
#184 = DIRECTION ( 'NONE',  ( 1.000000000000000000, 0.000000000000000000, 0.000000000000000000 ) ) ;
#185 = AXIS2_PLACEMENT_3D ( 'NONE', #67, #71, #184 ) ;
#186 = VECTOR ( 'NONE', #137, 1000.000000000000000 ) ;
#187 = CARTESIAN_POINT ( 'NONE',  ( -1.250000000000000000, 0.000000000000000000, 453.0000000000000000 ) ) ;
#188 = CARTESIAN_POINT ( 'NONE',  ( 0.000000000000000000, 0.000000000000000000, 3.000000000000000000 ) ) ;
#189 = VERTEX_POINT ( 'NONE', #128 ) ;
#190 =( NAMED_UNIT ( * ) SI_UNIT ( $, .STERADIAN. ) SOLID_ANGLE_UNIT ( ) );
#191 = CARTESIAN_POINT ( 'NONE',  ( 0.000000000000000000, 0.000000000000000000, 453.0000000000000000 ) ) ;
#192 = CIRCLE ( 'NONE', #2, 2.799999999999999822 ) ;
#193 = ORIENTED_EDGE ( 'NONE', *, *, #6, .F. ) ;
#194 = ORIENTED_EDGE ( 'NONE', *, *, #173, .T. ) ;
#195 = DIRECTION ( 'NONE',  ( -1.000000000000000000, 0.000000000000000000, 0.000000000000000000 ) ) ;
#196 = ORIENTED_EDGE ( 'NONE', *, *, #241, .F. ) ;
#197 = VERTEX_POINT ( 'NONE', #312 ) ;
#198 = CARTESIAN_POINT ( 'NONE',  ( 0.000000000000000000, 0.000000000000000000, 3.000000000000000000 ) ) ;
#199 = CARTESIAN_POINT ( 'NONE',  ( -2.500000000000000000, 0.000000000000000000, 3.300000000000025135 ) ) ;
#200 = ORIENTED_EDGE ( 'NONE', *, *, #167, .F. ) ;
#201 = PLANE ( 'NONE',  #248 ) ;
#202 = ADVANCED_FACE ( 'NONE', ( #120 ), #39, .F. ) ;
#203 = ORIENTED_EDGE ( 'NONE', *, *, #173, .F. ) ;
#204 = DATE_TIME_ROLE ( 'creation_date' ) ;
#205 = DIRECTION ( 'NONE',  ( 1.000000000000000000, 0.000000000000000000, -0.000000000000000000 ) ) ;
#206 = COORDINATED_UNIVERSAL_TIME_OFFSET ( 1, 0, .AHEAD. ) ;
#207 = FACE_OUTER_BOUND ( 'NONE', #50, .T. ) ;
#208 = SECURITY_CLASSIFICATION_LEVEL ( 'unclassified' ) ;
#209 = DIRECTION ( 'NONE',  ( 0.000000000000000000, 0.000000000000000000, 1.000000000000000000 ) ) ;
#210 = AXIS2_PLACEMENT_3D ( 'NONE', #359, #268, #94 ) ;
#211 = EDGE_CURVE ( 'NONE', #7, #139, #220, .T. ) ;
#212 = DIRECTION ( 'NONE',  ( 1.000000000000000000, 0.000000000000000000, 0.000000000000000000 ) ) ;
#213 = EDGE_LOOP ( 'NONE', ( #239, #366 ) ) ;
#214 = CARTESIAN_POINT ( 'NONE',  ( -2.500000000000000000, 0.000000000000000000, 453.0000000000000000 ) ) ;
#215 = LOCAL_TIME ( 17, 46, 31.00000000000000000, #206 ) ;
#216 = DIRECTION ( 'NONE',  ( -0.000000000000000000, -0.000000000000000000, -1.000000000000000000 ) ) ;
#217 = CARTESIAN_POINT ( 'NONE',  ( 0.000000000000000000, 0.000000000000000000, 453.0000000000000000 ) ) ;
#218 = VERTEX_POINT ( 'NONE', #45 ) ;
#219 = ADVANCED_FACE ( 'NONE', ( #46 ), #277, .F. ) ;
#220 = CIRCLE ( 'NONE', #129, 5.000000000000000000 ) ;
#221 = LOCAL_TIME ( 17, 46, 31.00000000000000000, #4 ) ;
#222 = DIRECTION ( 'NONE',  ( 0.000000000000000000, 0.000000000000000000, 1.000000000000000000 ) ) ;
#223 = ORIENTED_EDGE ( 'NONE', *, *, #151, .F. ) ;
#224 = FACE_OUTER_BOUND ( 'NONE', #327, .T. ) ;
#225 = CARTESIAN_POINT ( 'NONE',  ( 2.500000000000000000, 3.061616997868383141E-16, 453.0000000000000000 ) ) ;
#226 = EDGE_CURVE ( 'NONE', #18, #109, #192, .T. ) ;
#227 = CARTESIAN_POINT ( 'NONE',  ( 0.000000000000000000, 0.000000000000000000, 453.0000000000000000 ) ) ;
#228 = PERSON_AND_ORGANIZATION ( #126, #235 ) ;
#229 = EDGE_LOOP ( 'NONE', ( #56, #356, #319, #203 ) ) ;
#230 = CALENDAR_DATE ( 2022, 8, 7 ) ;
#231 = EDGE_CURVE ( 'NONE', #367, #197, #354, .T. ) ;
#232 = ORIENTED_EDGE ( 'NONE', *, *, #167, .T. ) ;
#233 = VERTEX_POINT ( 'NONE', #337 ) ;
#234 = CIRCLE ( 'NONE', #47, 1.250000000000000000 ) ;
#235 = ORGANIZATION ( 'NEURÈENÝ', 'NEURÈENÝ', '' ) ;
#236 = ORIENTED_EDGE ( 'NONE', *, *, #55, .F. ) ;
#237 = APPROVAL_DATE_TIME ( #300, #362 ) ;
#238 = CARTESIAN_POINT ( 'NONE',  ( 0.000000000000000000, 0.000000000000000000, 0.000000000000000000 ) ) ;
#239 = ORIENTED_EDGE ( 'NONE', *, *, #155, .T. ) ;
#240 = CARTESIAN_POINT ( 'NONE',  ( 1.250000000000000000, 1.530808498934191324E-16, 453.0000000000000000 ) ) ;
#241 = EDGE_CURVE ( 'NONE', #233, #18, #363, .T. ) ;
#242 = DIRECTION ( 'NONE',  ( -1.000000000000000000, 0.000000000000000000, 0.000000000000000000 ) ) ;
#243 = CIRCLE ( 'NONE', #165, 5.000000000000000000 ) ;
#244 = CARTESIAN_POINT ( 'NONE',  ( 0.000000000000000000, 0.000000000000000000, 453.0000000000000000 ) ) ;
#245 = EDGE_CURVE ( 'NONE', #330, #255, #11, .T. ) ;
#246 = ORIENTED_EDGE ( 'NONE', *, *, #253, .T. ) ;
#247 = DIRECTION ( 'NONE',  ( 1.000000000000000000, 0.000000000000000000, 0.000000000000000000 ) ) ;
#248 = AXIS2_PLACEMENT_3D ( 'NONE', #324, #153, #205 ) ;
#249 = CC_DESIGN_PERSON_AND_ORGANIZATION_ASSIGNMENT ( #140, #181, ( #10 ) ) ;
#250 = CARTESIAN_POINT ( 'NONE',  ( -1.250000000000000000, 0.000000000000000000, 453.0000000000000000 ) ) ;
#251 = EDGE_LOOP ( 'NONE', ( #157, #30 ) ) ;
#252 = DIRECTION ( 'NONE',  ( -0.000000000000000000, -0.000000000000000000, -1.000000000000000000 ) ) ;
#253 = EDGE_CURVE ( 'NONE', #189, #7, #361, .T. ) ;
#254 = DIRECTION ( 'NONE',  ( 1.000000000000000000, 0.000000000000000000, 0.000000000000000000 ) ) ;
#255 = VERTEX_POINT ( 'NONE', #68 ) ;
#256 = CYLINDRICAL_SURFACE ( 'NONE', #35, 2.500000000000000000 ) ;
#257 = AXIS2_PLACEMENT_3D ( 'NONE', #227, #222, #25 ) ;
#258 = LOCAL_TIME ( 17, 46, 31.00000000000000000, #92 ) ;
#259 = ORIENTED_EDGE ( 'NONE', *, *, #118, .F. ) ;
#260 = PERSON_AND_ORGANIZATION_ROLE ( 'creator' ) ;
#261 = CARTESIAN_POINT ( 'NONE',  ( -2.799999999999999822, 3.429011037612588783E-16, 3.300000000000025135 ) ) ;
#262 = EDGE_CURVE ( 'NONE', #255, #290, #308, .T. ) ;
#263 = APPROVAL_DATE_TIME ( #294, #43 ) ;
#264 = DIRECTION ( 'NONE',  ( 0.000000000000000000, 0.000000000000000000, 1.000000000000000000 ) ) ;
#265 = PERSON_AND_ORGANIZATION ( #126, #235 ) ;
#266 = ORIENTED_EDGE ( 'NONE', *, *, #341, .F. ) ;
#267 = AXIS2_PLACEMENT_3D ( 'NONE', #261, #95, #161 ) ;
#268 = DIRECTION ( 'NONE',  ( 0.000000000000000000, 0.000000000000000000, 1.000000000000000000 ) ) ;
#269 = FACE_BOUND ( 'NONE', #251, .T. ) ;
#270 = ADVANCED_FACE ( 'NONE', ( #373, #380 ), #24, .T. ) ;
#271 = DIRECTION ( 'NONE',  ( 0.000000000000000000, 0.000000000000000000, -1.000000000000000000 ) ) ;
#272 = APPLICATION_CONTEXT ( 'configuration controlled 3d designs of mechanical parts and assemblies' ) ;
#273 = DIRECTION ( 'NONE',  ( -0.000000000000000000, -0.000000000000000000, -1.000000000000000000 ) ) ;
#274 = DIRECTION ( 'NONE',  ( 0.000000000000000000, 0.000000000000000000, -1.000000000000000000 ) ) ;
#275 = CC_DESIGN_APPROVAL ( #362, ( #70 ) ) ;
#276 = DIRECTION ( 'NONE',  ( -0.000000000000000000, -0.000000000000000000, -1.000000000000000000 ) ) ;
#277 = CYLINDRICAL_SURFACE ( 'NONE', #279, 1.250000000000000000 ) ;
#278 =( LENGTH_UNIT ( ) NAMED_UNIT ( * ) SI_UNIT ( .MILLI., .METRE. ) );
#279 = AXIS2_PLACEMENT_3D ( 'NONE', #244, #17, #340 ) ;
#280 = EDGE_CURVE ( 'NONE', #290, #255, #234, .T. ) ;
#281 = DIRECTION ( 'NONE',  ( 1.000000000000000000, 0.000000000000000000, 0.000000000000000000 ) ) ;
#282 = FACE_OUTER_BOUND ( 'NONE', #305, .T. ) ;
#283 = DIRECTION ( 'NONE',  ( 0.000000000000000000, 0.000000000000000000, 1.000000000000000000 ) ) ;
#284 = CYLINDRICAL_SURFACE ( 'NONE', #3, 2.500000000000000000 ) ;
#285 = LINE ( 'NONE', #289, #28 ) ;
#286 = AXIS2_PLACEMENT_3D ( 'NONE', #238, #264, #326 ) ;
#287 = APPROVAL_PERSON_ORGANIZATION ( #58, #43, #177 ) ;
#288 = EDGE_LOOP ( 'NONE', ( #174, #292, #297, #350 ) ) ;
#289 = CARTESIAN_POINT ( 'NONE',  ( -5.000000000000000000, 0.000000000000000000, 3.000000000000000000 ) ) ;
#290 = VERTEX_POINT ( 'NONE', #136 ) ;
#291 = APPROVAL_DATE_TIME ( #31, #113 ) ;
#292 = ORIENTED_EDGE ( 'NONE', *, *, #155, .F. ) ;
#293 = ADVANCED_FACE ( 'NONE', ( #224 ), #135, .F. ) ;
#294 = DATE_AND_TIME ( #175, #123 ) ;
#295 = FACE_OUTER_BOUND ( 'NONE', #317, .T. ) ;
#296 = CC_DESIGN_APPROVAL ( #113, ( #72 ) ) ;
#297 = ORIENTED_EDGE ( 'NONE', *, *, #6, .T. ) ;
#298 = PERSON_AND_ORGANIZATION_ROLE ( 'design_owner' ) ;
#299 = DESIGN_CONTEXT ( 'detailed design', #272, 'design' ) ;
#300 = DATE_AND_TIME ( #230, #221 ) ;
#301 = DIRECTION ( 'NONE',  ( 1.000000000000000000, 0.000000000000000000, 0.000000000000000000 ) ) ;
#302 = EDGE_CURVE ( 'NONE', #197, #233, #110, .T. ) ;
#303 = CIRCLE ( 'NONE', #111, 5.000000000000000000 ) ;
#304 = LINE ( 'NONE', #187, #370 ) ;
#305 = EDGE_LOOP ( 'NONE', ( #69, #246, #91, #193 ) ) ;
#306 = CARTESIAN_POINT ( 'NONE',  ( 0.000000000000000000, 0.000000000000000000, 453.0000000000000000 ) ) ;
#307 = ORIENTED_EDGE ( 'NONE', *, *, #231, .T. ) ;
#308 = CIRCLE ( 'NONE', #185, 1.250000000000000000 ) ;
#309 = AXIS2_PLACEMENT_3D ( 'NONE', #163, #77, #281 ) ;
#310 = CARTESIAN_POINT ( 'NONE',  ( 0.000000000000000000, 0.000000000000000000, 0.000000000000000000 ) ) ;
#311 = ORIENTED_EDGE ( 'NONE', *, *, #162, .T. ) ;
#312 = CARTESIAN_POINT ( 'NONE',  ( 2.500000000000000000, 3.061616997868383141E-16, 453.0000000000000000 ) ) ;
#313 = ADVANCED_FACE ( 'NONE', ( #346 ), #284, .T. ) ;
#314 = ORIENTED_EDGE ( 'NONE', *, *, #302, .T. ) ;
#315 = CIRCLE ( 'NONE', #117, 2.500000000000000000 ) ;
#316 = ORIENTED_EDGE ( 'NONE', *, *, #302, .F. ) ;
#317 = EDGE_LOOP ( 'NONE', ( #375, #98, #114, #196 ) ) ;
#318 = DIRECTION ( 'NONE',  ( -0.000000000000000000, -0.000000000000000000, -1.000000000000000000 ) ) ;
#319 = ORIENTED_EDGE ( 'NONE', *, *, #262, .T. ) ;
#320 = CARTESIAN_POINT ( 'NONE',  ( 1.250000000000000000, 1.530808498934191324E-16, 453.0000000000000000 ) ) ;
#321 = CC_DESIGN_DATE_AND_TIME_ASSIGNMENT ( #60, #33, ( #10 ) ) ;
#322 = DIRECTION ( 'NONE',  ( 0.000000000000000000, 0.000000000000000000, 1.000000000000000000 ) ) ;
#323 = CLOSED_SHELL ( 'NONE', ( #202, #134, #313, #38, #59, #270, #102, #26, #99, #293, #219 ) ) ;
#324 = CARTESIAN_POINT ( 'NONE',  ( 0.000000000000000000, 0.000000000000000000, 453.0000000000000000 ) ) ;
#325 = PERSON_AND_ORGANIZATION ( #126, #235 ) ;
#326 = DIRECTION ( 'NONE',  ( 1.000000000000000000, 0.000000000000000000, -0.000000000000000000 ) ) ;
#327 = EDGE_LOOP ( 'NONE', ( #132, #40, #125, #223 ) ) ;
#328 = PERSON_AND_ORGANIZATION_ROLE ( 'creator' ) ;
#329 = AXIS2_PLACEMENT_3D ( 'NONE', #306, #365, #74 ) ;
#330 = VERTEX_POINT ( 'NONE', #320 ) ;
#331 = DATE_AND_TIME ( #144, #258 ) ;
#332 = PERSON_AND_ORGANIZATION ( #126, #235 ) ;
#333 = DIRECTION ( 'NONE',  ( 1.000000000000000000, 0.000000000000000000, 0.000000000000000000 ) ) ;
#334 = AXIS2_PLACEMENT_3D ( 'NONE', #101, #156, #242 ) ;
#335 = DIRECTION ( 'NONE',  ( -0.000000000000000000, -0.000000000000000000, -1.000000000000000000 ) ) ;
#336 = EDGE_CURVE ( 'NONE', #330, #44, #29, .T. ) ;
#337 = CARTESIAN_POINT ( 'NONE',  ( 2.500000000000000000, 3.061616997868383141E-16, 3.300000000000025135 ) ) ;
#338 = DIRECTION ( 'NONE',  ( 0.000000000000000000, 0.000000000000000000, -1.000000000000000000 ) ) ;
#339 = CIRCLE ( 'NONE', #121, 2.799999999999999822 ) ;
#340 = DIRECTION ( 'NONE',  ( -1.000000000000000000, 0.000000000000000000, 0.000000000000000000 ) ) ;
#341 = EDGE_CURVE ( 'NONE', #44, #330, #23, .T. ) ;
#342 = ORIENTED_EDGE ( 'NONE', *, *, #211, .F. ) ;
#343 = DIRECTION ( 'NONE',  ( -0.000000000000000000, -0.000000000000000000, -1.000000000000000000 ) ) ;
#344 = CC_DESIGN_SECURITY_CLASSIFICATION ( #10, ( #72 ) ) ;
#345 = CC_DESIGN_PERSON_AND_ORGANIZATION_ASSIGNMENT ( #27, #328, ( #72 ) ) ;
#346 = FACE_OUTER_BOUND ( 'NONE', #358, .T. ) ;
#347 = CYLINDRICAL_SURFACE ( 'NONE', #154, 5.000000000000000000 ) ;
#348 = DIRECTION ( 'NONE',  ( 0.000000000000000000, 0.000000000000000000, 1.000000000000000000 ) ) ;
#349 = FACE_BOUND ( 'NONE', #168, .T. ) ;
#350 = ORIENTED_EDGE ( 'NONE', *, *, #118, .T. ) ;
#351 = COORDINATED_UNIVERSAL_TIME_OFFSET ( 1, 0, .AHEAD. ) ;
#352 = EDGE_CURVE ( 'NONE', #189, #218, #243, .T. ) ;
#353 = UNCERTAINTY_MEASURE_WITH_UNIT (LENGTH_MEASURE( 1.000000000000000082E-05 ), #278, 'distance_accuracy_value', 'NONE');
#354 = CIRCLE ( 'NONE', #329, 2.500000000000000000 ) ;
#355 =( GEOMETRIC_REPRESENTATION_CONTEXT ( 3 ) GLOBAL_UNCERTAINTY_ASSIGNED_CONTEXT ( ( #353 ) ) GLOBAL_UNIT_ASSIGNED_CONTEXT ( ( #278, #371, #190 ) ) REPRESENTATION_CONTEXT ( 'NONE', 'WORKASPACE' ) );
#356 = ORIENTED_EDGE ( 'NONE', *, *, #245, .T. ) ;
#357 = APPLICATION_PROTOCOL_DEFINITION ( 'international standard', 'config_control_design', 1994, #272 ) ;
#358 = EDGE_LOOP ( 'NONE', ( #236, #314, #311, #200 ) ) ;
#359 = CARTESIAN_POINT ( 'NONE',  ( 0.000000000000000000, 0.000000000000000000, 0.000000000000000000 ) ) ;
#360 = CARTESIAN_POINT ( 'NONE',  ( -2.799999999999999822, 3.429011037612589276E-16, 3.000000000000012434 ) ) ;
#361 = LINE ( 'NONE', #124, #377 ) ;
#362 = APPROVAL ( #172, 'NEURÈENÝ' ) ;
#363 = CIRCLE ( 'NONE', #159, 0.2999999999999999334 ) ;
#364 = ORIENTED_EDGE ( 'NONE', *, *, #336, .F. ) ;
#365 = DIRECTION ( 'NONE',  ( 0.000000000000000000, 0.000000000000000000, 1.000000000000000000 ) ) ;
#366 = ORIENTED_EDGE ( 'NONE', *, *, #352, .T. ) ;
#367 = VERTEX_POINT ( 'NONE', #86 ) ;
#368 = DIRECTION ( 'NONE',  ( 1.000000000000000000, 0.000000000000000000, 0.000000000000000000 ) ) ;
#369 = ORIENTED_EDGE ( 'NONE', *, *, #151, .T. ) ;
#370 = VECTOR ( 'NONE', #338, 1000.000000000000000 ) ;
#371 =( NAMED_UNIT ( * ) PLANE_ANGLE_UNIT ( ) SI_UNIT ( $, .RADIAN. ) );
#372 = ORIENTED_EDGE ( 'NONE', *, *, #336, .T. ) ;
#373 = FACE_BOUND ( 'NONE', #107, .T. ) ;
#374 = CC_DESIGN_PERSON_AND_ORGANIZATION_ASSIGNMENT ( #265, #260, ( #70 ) ) ;
#375 = ORIENTED_EDGE ( 'NONE', *, *, #122, .F. ) ;
#376 = DIRECTION ( 'NONE',  ( 1.000000000000000000, 0.000000000000000000, 0.000000000000000000 ) ) ;
#377 = VECTOR ( 'NONE', #335, 1000.000000000000000 ) ;
#378 = ORIENTED_EDGE ( 'NONE', *, *, #122, .T. ) ;
#379 = CARTESIAN_POINT ( 'NONE',  ( 0.000000000000000000, 0.000000000000000000, 3.000000000000000000 ) ) ;
#380 = FACE_OUTER_BOUND ( 'NONE', #213, .T. ) ;
#381 = DIRECTION ( 'NONE',  ( -1.000000000000000000, 0.000000000000000000, 0.000000000000000000 ) ) ;
ENDSEC;
END-ISO-10303-21;
