ISO-10303-21;
HEADER;
FILE_DESCRIPTION (( 'STEP AP203' ),
    '1' );
FILE_NAME ('af62.STEP',
    '2022-07-08T14:22:12',
    ( '' ),
    ( '' ),
    'SwSTEP 2.0',
    'SolidWorks 2019',
    '' );
FILE_SCHEMA (( 'CONFIG_CONTROL_DESIGN' ));
ENDSEC;

DATA;
#1 = COORDINATED_UNIVERSAL_TIME_OFFSET ( 1, 0, .AHEAD. ) ;
#2 = CARTESIAN_POINT ( 'NONE',  ( 0.000000000000000000, 0.000000000000000000, 7.000000000000000000 ) ) ;
#3 = DIRECTION ( 'NONE',  ( 0.000000000000000000, 0.000000000000000000, 1.000000000000000000 ) ) ;
#4 = EDGE_CURVE ( 'NONE', #368, #199, #351, .T. ) ;
#5 = VECTOR ( 'NONE', #223, 1000.000000000000000 ) ;
#6 = CARTESIAN_POINT ( 'NONE',  ( 5.000000000000000000, 6.123233995736766282E-16, 557.0000000000000000 ) ) ;
#7 = DIRECTION ( 'NONE',  ( 0.000000000000000000, 0.000000000000000000, 1.000000000000000000 ) ) ;
#8 = UNCERTAINTY_MEASURE_WITH_UNIT (LENGTH_MEASURE( 1.000000000000000082E-05 ), #379, 'distance_accuracy_value', 'NONE');
#9 = DIRECTION ( 'NONE',  ( 1.000000000000000000, 0.000000000000000000, -0.000000000000000000 ) ) ;
#10 = ORGANIZATION ( 'NEURÈENÝ', 'NEURÈENÝ', '' ) ;
#11 = DIRECTION ( 'NONE',  ( 0.000000000000000000, 0.000000000000000000, 1.000000000000000000 ) ) ;
#12 = DIRECTION ( 'NONE',  ( -1.000000000000000000, 0.000000000000000000, 0.000000000000000000 ) ) ;
#13 = ORIENTED_EDGE ( 'NONE', *, *, #62, .T. ) ;
#14 = FACE_OUTER_BOUND ( 'NONE', #54, .T. ) ;
#15 = EDGE_LOOP ( 'NONE', ( #201, #279 ) ) ;
#16 = CIRCLE ( 'NONE', #67, 5.000000000000000000 ) ;
#17 = CYLINDRICAL_SURFACE ( 'NONE', #183, 5.000000000000000000 ) ;
#18 = APPROVAL_PERSON_ORGANIZATION ( #147, #36, #58 ) ;
#19 = DIRECTION ( 'NONE',  ( 1.000000000000000000, 0.000000000000000000, 0.000000000000000000 ) ) ;
#20 = DIRECTION ( 'NONE',  ( 0.000000000000000000, 0.000000000000000000, 1.000000000000000000 ) ) ;
#21 = ORIENTED_EDGE ( 'NONE', *, *, #237, .T. ) ;
#22 = PERSON_AND_ORGANIZATION_ROLE ( 'creator' ) ;
#23 = CIRCLE ( 'NONE', #171, 7.000000000000000888 ) ;
#24 = AXIS2_PLACEMENT_3D ( 'NONE', #321, #369, #149 ) ;
#25 = APPROVAL_STATUS ( 'not_yet_approved' ) ;
#26 = APPROVAL_STATUS ( 'not_yet_approved' ) ;
#27 = PERSON_AND_ORGANIZATION ( #195, #10 ) ;
#28 = EDGE_LOOP ( 'NONE', ( #356, #218, #256, #178 ) ) ;
#29 = CIRCLE ( 'NONE', #121, 7.000000000000000888 ) ;
#30 = PLANE ( 'NONE',  #138 ) ;
#31 = EDGE_CURVE ( 'NONE', #341, #159, #93, .T. ) ;
#32 = CARTESIAN_POINT ( 'NONE',  ( -7.000000000000000888, 0.000000000000000000, 7.700000000000040146 ) ) ;
#33 = LINE ( 'NONE', #295, #353 ) ;
#34 = AXIS2_PLACEMENT_3D ( 'NONE', #244, #357, #280 ) ;
#35 = DIRECTION ( 'NONE',  ( 1.000000000000000000, 0.000000000000000000, -0.000000000000000000 ) ) ;
#36 = APPROVAL ( #25, 'NEURÈENÝ' ) ;
#37 = ORIENTED_EDGE ( 'NONE', *, *, #49, .F. ) ;
#38 = DIRECTION ( 'NONE',  ( 0.000000000000000000, 0.000000000000000000, 1.000000000000000000 ) ) ;
#39 = FACE_OUTER_BOUND ( 'NONE', #170, .T. ) ;
#40 = DIRECTION ( 'NONE',  ( 0.000000000000000000, 0.000000000000000000, 1.000000000000000000 ) ) ;
#41 = VERTEX_POINT ( 'NONE', #220 ) ;
#42 = DIRECTION ( 'NONE',  ( 0.000000000000000000, 0.000000000000000000, -1.000000000000000000 ) ) ;
#43 = ORIENTED_EDGE ( 'NONE', *, *, #132, .T. ) ;
#44 = DIRECTION ( 'NONE',  ( -0.000000000000000000, -0.000000000000000000, -1.000000000000000000 ) ) ;
#45 = ORIENTED_EDGE ( 'NONE', *, *, #192, .T. ) ;
#46 = VECTOR ( 'NONE', #359, 1000.000000000000000 ) ;
#47 = DIRECTION ( 'NONE',  ( 0.000000000000000000, 0.000000000000000000, -1.000000000000000000 ) ) ;
#48 = VERTEX_POINT ( 'NONE', #6 ) ;
#49 = EDGE_CURVE ( 'NONE', #159, #341, #59, .T. ) ;
#50 = ADVANCED_FACE ( 'NONE', ( #274 ), #296, .F. ) ;
#51 = APPROVAL_DATE_TIME ( #316, #293 ) ;
#52 = VERTEX_POINT ( 'NONE', #32 ) ;
#53 = CARTESIAN_POINT ( 'NONE',  ( 0.000000000000000000, 0.000000000000000000, 557.0000000000000000 ) ) ;
#54 = EDGE_LOOP ( 'NONE', ( #116, #21, #253, #79 ) ) ;
#55 = PERSON_AND_ORGANIZATION ( #195, #10 ) ;
#56 = AXIS2_PLACEMENT_3D ( 'NONE', #226, #340, #77 ) ;
#57 = DIRECTION ( 'NONE',  ( 0.000000000000000000, 0.000000000000000000, 1.000000000000000000 ) ) ;
#58 = APPROVAL_ROLE ( '' ) ;
#59 = CIRCLE ( 'NONE', #302, 5.000000000000000000 ) ;
#60 = APPROVAL_PERSON_ORGANIZATION ( #323, #90, #91 ) ;
#61 = EDGE_CURVE ( 'NONE', #203, #109, #311, .T. ) ;
#62 = EDGE_CURVE ( 'NONE', #203, #52, #185, .T. ) ;
#63 = DIRECTION ( 'NONE',  ( -1.000000000000000000, 1.224646799147351975E-16, 0.000000000000000000 ) ) ;
#64 = DIRECTION ( 'NONE',  ( -0.000000000000000000, -0.000000000000000000, -1.000000000000000000 ) ) ;
#65 = DATE_TIME_ROLE ( 'classification_date' ) ;
#66 = FACE_OUTER_BOUND ( 'NONE', #242, .T. ) ;
#67 = AXIS2_PLACEMENT_3D ( 'NONE', #53, #83, #111 ) ;
#68 = VERTEX_POINT ( 'NONE', #241 ) ;
#69 = FACE_BOUND ( 'NONE', #332, .T. ) ;
#70 = CARTESIAN_POINT ( 'NONE',  ( 0.000000000000000000, 0.000000000000000000, 7.700000000000040146 ) ) ;
#71 = DIRECTION ( 'NONE',  ( -0.000000000000000000, -0.000000000000000000, -1.000000000000000000 ) ) ;
#72 = AXIS2_PLACEMENT_3D ( 'NONE', #325, #246, #63 ) ;
#73 = ADVANCED_FACE ( 'NONE', ( #69, #324 ), #30, .T. ) ;
#74 = LOCAL_TIME ( 16, 22, 12.00000000000000000, #84 ) ;
#75 = DIRECTION ( 'NONE',  ( 1.000000000000000000, 0.000000000000000000, 0.000000000000000000 ) ) ;
#76 = ORIENTED_EDGE ( 'NONE', *, *, #267, .T. ) ;
#77 = DIRECTION ( 'NONE',  ( -1.000000000000000000, 0.000000000000000000, 0.000000000000000000 ) ) ;
#78 = DIRECTION ( 'NONE',  ( -1.000000000000000000, 0.000000000000000000, 0.000000000000000000 ) ) ;
#79 = ORIENTED_EDGE ( 'NONE', *, *, #4, .F. ) ;
#80 = AXIS2_PLACEMENT_3D ( 'NONE', #331, #213, #154 ) ;
#81 = EDGE_LOOP ( 'NONE', ( #364, #106 ) ) ;
#82 = ORIENTED_EDGE ( 'NONE', *, *, #62, .F. ) ;
#83 = DIRECTION ( 'NONE',  ( 0.000000000000000000, 0.000000000000000000, 1.000000000000000000 ) ) ;
#84 = COORDINATED_UNIVERSAL_TIME_OFFSET ( 1, 0, .AHEAD. ) ;
#85 = AXIS2_PLACEMENT_3D ( 'NONE', #284, #20, #255 ) ;
#86 = CALENDAR_DATE ( 2022, 8, 7 ) ;
#87 = PRODUCT ( 'af62', 'af62', '', ( #261 ) ) ;
#88 = CARTESIAN_POINT ( 'NONE',  ( -11.00000000000000000, 0.000000000000000000, 7.000000000000000000 ) ) ;
#89 = EDGE_CURVE ( 'NONE', #68, #341, #355, .T. ) ;
#90 = APPROVAL ( #234, 'NEURÈENÝ' ) ;
#91 = APPROVAL_ROLE ( '' ) ;
#92 = DIRECTION ( 'NONE',  ( 0.000000000000000000, 0.000000000000000000, 1.000000000000000000 ) ) ;
#93 = CIRCLE ( 'NONE', #219, 5.000000000000000000 ) ;
#94 = LOCAL_TIME ( 16, 22, 12.00000000000000000, #287 ) ;
#95 = DIRECTION ( 'NONE',  ( -0.000000000000000000, -0.000000000000000000, -1.000000000000000000 ) ) ;
#96 = CARTESIAN_POINT ( 'NONE',  ( 5.000000000000000000, 6.123233995736766282E-16, 0.000000000000000000 ) ) ;
#97 = EDGE_LOOP ( 'NONE', ( #125, #142, #13, #337 ) ) ;
#98 = DIRECTION ( 'NONE',  ( 1.000000000000000000, 0.000000000000000000, 0.000000000000000000 ) ) ;
#99 = CIRCLE ( 'NONE', #238, 11.00000000000000000 ) ;
#100 = CARTESIAN_POINT ( 'NONE',  ( 0.000000000000000000, 0.000000000000000000, 557.0000000000000000 ) ) ;
#101 = DIRECTION ( 'NONE',  ( 0.000000000000000000, -1.000000000000000000, 0.000000000000000000 ) ) ;
#102 = ADVANCED_FACE ( 'NONE', ( #215 ), #250, .F. ) ;
#103 = FACE_OUTER_BOUND ( 'NONE', #286, .T. ) ;
#104 = AXIS2_PLACEMENT_3D ( 'NONE', #153, #191, #328 ) ;
#105 = CYLINDRICAL_SURFACE ( 'NONE', #56, 11.00000000000000000 ) ;
#106 = ORIENTED_EDGE ( 'NONE', *, *, #176, .T. ) ;
#107 = EDGE_CURVE ( 'NONE', #109, #203, #372, .T. ) ;
#108 = FACE_OUTER_BOUND ( 'NONE', #28, .T. ) ;
#109 = VERTEX_POINT ( 'NONE', #120 ) ;
#110 = ORIENTED_EDGE ( 'NONE', *, *, #107, .F. ) ;
#111 = DIRECTION ( 'NONE',  ( 1.000000000000000000, 0.000000000000000000, 0.000000000000000000 ) ) ;
#112 = CARTESIAN_POINT ( 'NONE',  ( 0.000000000000000000, 0.000000000000000000, 0.000000000000000000 ) ) ;
#113 = PERSON_AND_ORGANIZATION_ROLE ( 'design_owner' ) ;
#114 = APPLICATION_PROTOCOL_DEFINITION ( 'international standard', 'config_control_design', 1994, #264 ) ;
#115 = AXIS2_PLACEMENT_3D ( 'NONE', #160, #92, #354 ) ;
#116 = ORIENTED_EDGE ( 'NONE', *, *, #176, .F. ) ;
#117 = ADVANCED_FACE ( 'NONE', ( #119 ), #327, .T. ) ;
#118 = DATE_AND_TIME ( #268, #247 ) ;
#119 = FACE_OUTER_BOUND ( 'NONE', #97, .T. ) ;
#120 = CARTESIAN_POINT ( 'NONE',  ( 7.000000000000000888, 8.572527594031474176E-16, 557.0000000000000000 ) ) ;
#121 = AXIS2_PLACEMENT_3D ( 'NONE', #336, #338, #75 ) ;
#122 = AXIS2_PLACEMENT_3D ( 'NONE', #112, #57, #377 ) ;
#123 = DIRECTION ( 'NONE',  ( 0.000000000000000000, 0.000000000000000000, 1.000000000000000000 ) ) ;
#124 = DESIGN_CONTEXT ( 'detailed design', #163, 'design' ) ;
#125 = ORIENTED_EDGE ( 'NONE', *, *, #132, .F. ) ;
#126 = APPROVAL_DATE_TIME ( #118, #90 ) ;
#127 = PLANE ( 'NONE',  #196 ) ;
#128 = FACE_BOUND ( 'NONE', #229, .T. ) ;
#129 = AXIS2_PLACEMENT_3D ( 'NONE', #298, #64, #269 ) ;
#130 = DIRECTION ( 'NONE',  ( -0.000000000000000000, -0.000000000000000000, -1.000000000000000000 ) ) ;
#131 = EDGE_CURVE ( 'NONE', #41, #199, #179, .T. ) ;
#132 = EDGE_CURVE ( 'NONE', #109, #346, #33, .T. ) ;
#133 = ORIENTED_EDGE ( 'NONE', *, *, #187, .F. ) ;
#134 = CARTESIAN_POINT ( 'NONE',  ( -7.000000000000000888, 0.000000000000000000, 557.0000000000000000 ) ) ;
#135 = ORIENTED_EDGE ( 'NONE', *, *, #49, .T. ) ;
#136 = CARTESIAN_POINT ( 'NONE',  ( 11.00000000000000000, 1.347111479062088405E-15, 7.000000000000000000 ) ) ;
#137 = VERTEX_POINT ( 'NONE', #188 ) ;
#138 = AXIS2_PLACEMENT_3D ( 'NONE', #2, #123, #9 ) ;
#139 = LINE ( 'NONE', #362, #5 ) ;
#140 = ORIENTED_EDGE ( 'NONE', *, *, #267, .F. ) ;
#141 = CARTESIAN_POINT ( 'NONE',  ( 11.00000000000000000, 1.347111479062088405E-15, 7.000000000000000000 ) ) ;
#142 = ORIENTED_EDGE ( 'NONE', *, *, #61, .F. ) ;
#143 = COORDINATED_UNIVERSAL_TIME_OFFSET ( 1, 0, .AHEAD. ) ;
#144 = ORIENTED_EDGE ( 'NONE', *, *, #207, .F. ) ;
#145 = CLOSED_SHELL ( 'NONE', ( #292, #50, #277, #318, #322, #73, #177, #117, #308, #102, #243 ) ) ;
#146 = CC_DESIGN_APPROVAL ( #90, ( #239 ) ) ;
#147 = PERSON_AND_ORGANIZATION ( #195, #10 ) ;
#148 = PERSON_AND_ORGANIZATION ( #195, #10 ) ;
#149 = DIRECTION ( 'NONE',  ( 1.000000000000000000, 0.000000000000000000, 0.000000000000000000 ) ) ;
#150 = CC_DESIGN_DATE_AND_TIME_ASSIGNMENT ( #151, #65, ( #239 ) ) ;
#151 = DATE_AND_TIME ( #211, #74 ) ;
#152 = AXIS2_PLACEMENT_3D ( 'NONE', #363, #228, #365 ) ;
#153 = CARTESIAN_POINT ( 'NONE',  ( 0.000000000000000000, 0.000000000000000000, 557.0000000000000000 ) ) ;
#154 = DIRECTION ( 'NONE',  ( 1.000000000000000000, 0.000000000000000000, 0.000000000000000000 ) ) ;
#155 = CARTESIAN_POINT ( 'NONE',  ( 0.000000000000000000, 0.000000000000000000, 0.000000000000000000 ) ) ;
#156 = AXIS2_PLACEMENT_3D ( 'NONE', #200, #44, #78 ) ;
#157 = ORIENTED_EDGE ( 'NONE', *, *, #283, .F. ) ;
#158 = DIRECTION ( 'NONE',  ( 1.000000000000000000, 0.000000000000000000, 0.000000000000000000 ) ) ;
#159 = VERTEX_POINT ( 'NONE', #96 ) ;
#160 = CARTESIAN_POINT ( 'NONE',  ( 0.000000000000000000, 0.000000000000000000, 0.000000000000000000 ) ) ;
#161 = PRODUCT_DEFINITION ( 'NEZNÁMÝ', '', #381, #124 ) ;
#162 = CARTESIAN_POINT ( 'NONE',  ( -11.00000000000000000, 0.000000000000000000, 0.000000000000000000 ) ) ;
#163 = APPLICATION_CONTEXT ( 'configuration controlled 3d designs of mechanical parts and assemblies' ) ;
#164 = CIRCLE ( 'NONE', #152, 7.700000000000001066 ) ;
#165 = ORIENTED_EDGE ( 'NONE', *, *, #192, .F. ) ;
#166 = CARTESIAN_POINT ( 'NONE',  ( 0.000000000000000000, 0.000000000000000000, 557.0000000000000000 ) ) ;
#167 = DIRECTION ( 'NONE',  ( 0.000000000000000000, 0.000000000000000000, -1.000000000000000000 ) ) ;
#168 = CARTESIAN_POINT ( 'NONE',  ( 0.000000000000000000, 0.000000000000000000, 0.000000000000000000 ) ) ;
#169 = CARTESIAN_POINT ( 'NONE',  ( -5.000000000000000000, 0.000000000000000000, 0.000000000000000000 ) ) ;
#170 = EDGE_LOOP ( 'NONE', ( #334, #282, #135, #205 ) ) ;
#171 = AXIS2_PLACEMENT_3D ( 'NONE', #70, #11, #307 ) ;
#172 = CIRCLE ( 'NONE', #330, 0.7000000000000000666 ) ;
#173 = FACE_OUTER_BOUND ( 'NONE', #309, .T. ) ;
#174 = ORIENTED_EDGE ( 'NONE', *, *, #187, .T. ) ;
#175 = ORIENTED_EDGE ( 'NONE', *, *, #378, .T. ) ;
#176 = EDGE_CURVE ( 'NONE', #209, #368, #99, .T. ) ;
#177 = ADVANCED_FACE ( 'NONE', ( #128, #66 ), #127, .F. ) ;
#178 = ORIENTED_EDGE ( 'NONE', *, *, #31, .T. ) ;
#179 = CIRCLE ( 'NONE', #115, 11.00000000000000000 ) ;
#180 = PERSON_AND_ORGANIZATION ( #195, #10 ) ;
#181 = CC_DESIGN_DATE_AND_TIME_ASSIGNMENT ( #376, #320, ( #161 ) ) ;
#182 = APPROVAL_DATE_TIME ( #257, #36 ) ;
#183 = AXIS2_PLACEMENT_3D ( 'NONE', #166, #167, #275 ) ;
#184 = LOCAL_TIME ( 16, 22, 12.00000000000000000, #210 ) ;
#185 = LINE ( 'NONE', #297, #46 ) ;
#186 = DIRECTION ( 'NONE',  ( 1.000000000000000000, 0.000000000000000000, 0.000000000000000000 ) ) ;
#187 = EDGE_CURVE ( 'NONE', #52, #137, #291, .T. ) ;
#188 = CARTESIAN_POINT ( 'NONE',  ( -7.700000000000001066, 9.429780353434621002E-16, 7.000000000000020428 ) ) ;
#189 = AXIS2_PLACEMENT_3D ( 'NONE', #100, #222, #333 ) ;
#190 = CC_DESIGN_APPROVAL ( #293, ( #161 ) ) ;
#191 = DIRECTION ( 'NONE',  ( 0.000000000000000000, 0.000000000000000000, 1.000000000000000000 ) ) ;
#192 = EDGE_CURVE ( 'NONE', #199, #41, #344, .T. ) ;
#193 = CARTESIAN_POINT ( 'NONE',  ( 0.000000000000000000, 0.000000000000000000, 557.0000000000000000 ) ) ;
#194 = CARTESIAN_POINT ( 'NONE',  ( 7.700000000000001066, 0.000000000000000000, 7.700000000000040146 ) ) ;
#195 = PERSON ( 'NEURÈENÝ', 'NEURÈENÝ', 'NEURÈENÝ', ('NEURÈENÝ'), ('NEURÈENÝ'), ('NEURÈENÝ') ) ;
#196 = AXIS2_PLACEMENT_3D ( 'NONE', #273, #7, #35 ) ;
#197 = CC_DESIGN_SECURITY_CLASSIFICATION ( #239, ( #381 ) ) ;
#198 = CYLINDRICAL_SURFACE ( 'NONE', #230, 5.000000000000000000 ) ;
#199 = VERTEX_POINT ( 'NONE', #162 ) ;
#200 = CARTESIAN_POINT ( 'NONE',  ( 0.000000000000000000, 0.000000000000000000, 7.000000000000000000 ) ) ;
#201 = ORIENTED_EDGE ( 'NONE', *, *, #361, .F. ) ;
#202 = CARTESIAN_POINT ( 'NONE',  ( 0.000000000000000000, 0.000000000000000000, 557.0000000000000000 ) ) ;
#203 = VERTEX_POINT ( 'NONE', #134 ) ;
#204 = VECTOR ( 'NONE', #294, 1000.000000000000000 ) ;
#205 = ORIENTED_EDGE ( 'NONE', *, *, #89, .F. ) ;
#206 = CC_DESIGN_PERSON_AND_ORGANIZATION_ASSIGNMENT ( #55, #22, ( #161 ) ) ;
#207 = EDGE_CURVE ( 'NONE', #251, #137, #164, .T. ) ;
#208 = APPLICATION_PROTOCOL_DEFINITION ( 'international standard', 'config_control_design', 1994, #163 ) ;
#209 = VERTEX_POINT ( 'NONE', #136 ) ;
#210 = COORDINATED_UNIVERSAL_TIME_OFFSET ( 1, 0, .AHEAD. ) ;
#211 = CALENDAR_DATE ( 2022, 8, 7 ) ;
#212 = PERSON_AND_ORGANIZATION_ROLE ( 'classification_officer' ) ;
#213 = DIRECTION ( 'NONE',  ( 0.000000000000000000, 0.000000000000000000, 1.000000000000000000 ) ) ;
#214 = CARTESIAN_POINT ( 'NONE',  ( 0.000000000000000000, 0.000000000000000000, 7.000000000000000000 ) ) ;
#215 = FACE_OUTER_BOUND ( 'NONE', #272, .T. ) ;
#216 = SHAPE_DEFINITION_REPRESENTATION ( #265, #314 ) ;
#217 = DIRECTION ( 'NONE',  ( 1.000000000000000000, 0.000000000000000000, 0.000000000000000000 ) ) ;
#218 = ORIENTED_EDGE ( 'NONE', *, *, #374, .T. ) ;
#219 = AXIS2_PLACEMENT_3D ( 'NONE', #168, #227, #19 ) ;
#220 = CARTESIAN_POINT ( 'NONE',  ( 11.00000000000000000, 1.347111479062088405E-15, 0.000000000000000000 ) ) ;
#221 = CC_DESIGN_PERSON_AND_ORGANIZATION_ASSIGNMENT ( #27, #212, ( #239 ) ) ;
#222 = DIRECTION ( 'NONE',  ( 0.000000000000000000, 0.000000000000000000, 1.000000000000000000 ) ) ;
#223 = DIRECTION ( 'NONE',  ( 0.000000000000000000, 0.000000000000000000, -1.000000000000000000 ) ) ;
#224 = CYLINDRICAL_SURFACE ( 'NONE', #380, 7.000000000000000888 ) ;
#225 = AXIS2_PLACEMENT_3D ( 'NONE', #278, #40, #276 ) ;
#226 = CARTESIAN_POINT ( 'NONE',  ( 0.000000000000000000, 0.000000000000000000, 7.000000000000000000 ) ) ;
#227 = DIRECTION ( 'NONE',  ( -0.000000000000000000, -0.000000000000000000, -1.000000000000000000 ) ) ;
#228 = DIRECTION ( 'NONE',  ( -0.000000000000000000, -0.000000000000000000, -1.000000000000000000 ) ) ;
#229 = EDGE_LOOP ( 'NONE', ( #288, #37 ) ) ;
#230 = AXIS2_PLACEMENT_3D ( 'NONE', #202, #47, #249 ) ;
#231 = APPROVAL_PERSON_ORGANIZATION ( #260, #293, #349 ) ;
#232 = PERSON_AND_ORGANIZATION_ROLE ( 'design_supplier' ) ;
#233 = ORIENTED_EDGE ( 'NONE', *, *, #61, .T. ) ;
#234 = APPROVAL_STATUS ( 'not_yet_approved' ) ;
#235 = DIRECTION ( 'NONE',  ( 0.000000000000000000, 0.000000000000000000, 1.000000000000000000 ) ) ;
#236 = EDGE_CURVE ( 'NONE', #346, #251, #172, .T. ) ;
#237 = EDGE_CURVE ( 'NONE', #209, #41, #305, .T. ) ;
#238 = AXIS2_PLACEMENT_3D ( 'NONE', #214, #235, #217 ) ;
#239 = SECURITY_CLASSIFICATION ( '', '', #347 ) ;
#240 = CARTESIAN_POINT ( 'NONE',  ( 0.000000000000000000, 0.000000000000000000, 557.0000000000000000 ) ) ;
#241 = CARTESIAN_POINT ( 'NONE',  ( -5.000000000000000000, 0.000000000000000000, 557.0000000000000000 ) ) ;
#242 = EDGE_LOOP ( 'NONE', ( #165, #370 ) ) ;
#243 = ADVANCED_FACE ( 'NONE', ( #108 ), #17, .F. ) ;
#244 = CARTESIAN_POINT ( 'NONE',  ( 0.000000000000000000, 0.000000000000000000, 0.000000000000000000 ) ) ;
#245 = AXIS2_PLACEMENT_3D ( 'NONE', #240, #3, #158 ) ;
#246 = DIRECTION ( 'NONE',  ( 1.224646799147353207E-16, 1.000000000000000000, -0.000000000000000000 ) ) ;
#247 = LOCAL_TIME ( 16, 22, 12.00000000000000000, #1 ) ;
#248 = ORIENTED_EDGE ( 'NONE', *, *, #237, .F. ) ;
#249 = DIRECTION ( 'NONE',  ( -1.000000000000000000, 0.000000000000000000, 0.000000000000000000 ) ) ;
#250 = TOROIDAL_SURFACE ( 'NONE', #80, 7.700000000000001066, 0.6999999999999999556 ) ;
#251 = VERTEX_POINT ( 'NONE', #299 ) ;
#252 = CYLINDRICAL_SURFACE ( 'NONE', #156, 11.00000000000000000 ) ;
#253 = ORIENTED_EDGE ( 'NONE', *, *, #131, .T. ) ;
#254 = PRODUCT_RELATED_PRODUCT_CATEGORY ( 'detail', '', ( #87 ) ) ;
#255 = DIRECTION ( 'NONE',  ( 1.000000000000000000, 0.000000000000000000, 0.000000000000000000 ) ) ;
#256 = ORIENTED_EDGE ( 'NONE', *, *, #89, .T. ) ;
#257 = DATE_AND_TIME ( #86, #184 ) ;
#258 = ORIENTED_EDGE ( 'NONE', *, *, #360, .F. ) ;
#259 = VECTOR ( 'NONE', #306, 1000.000000000000000 ) ;
#260 = PERSON_AND_ORGANIZATION ( #195, #10 ) ;
#261 = MECHANICAL_CONTEXT ( 'NONE', #264, 'mechanical' ) ;
#262 =( NAMED_UNIT ( * ) PLANE_ANGLE_UNIT ( ) SI_UNIT ( $, .RADIAN. ) );
#263 = AXIS2_PLACEMENT_3D ( 'NONE', #271, #38, #186 ) ;
#264 = APPLICATION_CONTEXT ( 'configuration controlled 3d designs of mechanical parts and assemblies' ) ;
#265 = PRODUCT_DEFINITION_SHAPE ( 'NONE', 'NONE',  #161 ) ;
#266 = DIRECTION ( 'NONE',  ( -0.000000000000000000, -0.000000000000000000, -1.000000000000000000 ) ) ;
#267 = EDGE_CURVE ( 'NONE', #346, #52, #23, .T. ) ;
#268 = CALENDAR_DATE ( 2022, 8, 7 ) ;
#269 = DIRECTION ( 'NONE',  ( -1.000000000000000000, 0.000000000000000000, 0.000000000000000000 ) ) ;
#270 = CIRCLE ( 'NONE', #85, 11.00000000000000000 ) ;
#271 = CARTESIAN_POINT ( 'NONE',  ( 0.000000000000000000, 0.000000000000000000, 7.700000000000040146 ) ) ;
#272 = EDGE_LOOP ( 'NONE', ( #133, #140, #375, #339 ) ) ;
#273 = CARTESIAN_POINT ( 'NONE',  ( 0.000000000000000000, 0.000000000000000000, 0.000000000000000000 ) ) ;
#274 = FACE_OUTER_BOUND ( 'NONE', #317, .T. ) ;
#275 = DIRECTION ( 'NONE',  ( -1.000000000000000000, 0.000000000000000000, 0.000000000000000000 ) ) ;
#276 = DIRECTION ( 'NONE',  ( 1.000000000000000000, 0.000000000000000000, -0.000000000000000000 ) ) ;
#277 = ADVANCED_FACE ( 'NONE', ( #103 ), #224, .T. ) ;
#278 = CARTESIAN_POINT ( 'NONE',  ( 0.000000000000000000, 0.000000000000000000, 557.0000000000000000 ) ) ;
#279 = ORIENTED_EDGE ( 'NONE', *, *, #374, .F. ) ;
#280 = DIRECTION ( 'NONE',  ( 1.000000000000000000, 0.000000000000000000, 0.000000000000000000 ) ) ;
#281 =( GEOMETRIC_REPRESENTATION_CONTEXT ( 3 ) GLOBAL_UNCERTAINTY_ASSIGNED_CONTEXT ( ( #8 ) ) GLOBAL_UNIT_ASSIGNED_CONTEXT ( ( #379, #262, #343 ) ) REPRESENTATION_CONTEXT ( 'NONE', 'WORKASPACE' ) );
#282 = ORIENTED_EDGE ( 'NONE', *, *, #301, .T. ) ;
#283 = EDGE_CURVE ( 'NONE', #52, #346, #29, .T. ) ;
#284 = CARTESIAN_POINT ( 'NONE',  ( 0.000000000000000000, 0.000000000000000000, 7.000000000000000000 ) ) ;
#285 = PERSON_AND_ORGANIZATION_ROLE ( 'creator' ) ;
#286 = EDGE_LOOP ( 'NONE', ( #110, #43, #76, #82 ) ) ;
#287 = COORDINATED_UNIVERSAL_TIME_OFFSET ( 1, 0, .AHEAD. ) ;
#288 = ORIENTED_EDGE ( 'NONE', *, *, #31, .F. ) ;
#289 = PERSON_AND_ORGANIZATION ( #195, #10 ) ;
#290 = CALENDAR_DATE ( 2022, 8, 7 ) ;
#291 = CIRCLE ( 'NONE', #72, 0.7000000000000000666 ) ;
#292 = ADVANCED_FACE ( 'NONE', ( #39 ), #198, .F. ) ;
#293 = APPROVAL ( #26, 'NEURÈENÝ' ) ;
#294 = DIRECTION ( 'NONE',  ( 0.000000000000000000, 0.000000000000000000, -1.000000000000000000 ) ) ;
#295 = CARTESIAN_POINT ( 'NONE',  ( 7.000000000000000888, 8.572527594031474176E-16, 557.0000000000000000 ) ) ;
#296 = TOROIDAL_SURFACE ( 'NONE', #263, 7.700000000000001066, 0.6999999999999999556 ) ;
#297 = CARTESIAN_POINT ( 'NONE',  ( -7.000000000000000888, 0.000000000000000000, 557.0000000000000000 ) ) ;
#298 = CARTESIAN_POINT ( 'NONE',  ( 0.000000000000000000, 0.000000000000000000, 557.0000000000000000 ) ) ;
#299 = CARTESIAN_POINT ( 'NONE',  ( 7.700000000000001066, 0.000000000000000000, 7.000000000000020428 ) ) ;
#300 = EDGE_LOOP ( 'NONE', ( #233, #366 ) ) ;
#301 = EDGE_CURVE ( 'NONE', #48, #159, #139, .T. ) ;
#302 = AXIS2_PLACEMENT_3D ( 'NONE', #155, #266, #98 ) ;
#303 = FACE_BOUND ( 'NONE', #15, .T. ) ;
#304 = CC_DESIGN_APPROVAL ( #36, ( #381 ) ) ;
#305 = LINE ( 'NONE', #141, #358 ) ;
#306 = DIRECTION ( 'NONE',  ( -0.000000000000000000, -0.000000000000000000, -1.000000000000000000 ) ) ;
#307 = DIRECTION ( 'NONE',  ( 1.000000000000000000, 0.000000000000000000, 0.000000000000000000 ) ) ;
#308 = ADVANCED_FACE ( 'NONE', ( #303, #342 ), #367, .T. ) ;
#309 = EDGE_LOOP ( 'NONE', ( #248, #258, #315, #45 ) ) ;
#310 = CARTESIAN_POINT ( 'NONE',  ( 7.000000000000000888, 8.572527594031474176E-16, 7.700000000000040146 ) ) ;
#311 = CIRCLE ( 'NONE', #245, 7.000000000000000888 ) ;
#312 = CIRCLE ( 'NONE', #24, 7.700000000000001066 ) ;
#313 = ORIENTED_EDGE ( 'NONE', *, *, #236, .F. ) ;
#314 = ADVANCED_BREP_SHAPE_REPRESENTATION ( 'af62', ( #326, #122 ), #281 ) ;
#315 = ORIENTED_EDGE ( 'NONE', *, *, #4, .T. ) ;
#316 = DATE_AND_TIME ( #319, #94 ) ;
#317 = EDGE_LOOP ( 'NONE', ( #157, #174, #144, #313 ) ) ;
#318 = ADVANCED_FACE ( 'NONE', ( #14 ), #105, .T. ) ;
#319 = CALENDAR_DATE ( 2022, 8, 7 ) ;
#320 = DATE_TIME_ROLE ( 'creation_date' ) ;
#321 = CARTESIAN_POINT ( 'NONE',  ( 0.000000000000000000, 0.000000000000000000, 7.000000000000000000 ) ) ;
#322 = ADVANCED_FACE ( 'NONE', ( #173 ), #252, .T. ) ;
#323 = PERSON_AND_ORGANIZATION ( #195, #10 ) ;
#324 = FACE_OUTER_BOUND ( 'NONE', #81, .T. ) ;
#325 = CARTESIAN_POINT ( 'NONE',  ( -7.700000000000001066, 9.429780353434621002E-16, 7.700000000000040146 ) ) ;
#326 = MANIFOLD_SOLID_BREP ( 'Odebrat vysunutím3', #145 ) ;
#327 = CYLINDRICAL_SURFACE ( 'NONE', #129, 7.000000000000000888 ) ;
#328 = DIRECTION ( 'NONE',  ( 1.000000000000000000, 0.000000000000000000, 0.000000000000000000 ) ) ;
#329 = ORIENTED_EDGE ( 'NONE', *, *, #207, .T. ) ;
#330 = AXIS2_PLACEMENT_3D ( 'NONE', #194, #101, #42 ) ;
#331 = CARTESIAN_POINT ( 'NONE',  ( 0.000000000000000000, 0.000000000000000000, 7.700000000000040146 ) ) ;
#332 = EDGE_LOOP ( 'NONE', ( #329, #175 ) ) ;
#333 = DIRECTION ( 'NONE',  ( 1.000000000000000000, 0.000000000000000000, 0.000000000000000000 ) ) ;
#334 = ORIENTED_EDGE ( 'NONE', *, *, #361, .T. ) ;
#335 = CC_DESIGN_PERSON_AND_ORGANIZATION_ASSIGNMENT ( #180, #113, ( #87 ) ) ;
#336 = CARTESIAN_POINT ( 'NONE',  ( 0.000000000000000000, 0.000000000000000000, 7.700000000000040146 ) ) ;
#337 = ORIENTED_EDGE ( 'NONE', *, *, #283, .T. ) ;
#338 = DIRECTION ( 'NONE',  ( 0.000000000000000000, 0.000000000000000000, 1.000000000000000000 ) ) ;
#339 = ORIENTED_EDGE ( 'NONE', *, *, #378, .F. ) ;
#340 = DIRECTION ( 'NONE',  ( -0.000000000000000000, -0.000000000000000000, -1.000000000000000000 ) ) ;
#341 = VERTEX_POINT ( 'NONE', #169 ) ;
#342 = FACE_OUTER_BOUND ( 'NONE', #300, .T. ) ;
#343 =( NAMED_UNIT ( * ) SI_UNIT ( $, .STERADIAN. ) SOLID_ANGLE_UNIT ( ) );
#344 = CIRCLE ( 'NONE', #34, 11.00000000000000000 ) ;
#345 = LOCAL_TIME ( 16, 22, 12.00000000000000000, #143 ) ;
#346 = VERTEX_POINT ( 'NONE', #310 ) ;
#347 = SECURITY_CLASSIFICATION_LEVEL ( 'unclassified' ) ;
#348 = CIRCLE ( 'NONE', #189, 5.000000000000000000 ) ;
#349 = APPROVAL_ROLE ( '' ) ;
#350 = CC_DESIGN_PERSON_AND_ORGANIZATION_ASSIGNMENT ( #289, #285, ( #381 ) ) ;
#351 = LINE ( 'NONE', #88, #259 ) ;
#352 = CARTESIAN_POINT ( 'NONE',  ( -5.000000000000000000, 0.000000000000000000, 557.0000000000000000 ) ) ;
#353 = VECTOR ( 'NONE', #95, 1000.000000000000000 ) ;
#354 = DIRECTION ( 'NONE',  ( 1.000000000000000000, 0.000000000000000000, 0.000000000000000000 ) ) ;
#355 = LINE ( 'NONE', #352, #204 ) ;
#356 = ORIENTED_EDGE ( 'NONE', *, *, #301, .F. ) ;
#357 = DIRECTION ( 'NONE',  ( 0.000000000000000000, 0.000000000000000000, 1.000000000000000000 ) ) ;
#358 = VECTOR ( 'NONE', #71, 1000.000000000000000 ) ;
#359 = DIRECTION ( 'NONE',  ( -0.000000000000000000, -0.000000000000000000, -1.000000000000000000 ) ) ;
#360 = EDGE_CURVE ( 'NONE', #368, #209, #270, .T. ) ;
#361 = EDGE_CURVE ( 'NONE', #68, #48, #348, .T. ) ;
#362 = CARTESIAN_POINT ( 'NONE',  ( 5.000000000000000000, 6.123233995736766282E-16, 557.0000000000000000 ) ) ;
#363 = CARTESIAN_POINT ( 'NONE',  ( 0.000000000000000000, 0.000000000000000000, 7.000000000000000000 ) ) ;
#364 = ORIENTED_EDGE ( 'NONE', *, *, #360, .T. ) ;
#365 = DIRECTION ( 'NONE',  ( 1.000000000000000000, 0.000000000000000000, 0.000000000000000000 ) ) ;
#366 = ORIENTED_EDGE ( 'NONE', *, *, #107, .T. ) ;
#367 = PLANE ( 'NONE',  #225 ) ;
#368 = VERTEX_POINT ( 'NONE', #371 ) ;
#369 = DIRECTION ( 'NONE',  ( -0.000000000000000000, -0.000000000000000000, -1.000000000000000000 ) ) ;
#370 = ORIENTED_EDGE ( 'NONE', *, *, #131, .F. ) ;
#371 = CARTESIAN_POINT ( 'NONE',  ( -11.00000000000000000, 0.000000000000000000, 7.000000000000000000 ) ) ;
#372 = CIRCLE ( 'NONE', #104, 7.000000000000000888 ) ;
#373 = CC_DESIGN_PERSON_AND_ORGANIZATION_ASSIGNMENT ( #148, #232, ( #381 ) ) ;
#374 = EDGE_CURVE ( 'NONE', #48, #68, #16, .T. ) ;
#375 = ORIENTED_EDGE ( 'NONE', *, *, #236, .T. ) ;
#376 = DATE_AND_TIME ( #290, #345 ) ;
#377 = DIRECTION ( 'NONE',  ( 1.000000000000000000, 0.000000000000000000, 0.000000000000000000 ) ) ;
#378 = EDGE_CURVE ( 'NONE', #137, #251, #312, .T. ) ;
#379 =( LENGTH_UNIT ( ) NAMED_UNIT ( * ) SI_UNIT ( .MILLI., .METRE. ) );
#380 = AXIS2_PLACEMENT_3D ( 'NONE', #193, #130, #12 ) ;
#381 = PRODUCT_DEFINITION_FORMATION_WITH_SPECIFIED_SOURCE ( 'LIBOVOLNÝ', '', #87, .NOT_KNOWN. ) ;
ENDSEC;
END-ISO-10303-21;
