ISO-10303-21;
HEADER;
FILE_DESCRIPTION (( 'STEP AP203' ),
    '1' );
FILE_NAME ('198a.STEP',
    '2022-07-08T15:29:37',
    ( '' ),
    ( '' ),
    'SwSTEP 2.0',
    'SolidWorks 2019',
    '' );
FILE_SCHEMA (( 'CONFIG_CONTROL_DESIGN' ));
ENDSEC;

DATA;
#1 = EDGE_CURVE ( 'NONE', #125, #223, #276, .T. ) ;
#2 = VECTOR ( 'NONE', #86, 1000.000000000000000 ) ;
#3 = DIRECTION ( 'NONE',  ( -1.000000000000000000, 1.224646799147351482E-16, 0.000000000000000000 ) ) ;
#4 = UNCERTAINTY_MEASURE_WITH_UNIT (LENGTH_MEASURE( 1.000000000000000082E-05 ), #60, 'distance_accuracy_value', 'NONE');
#5 = DIRECTION ( 'NONE',  ( 0.000000000000000000, 0.000000000000000000, 1.000000000000000000 ) ) ;
#6 = CYLINDRICAL_SURFACE ( 'NONE', #313, 4.000000000000000000 ) ;
#7 = AXIS2_PLACEMENT_3D ( 'NONE', #292, #377, #199 ) ;
#8 = DIRECTION ( 'NONE',  ( 1.000000000000000000, 0.000000000000000000, 0.000000000000000000 ) ) ;
#9 = DIRECTION ( 'NONE',  ( 1.000000000000000000, 0.000000000000000000, 0.000000000000000000 ) ) ;
#10 = CARTESIAN_POINT ( 'NONE',  ( 0.000000000000000000, 0.000000000000000000, 5.499999999999949374 ) ) ;
#11 = ADVANCED_FACE ( 'NONE', ( #305 ), #270, .F. ) ;
#12 = ORIENTED_EDGE ( 'NONE', *, *, #324, .F. ) ;
#13 = CARTESIAN_POINT ( 'NONE',  ( 2.000000000000000000, 2.449293598294706414E-16, 705.0000000000000000 ) ) ;
#14 = TOROIDAL_SURFACE ( 'NONE', #168, 4.500000000000000888, 0.5000000000000000000 ) ;
#15 = DIRECTION ( 'NONE',  ( 1.000000000000000000, 0.000000000000000000, -0.000000000000000000 ) ) ;
#16 = ORIENTED_EDGE ( 'NONE', *, *, #89, .F. ) ;
#17 = DIRECTION ( 'NONE',  ( 0.000000000000000000, 0.000000000000000000, 1.000000000000000000 ) ) ;
#18 = EDGE_CURVE ( 'NONE', #138, #374, #249, .T. ) ;
#19 = DATE_TIME_ROLE ( 'classification_date' ) ;
#20 = EDGE_LOOP ( 'NONE', ( #341, #273 ) ) ;
#21 = DIRECTION ( 'NONE',  ( 1.000000000000000000, 0.000000000000000000, -0.000000000000000000 ) ) ;
#22 = ORIENTED_EDGE ( 'NONE', *, *, #70, .F. ) ;
#23 = CC_DESIGN_APPROVAL ( #82, ( #154 ) ) ;
#24 = PERSON_AND_ORGANIZATION_ROLE ( 'creator' ) ;
#25 = EDGE_CURVE ( 'NONE', #289, #158, #347, .T. ) ;
#26 = DIRECTION ( 'NONE',  ( 0.000000000000000000, 0.000000000000000000, 1.000000000000000000 ) ) ;
#27 = DATE_TIME_ROLE ( 'creation_date' ) ;
#28 = PRODUCT_RELATED_PRODUCT_CATEGORY ( 'detail', '', ( #68 ) ) ;
#29 = LINE ( 'NONE', #381, #2 ) ;
#30 = DIRECTION ( 'NONE',  ( 0.000000000000000000, 0.000000000000000000, 1.000000000000000000 ) ) ;
#31 = APPROVAL_STATUS ( 'not_yet_approved' ) ;
#32 = ADVANCED_FACE ( 'NONE', ( #188 ), #6, .T. ) ;
#33 =( NAMED_UNIT ( * ) PLANE_ANGLE_UNIT ( ) SI_UNIT ( $, .RADIAN. ) );
#34 = CARTESIAN_POINT ( 'NONE',  ( 0.000000000000000000, 0.000000000000000000, 5.000000000000000000 ) ) ;
#35 = CIRCLE ( 'NONE', #278, 2.000000000000000000 ) ;
#36 = ORIENTED_EDGE ( 'NONE', *, *, #1, .T. ) ;
#37 = DIRECTION ( 'NONE',  ( 0.000000000000000000, 0.000000000000000000, 1.000000000000000000 ) ) ;
#38 = CARTESIAN_POINT ( 'NONE',  ( -4.500000000000000888, 5.510910596163089556E-16, 5.499999999999949374 ) ) ;
#39 = CIRCLE ( 'NONE', #121, 7.000000000000000000 ) ;
#40 = CARTESIAN_POINT ( 'NONE',  ( 0.000000000000000000, 0.000000000000000000, 5.000000000000000000 ) ) ;
#41 = EDGE_CURVE ( 'NONE', #355, #185, #69, .T. ) ;
#42 = ORIENTED_EDGE ( 'NONE', *, *, #298, .T. ) ;
#43 = CARTESIAN_POINT ( 'NONE',  ( 0.000000000000000000, 0.000000000000000000, 0.000000000000000000 ) ) ;
#44 = APPLICATION_CONTEXT ( 'configuration controlled 3d designs of mechanical parts and assemblies' ) ;
#45 = EDGE_LOOP ( 'NONE', ( #78, #250, #311, #81 ) ) ;
#46 = CARTESIAN_POINT ( 'NONE',  ( 4.500000000000000888, 0.000000000000000000, 4.999999999999975131 ) ) ;
#47 = SECURITY_CLASSIFICATION_LEVEL ( 'unclassified' ) ;
#48 = AXIS2_PLACEMENT_3D ( 'NONE', #112, #59, #231 ) ;
#49 = CALENDAR_DATE ( 2022, 8, 7 ) ;
#50 = EDGE_LOOP ( 'NONE', ( #261, #206 ) ) ;
#51 = FACE_OUTER_BOUND ( 'NONE', #192, .T. ) ;
#52 = FACE_OUTER_BOUND ( 'NONE', #45, .T. ) ;
#53 = EDGE_LOOP ( 'NONE', ( #221, #99 ) ) ;
#54 = AXIS2_PLACEMENT_3D ( 'NONE', #159, #271, #9 ) ;
#55 = APPROVAL_DATE_TIME ( #146, #124 ) ;
#56 = DIRECTION ( 'NONE',  ( -0.000000000000000000, -0.000000000000000000, -1.000000000000000000 ) ) ;
#57 = EDGE_CURVE ( 'NONE', #280, #253, #339, .T. ) ;
#58 = LOCAL_TIME ( 17, 29, 37.00000000000000000, #260 ) ;
#59 = DIRECTION ( 'NONE',  ( -0.000000000000000000, -0.000000000000000000, -1.000000000000000000 ) ) ;
#60 =( LENGTH_UNIT ( ) NAMED_UNIT ( * ) SI_UNIT ( .MILLI., .METRE. ) );
#61 = DIRECTION ( 'NONE',  ( -1.000000000000000000, 0.000000000000000000, 0.000000000000000000 ) ) ;
#62 = ADVANCED_FACE ( 'NONE', ( #367, #308 ), #368, .T. ) ;
#63 = DIRECTION ( 'NONE',  ( -0.000000000000000000, -0.000000000000000000, -1.000000000000000000 ) ) ;
#64 = APPROVAL_PERSON_ORGANIZATION ( #139, #92, #327 ) ;
#65 = DIRECTION ( 'NONE',  ( -1.000000000000000000, 0.000000000000000000, 0.000000000000000000 ) ) ;
#66 = DIRECTION ( 'NONE',  ( -0.000000000000000000, -0.000000000000000000, -1.000000000000000000 ) ) ;
#67 = DIRECTION ( 'NONE',  ( 1.000000000000000000, 0.000000000000000000, 0.000000000000000000 ) ) ;
#68 = PRODUCT ( '198a', '198a', '', ( #301 ) ) ;
#69 = CIRCLE ( 'NONE', #364, 2.000000000000000000 ) ;
#70 = EDGE_CURVE ( 'NONE', #374, #138, #370, .T. ) ;
#71 = AXIS2_PLACEMENT_3D ( 'NONE', #283, #323, #15 ) ;
#72 = ORIENTED_EDGE ( 'NONE', *, *, #361, .T. ) ;
#73 = DIRECTION ( 'NONE',  ( -1.000000000000000000, 0.000000000000000000, 0.000000000000000000 ) ) ;
#74 = ORIENTED_EDGE ( 'NONE', *, *, #102, .F. ) ;
#75 = EDGE_LOOP ( 'NONE', ( #88, #143, #166, #12 ) ) ;
#76 = PLANE ( 'NONE',  #209 ) ;
#77 = AXIS2_PLACEMENT_3D ( 'NONE', #40, #362, #363 ) ;
#78 = ORIENTED_EDGE ( 'NONE', *, *, #111, .F. ) ;
#79 = CARTESIAN_POINT ( 'NONE',  ( 7.000000000000000000, 8.572527594031473190E-16, 5.000000000000000000 ) ) ;
#80 = VERTEX_POINT ( 'NONE', #244 ) ;
#81 = ORIENTED_EDGE ( 'NONE', *, *, #118, .F. ) ;
#82 = APPROVAL ( #113, 'NEURÈENÝ' ) ;
#83 = SECURITY_CLASSIFICATION ( '', '', #47 ) ;
#84 = FACE_OUTER_BOUND ( 'NONE', #255, .T. ) ;
#85 = ADVANCED_FACE ( 'NONE', ( #215 ), #239, .F. ) ;
#86 = DIRECTION ( 'NONE',  ( 0.000000000000000000, 0.000000000000000000, -1.000000000000000000 ) ) ;
#87 = EDGE_LOOP ( 'NONE', ( #247, #285 ) ) ;
#88 = ORIENTED_EDGE ( 'NONE', *, *, #57, .F. ) ;
#89 = EDGE_CURVE ( 'NONE', #315, #374, #93, .T. ) ;
#90 = CARTESIAN_POINT ( 'NONE',  ( -2.000000000000000000, 0.000000000000000000, 705.0000000000000000 ) ) ;
#91 = DIRECTION ( 'NONE',  ( 0.000000000000000000, 0.000000000000000000, 1.000000000000000000 ) ) ;
#92 = APPROVAL ( #31, 'NEURÈENÝ' ) ;
#93 = CIRCLE ( 'NONE', #286, 0.5000000000000004441 ) ;
#94 = CARTESIAN_POINT ( 'NONE',  ( 0.000000000000000000, 0.000000000000000000, 5.000000000000000000 ) ) ;
#95 = LINE ( 'NONE', #333, #300 ) ;
#96 = EDGE_CURVE ( 'NONE', #80, #315, #142, .T. ) ;
#97 = APPLICATION_PROTOCOL_DEFINITION ( 'international standard', 'config_control_design', 1994, #212 ) ;
#98 = DIRECTION ( 'NONE',  ( 0.000000000000000000, 0.000000000000000000, 1.000000000000000000 ) ) ;
#99 = ORIENTED_EDGE ( 'NONE', *, *, #70, .T. ) ;
#100 = CYLINDRICAL_SURFACE ( 'NONE', #334, 4.000000000000000000 ) ;
#101 = CIRCLE ( 'NONE', #340, 4.000000000000000000 ) ;
#102 = EDGE_CURVE ( 'NONE', #253, #280, #243, .T. ) ;
#103 = ORIENTED_EDGE ( 'NONE', *, *, #1, .F. ) ;
#104 = PERSON_AND_ORGANIZATION_ROLE ( 'classification_officer' ) ;
#105 = ORIENTED_EDGE ( 'NONE', *, *, #174, .F. ) ;
#106 = APPROVAL_PERSON_ORGANIZATION ( #141, #124, #354 ) ;
#107 = EDGE_LOOP ( 'NONE', ( #103, #169 ) ) ;
#108 = DIRECTION ( 'NONE',  ( -1.000000000000000000, 0.000000000000000000, 0.000000000000000000 ) ) ;
#109 = APPROVAL_DATE_TIME ( #262, #82 ) ;
#110 = ORIENTED_EDGE ( 'NONE', *, *, #266, .F. ) ;
#111 = EDGE_CURVE ( 'NONE', #158, #289, #172, .T. ) ;
#112 = CARTESIAN_POINT ( 'NONE',  ( 0.000000000000000000, 0.000000000000000000, 0.000000000000000000 ) ) ;
#113 = APPROVAL_STATUS ( 'not_yet_approved' ) ;
#114 = DIRECTION ( 'NONE',  ( 1.000000000000000000, 0.000000000000000000, 0.000000000000000000 ) ) ;
#115 = PERSON ( 'NEURÈENÝ', 'NEURÈENÝ', 'NEURÈENÝ', ('NEURÈENÝ'), ('NEURÈENÝ'), ('NEURÈENÝ') ) ;
#116 = VECTOR ( 'NONE', #320, 1000.000000000000000 ) ;
#117 = VECTOR ( 'NONE', #218, 1000.000000000000000 ) ;
#118 = EDGE_CURVE ( 'NONE', #289, #194, #369, .T. ) ;
#119 = CARTESIAN_POINT ( 'NONE',  ( -4.000000000000000000, 0.000000000000000000, 5.499999999999949374 ) ) ;
#120 = AXIS2_PLACEMENT_3D ( 'NONE', #216, #98, #131 ) ;
#121 = AXIS2_PLACEMENT_3D ( 'NONE', #147, #26, #114 ) ;
#122 = DIRECTION ( 'NONE',  ( 1.000000000000000000, 0.000000000000000000, 0.000000000000000000 ) ) ;
#123 = DATE_AND_TIME ( #153, #349 ) ;
#124 = APPROVAL ( #227, 'NEURÈENÝ' ) ;
#125 = VERTEX_POINT ( 'NONE', #310 ) ;
#126 = CARTESIAN_POINT ( 'NONE',  ( 0.000000000000000000, 0.000000000000000000, 705.0000000000000000 ) ) ;
#127 = CARTESIAN_POINT ( 'NONE',  ( 7.000000000000000000, 8.572527594031473190E-16, 0.000000000000000000 ) ) ;
#128 = ORIENTED_EDGE ( 'NONE', *, *, #266, .T. ) ;
#129 = DIRECTION ( 'NONE',  ( -0.000000000000000000, -0.000000000000000000, -1.000000000000000000 ) ) ;
#130 = AXIS2_PLACEMENT_3D ( 'NONE', #186, #129, #242 ) ;
#131 = DIRECTION ( 'NONE',  ( 1.000000000000000000, 0.000000000000000000, -0.000000000000000000 ) ) ;
#132 = ADVANCED_FACE ( 'NONE', ( #52 ), #222, .T. ) ;
#133 = DIRECTION ( 'NONE',  ( 0.000000000000000000, 0.000000000000000000, 1.000000000000000000 ) ) ;
#134 = MANIFOLD_SOLID_BREP ( 'Odebrat vysunutím3', #307 ) ;
#135 = DIRECTION ( 'NONE',  ( 1.000000000000000000, 0.000000000000000000, 0.000000000000000000 ) ) ;
#136 = AXIS2_PLACEMENT_3D ( 'NONE', #184, #5, #245 ) ;
#137 = CARTESIAN_POINT ( 'NONE',  ( -7.000000000000000000, 0.000000000000000000, 0.000000000000000000 ) ) ;
#138 = VERTEX_POINT ( 'NONE', #46 ) ;
#139 = PERSON_AND_ORGANIZATION ( #115, #189 ) ;
#140 = ORIENTED_EDGE ( 'NONE', *, *, #293, .F. ) ;
#141 = PERSON_AND_ORGANIZATION ( #115, #189 ) ;
#142 = CIRCLE ( 'NONE', #54, 4.000000000000000000 ) ;
#143 = ORIENTED_EDGE ( 'NONE', *, *, #174, .T. ) ;
#144 = CARTESIAN_POINT ( 'NONE',  ( -4.000000000000000000, 0.000000000000000000, 705.0000000000000000 ) ) ;
#145 = DATE_AND_TIME ( #288, #234 ) ;
#146 = DATE_AND_TIME ( #200, #252 ) ;
#147 = CARTESIAN_POINT ( 'NONE',  ( 0.000000000000000000, 0.000000000000000000, 0.000000000000000000 ) ) ;
#148 = ADVANCED_FACE ( 'NONE', ( #353, #167 ), #225, .T. ) ;
#149 = AXIS2_PLACEMENT_3D ( 'NONE', #330, #274, #181 ) ;
#150 = CIRCLE ( 'NONE', #7, 7.000000000000000000 ) ;
#151 = COORDINATED_UNIVERSAL_TIME_OFFSET ( 1, 0, .AHEAD. ) ;
#152 = CARTESIAN_POINT ( 'NONE',  ( 7.000000000000000000, 8.572527594031473190E-16, 5.000000000000000000 ) ) ;
#153 = CALENDAR_DATE ( 2022, 8, 7 ) ;
#154 = PRODUCT_DEFINITION ( 'NEZNÁMÝ', '', #238, #302 ) ;
#155 = TOROIDAL_SURFACE ( 'NONE', #201, 4.500000000000000888, 0.5000000000000000000 ) ;
#156 = DIRECTION ( 'NONE',  ( 1.224646799147353207E-16, 1.000000000000000000, -0.000000000000000000 ) ) ;
#157 = DIRECTION ( 'NONE',  ( 1.000000000000000000, 0.000000000000000000, 0.000000000000000000 ) ) ;
#158 = VERTEX_POINT ( 'NONE', #79 ) ;
#159 = CARTESIAN_POINT ( 'NONE',  ( 0.000000000000000000, 0.000000000000000000, 5.499999999999949374 ) ) ;
#160 = APPROVAL_PERSON_ORGANIZATION ( #254, #82, #230 ) ;
#161 = DIRECTION ( 'NONE',  ( 1.000000000000000000, 0.000000000000000000, 0.000000000000000000 ) ) ;
#162 = ADVANCED_FACE ( 'NONE', ( #171, #373 ), #76, .F. ) ;
#163 = ORIENTED_EDGE ( 'NONE', *, *, #96, .F. ) ;
#164 = CARTESIAN_POINT ( 'NONE',  ( 4.000000000000000000, 4.898587196589412829E-16, 705.0000000000000000 ) ) ;
#165 = CC_DESIGN_PERSON_AND_ORGANIZATION_ASSIGNMENT ( #350, #24, ( #238 ) ) ;
#166 = ORIENTED_EDGE ( 'NONE', *, *, #96, .T. ) ;
#167 = FACE_OUTER_BOUND ( 'NONE', #20, .T. ) ;
#168 = AXIS2_PLACEMENT_3D ( 'NONE', #10, #17, #135 ) ;
#169 = ORIENTED_EDGE ( 'NONE', *, *, #298, .F. ) ;
#170 = DATE_AND_TIME ( #49, #357 ) ;
#171 = FACE_BOUND ( 'NONE', #107, .T. ) ;
#172 = CIRCLE ( 'NONE', #77, 7.000000000000000000 ) ;
#173 = EDGE_LOOP ( 'NONE', ( #309, #282 ) ) ;
#174 = EDGE_CURVE ( 'NONE', #280, #80, #195, .T. ) ;
#175 = FACE_OUTER_BOUND ( 'NONE', #275, .T. ) ;
#176 = CC_DESIGN_PERSON_AND_ORGANIZATION_ASSIGNMENT ( #279, #104, ( #83 ) ) ;
#177 = CARTESIAN_POINT ( 'NONE',  ( 0.000000000000000000, 0.000000000000000000, 5.499999999999949374 ) ) ;
#178 = AXIS2_PLACEMENT_3D ( 'NONE', #207, #303, #337 ) ;
#179 = CARTESIAN_POINT ( 'NONE',  ( 2.000000000000000000, 2.449293598294706414E-16, 0.000000000000000000 ) ) ;
#180 = ADVANCED_FACE ( 'NONE', ( #51 ), #14, .F. ) ;
#181 = DIRECTION ( 'NONE',  ( 1.000000000000000000, 0.000000000000000000, 0.000000000000000000 ) ) ;
#182 = CARTESIAN_POINT ( 'NONE',  ( 0.000000000000000000, 0.000000000000000000, 705.0000000000000000 ) ) ;
#183 = ADVANCED_FACE ( 'NONE', ( #248 ), #100, .T. ) ;
#184 = CARTESIAN_POINT ( 'NONE',  ( 0.000000000000000000, 0.000000000000000000, 0.000000000000000000 ) ) ;
#185 = VERTEX_POINT ( 'NONE', #13 ) ;
#186 = CARTESIAN_POINT ( 'NONE',  ( 0.000000000000000000, 0.000000000000000000, 0.000000000000000000 ) ) ;
#187 = AXIS2_PLACEMENT_3D ( 'NONE', #34, #63, #67 ) ;
#188 = FACE_OUTER_BOUND ( 'NONE', #75, .T. ) ;
#189 = ORGANIZATION ( 'NEURÈENÝ', 'NEURÈENÝ', '' ) ;
#190 = CC_DESIGN_PERSON_AND_ORGANIZATION_ASSIGNMENT ( #312, #281, ( #154 ) ) ;
#191 = ORIENTED_EDGE ( 'NONE', *, *, #324, .T. ) ;
#192 = EDGE_LOOP ( 'NONE', ( #16, #163, #226, #22 ) ) ;
#193 = AXIS2_PLACEMENT_3D ( 'NONE', #366, #335, #65 ) ;
#194 = VERTEX_POINT ( 'NONE', #137 ) ;
#195 = LINE ( 'NONE', #164, #116 ) ;
#196 = EDGE_LOOP ( 'NONE', ( #105, #74, #191, #128 ) ) ;
#197 = CARTESIAN_POINT ( 'NONE',  ( 0.000000000000000000, 0.000000000000000000, 5.000000000000000000 ) ) ;
#198 = ORIENTED_EDGE ( 'NONE', *, *, #25, .F. ) ;
#199 = DIRECTION ( 'NONE',  ( 1.000000000000000000, 0.000000000000000000, 0.000000000000000000 ) ) ;
#200 = CALENDAR_DATE ( 2022, 8, 7 ) ;
#201 = AXIS2_PLACEMENT_3D ( 'NONE', #235, #358, #203 ) ;
#202 = CARTESIAN_POINT ( 'NONE',  ( 4.500000000000000888, 0.000000000000000000, 5.499999999999949374 ) ) ;
#203 = DIRECTION ( 'NONE',  ( 1.000000000000000000, 0.000000000000000000, 0.000000000000000000 ) ) ;
#204 = CARTESIAN_POINT ( 'NONE',  ( 4.000000000000000000, 4.898587196589412829E-16, 705.0000000000000000 ) ) ;
#205 = ORIENTED_EDGE ( 'NONE', *, *, #352, .F. ) ;
#206 = ORIENTED_EDGE ( 'NONE', *, *, #224, .F. ) ;
#207 = CARTESIAN_POINT ( 'NONE',  ( 0.000000000000000000, 0.000000000000000000, 705.0000000000000000 ) ) ;
#208 = EDGE_CURVE ( 'NONE', #158, #346, #290, .T. ) ;
#209 = AXIS2_PLACEMENT_3D ( 'NONE', #43, #251, #21 ) ;
#210 = DIRECTION ( 'NONE',  ( 0.000000000000000000, 0.000000000000000000, -1.000000000000000000 ) ) ;
#211 = CARTESIAN_POINT ( 'NONE',  ( 0.000000000000000000, 0.000000000000000000, 705.0000000000000000 ) ) ;
#212 = APPLICATION_CONTEXT ( 'configuration controlled 3d designs of mechanical parts and assemblies' ) ;
#213 = DIRECTION ( 'NONE',  ( 0.000000000000000000, 0.000000000000000000, 1.000000000000000000 ) ) ;
#214 = ORIENTED_EDGE ( 'NONE', *, *, #293, .T. ) ;
#215 = FACE_OUTER_BOUND ( 'NONE', #228, .T. ) ;
#216 = CARTESIAN_POINT ( 'NONE',  ( 0.000000000000000000, 0.000000000000000000, 705.0000000000000000 ) ) ;
#217 = ORIENTED_EDGE ( 'NONE', *, *, #272, .T. ) ;
#218 = DIRECTION ( 'NONE',  ( -0.000000000000000000, -0.000000000000000000, -1.000000000000000000 ) ) ;
#219 = CIRCLE ( 'NONE', #48, 2.000000000000000000 ) ;
#220 = PRODUCT_DEFINITION_SHAPE ( 'NONE', 'NONE',  #154 ) ;
#221 = ORIENTED_EDGE ( 'NONE', *, *, #18, .T. ) ;
#222 = CYLINDRICAL_SURFACE ( 'NONE', #360, 7.000000000000000000 ) ;
#223 = VERTEX_POINT ( 'NONE', #179 ) ;
#224 = EDGE_CURVE ( 'NONE', #346, #194, #150, .T. ) ;
#225 = PLANE ( 'NONE',  #71 ) ;
#226 = ORIENTED_EDGE ( 'NONE', *, *, #306, .T. ) ;
#227 = APPROVAL_STATUS ( 'not_yet_approved' ) ;
#228 = EDGE_LOOP ( 'NONE', ( #319, #214, #42, #205 ) ) ;
#229 = CARTESIAN_POINT ( 'NONE',  ( -4.000000000000000000, 0.000000000000000000, 705.0000000000000000 ) ) ;
#230 = APPROVAL_ROLE ( '' ) ;
#231 = DIRECTION ( 'NONE',  ( 1.000000000000000000, 0.000000000000000000, 0.000000000000000000 ) ) ;
#232 = AXIS2_PLACEMENT_3D ( 'NONE', #268, #91, #161 ) ;
#233 = PERSON_AND_ORGANIZATION_ROLE ( 'design_supplier' ) ;
#234 = LOCAL_TIME ( 17, 29, 37.00000000000000000, #376 ) ;
#235 = CARTESIAN_POINT ( 'NONE',  ( 0.000000000000000000, 0.000000000000000000, 5.499999999999949374 ) ) ;
#236 = DIRECTION ( 'NONE',  ( 0.000000000000000000, 0.000000000000000000, -1.000000000000000000 ) ) ;
#237 = AXIS2_PLACEMENT_3D ( 'NONE', #94, #336, #246 ) ;
#238 = PRODUCT_DEFINITION_FORMATION_WITH_SPECIFIED_SOURCE ( 'LIBOVOLNÝ', '', #68, .NOT_KNOWN. ) ;
#239 = CYLINDRICAL_SURFACE ( 'NONE', #178, 2.000000000000000000 ) ;
#240 = CARTESIAN_POINT ( 'NONE',  ( -4.500000000000000888, 5.510910596163088569E-16, 4.999999999999975131 ) ) ;
#241 = CARTESIAN_POINT ( 'NONE',  ( 0.000000000000000000, 0.000000000000000000, 705.0000000000000000 ) ) ;
#242 = DIRECTION ( 'NONE',  ( 1.000000000000000000, 0.000000000000000000, 0.000000000000000000 ) ) ;
#243 = CIRCLE ( 'NONE', #316, 4.000000000000000000 ) ;
#244 = CARTESIAN_POINT ( 'NONE',  ( 4.000000000000000000, 4.898587196589412829E-16, 5.499999999999949374 ) ) ;
#245 = DIRECTION ( 'NONE',  ( 1.000000000000000000, 0.000000000000000000, 0.000000000000000000 ) ) ;
#246 = DIRECTION ( 'NONE',  ( 1.000000000000000000, 0.000000000000000000, 0.000000000000000000 ) ) ;
#247 = ORIENTED_EDGE ( 'NONE', *, *, #102, .T. ) ;
#248 = FACE_OUTER_BOUND ( 'NONE', #196, .T. ) ;
#249 = CIRCLE ( 'NONE', #187, 4.500000000000000888 ) ;
#250 = ORIENTED_EDGE ( 'NONE', *, *, #208, .T. ) ;
#251 = DIRECTION ( 'NONE',  ( 0.000000000000000000, 0.000000000000000000, 1.000000000000000000 ) ) ;
#252 = LOCAL_TIME ( 17, 29, 37.00000000000000000, #257 ) ;
#253 = VERTEX_POINT ( 'NONE', #229 ) ;
#254 = PERSON_AND_ORGANIZATION ( #115, #189 ) ;
#255 = EDGE_LOOP ( 'NONE', ( #322, #198, #277, #217 ) ) ;
#256 = CARTESIAN_POINT ( 'NONE',  ( -7.000000000000000000, 0.000000000000000000, 5.000000000000000000 ) ) ;
#257 = COORDINATED_UNIVERSAL_TIME_OFFSET ( 1, 0, .AHEAD. ) ;
#258 = EDGE_LOOP ( 'NONE', ( #140, #72, #372, #36 ) ) ;
#259 = CC_DESIGN_APPROVAL ( #92, ( #83 ) ) ;
#260 = COORDINATED_UNIVERSAL_TIME_OFFSET ( 1, 0, .AHEAD. ) ;
#261 = ORIENTED_EDGE ( 'NONE', *, *, #272, .F. ) ;
#262 = DATE_AND_TIME ( #284, #58 ) ;
#263 = DIRECTION ( 'NONE',  ( 0.000000000000000000, -1.000000000000000000, 0.000000000000000000 ) ) ;
#264 = VECTOR ( 'NONE', #56, 1000.000000000000000 ) ;
#265 = CIRCLE ( 'NONE', #371, 0.5000000000000004441 ) ;
#266 = EDGE_CURVE ( 'NONE', #315, #80, #101, .T. ) ;
#267 = ADVANCED_BREP_SHAPE_REPRESENTATION ( '198a', ( #134, #136 ), #294 ) ;
#268 = CARTESIAN_POINT ( 'NONE',  ( 0.000000000000000000, 0.000000000000000000, 705.0000000000000000 ) ) ;
#269 = CC_DESIGN_DATE_AND_TIME_ASSIGNMENT ( #145, #27, ( #154 ) ) ;
#270 = CYLINDRICAL_SURFACE ( 'NONE', #359, 2.000000000000000000 ) ;
#271 = DIRECTION ( 'NONE',  ( 0.000000000000000000, 0.000000000000000000, 1.000000000000000000 ) ) ;
#272 = EDGE_CURVE ( 'NONE', #194, #346, #39, .T. ) ;
#273 = ORIENTED_EDGE ( 'NONE', *, *, #111, .T. ) ;
#274 = DIRECTION ( 'NONE',  ( -0.000000000000000000, -0.000000000000000000, -1.000000000000000000 ) ) ;
#275 = EDGE_LOOP ( 'NONE', ( #110, #351, #304, #344 ) ) ;
#276 = CIRCLE ( 'NONE', #130, 2.000000000000000000 ) ;
#277 = ORIENTED_EDGE ( 'NONE', *, *, #118, .T. ) ;
#278 = AXIS2_PLACEMENT_3D ( 'NONE', #296, #213, #8 ) ;
#279 = PERSON_AND_ORGANIZATION ( #115, #189 ) ;
#280 = VERTEX_POINT ( 'NONE', #204 ) ;
#281 = PERSON_AND_ORGANIZATION_ROLE ( 'creator' ) ;
#282 = ORIENTED_EDGE ( 'NONE', *, *, #361, .F. ) ;
#283 = CARTESIAN_POINT ( 'NONE',  ( 0.000000000000000000, 0.000000000000000000, 5.000000000000000000 ) ) ;
#284 = CALENDAR_DATE ( 2022, 8, 7 ) ;
#285 = ORIENTED_EDGE ( 'NONE', *, *, #57, .T. ) ;
#286 = AXIS2_PLACEMENT_3D ( 'NONE', #38, #156, #3 ) ;
#287 = CC_DESIGN_PERSON_AND_ORGANIZATION_ASSIGNMENT ( #378, #321, ( #68 ) ) ;
#288 = CALENDAR_DATE ( 2022, 8, 7 ) ;
#289 = VERTEX_POINT ( 'NONE', #295 ) ;
#290 = LINE ( 'NONE', #152, #325 ) ;
#291 = APPLICATION_PROTOCOL_DEFINITION ( 'international standard', 'config_control_design', 1994, #44 ) ;
#292 = CARTESIAN_POINT ( 'NONE',  ( 0.000000000000000000, 0.000000000000000000, 0.000000000000000000 ) ) ;
#293 = EDGE_CURVE ( 'NONE', #185, #223, #29, .T. ) ;
#294 =( GEOMETRIC_REPRESENTATION_CONTEXT ( 3 ) GLOBAL_UNCERTAINTY_ASSIGNED_CONTEXT ( ( #4 ) ) GLOBAL_UNIT_ASSIGNED_CONTEXT ( ( #60, #33, #299 ) ) REPRESENTATION_CONTEXT ( 'NONE', 'WORKASPACE' ) );
#295 = CARTESIAN_POINT ( 'NONE',  ( -7.000000000000000000, 0.000000000000000000, 5.000000000000000000 ) ) ;
#296 = CARTESIAN_POINT ( 'NONE',  ( 0.000000000000000000, 0.000000000000000000, 705.0000000000000000 ) ) ;
#297 = APPROVAL_DATE_TIME ( #123, #92 ) ;
#298 = EDGE_CURVE ( 'NONE', #223, #125, #219, .T. ) ;
#299 =( NAMED_UNIT ( * ) SI_UNIT ( $, .STERADIAN. ) SOLID_ANGLE_UNIT ( ) );
#300 = VECTOR ( 'NONE', #210, 1000.000000000000000 ) ;
#301 = MECHANICAL_CONTEXT ( 'NONE', #212, 'mechanical' ) ;
#302 = DESIGN_CONTEXT ( 'detailed design', #44, 'design' ) ;
#303 = DIRECTION ( 'NONE',  ( 0.000000000000000000, 0.000000000000000000, -1.000000000000000000 ) ) ;
#304 = ORIENTED_EDGE ( 'NONE', *, *, #18, .F. ) ;
#305 = FACE_OUTER_BOUND ( 'NONE', #258, .T. ) ;
#306 = EDGE_CURVE ( 'NONE', #80, #138, #265, .T. ) ;
#307 = CLOSED_SHELL ( 'NONE', ( #85, #331, #32, #132, #343, #148, #162, #183, #62, #180, #11 ) ) ;
#308 = FACE_OUTER_BOUND ( 'NONE', #87, .T. ) ;
#309 = ORIENTED_EDGE ( 'NONE', *, *, #41, .F. ) ;
#310 = CARTESIAN_POINT ( 'NONE',  ( -2.000000000000000000, 0.000000000000000000, 0.000000000000000000 ) ) ;
#311 = ORIENTED_EDGE ( 'NONE', *, *, #224, .T. ) ;
#312 = PERSON_AND_ORGANIZATION ( #115, #189 ) ;
#313 = AXIS2_PLACEMENT_3D ( 'NONE', #182, #66, #61 ) ;
#314 = CC_DESIGN_DATE_AND_TIME_ASSIGNMENT ( #170, #19, ( #83 ) ) ;
#315 = VERTEX_POINT ( 'NONE', #119 ) ;
#316 = AXIS2_PLACEMENT_3D ( 'NONE', #126, #133, #122 ) ;
#317 = DIRECTION ( 'NONE',  ( -0.000000000000000000, -0.000000000000000000, -1.000000000000000000 ) ) ;
#318 = COORDINATED_UNIVERSAL_TIME_OFFSET ( 1, 0, .AHEAD. ) ;
#319 = ORIENTED_EDGE ( 'NONE', *, *, #41, .T. ) ;
#320 = DIRECTION ( 'NONE',  ( -0.000000000000000000, -0.000000000000000000, -1.000000000000000000 ) ) ;
#321 = PERSON_AND_ORGANIZATION_ROLE ( 'design_owner' ) ;
#322 = ORIENTED_EDGE ( 'NONE', *, *, #208, .F. ) ;
#323 = DIRECTION ( 'NONE',  ( 0.000000000000000000, 0.000000000000000000, 1.000000000000000000 ) ) ;
#324 = EDGE_CURVE ( 'NONE', #253, #315, #326, .T. ) ;
#325 = VECTOR ( 'NONE', #356, 1000.000000000000000 ) ;
#326 = LINE ( 'NONE', #144, #264 ) ;
#327 = APPROVAL_ROLE ( '' ) ;
#328 = CYLINDRICAL_SURFACE ( 'NONE', #193, 7.000000000000000000 ) ;
#329 = CC_DESIGN_APPROVAL ( #124, ( #238 ) ) ;
#330 = CARTESIAN_POINT ( 'NONE',  ( 0.000000000000000000, 0.000000000000000000, 5.000000000000000000 ) ) ;
#331 = ADVANCED_FACE ( 'NONE', ( #175 ), #155, .F. ) ;
#332 = SHAPE_DEFINITION_REPRESENTATION ( #220, #267 ) ;
#333 = CARTESIAN_POINT ( 'NONE',  ( -2.000000000000000000, 0.000000000000000000, 705.0000000000000000 ) ) ;
#334 = AXIS2_PLACEMENT_3D ( 'NONE', #345, #342, #73 ) ;
#335 = DIRECTION ( 'NONE',  ( -0.000000000000000000, -0.000000000000000000, -1.000000000000000000 ) ) ;
#336 = DIRECTION ( 'NONE',  ( 0.000000000000000000, 0.000000000000000000, 1.000000000000000000 ) ) ;
#337 = DIRECTION ( 'NONE',  ( -1.000000000000000000, 0.000000000000000000, 0.000000000000000000 ) ) ;
#338 = DIRECTION ( 'NONE',  ( 0.000000000000000000, 0.000000000000000000, -1.000000000000000000 ) ) ;
#339 = CIRCLE ( 'NONE', #232, 4.000000000000000000 ) ;
#340 = AXIS2_PLACEMENT_3D ( 'NONE', #177, #30, #380 ) ;
#341 = ORIENTED_EDGE ( 'NONE', *, *, #25, .T. ) ;
#342 = DIRECTION ( 'NONE',  ( -0.000000000000000000, -0.000000000000000000, -1.000000000000000000 ) ) ;
#343 = ADVANCED_FACE ( 'NONE', ( #84 ), #328, .T. ) ;
#344 = ORIENTED_EDGE ( 'NONE', *, *, #306, .F. ) ;
#345 = CARTESIAN_POINT ( 'NONE',  ( 0.000000000000000000, 0.000000000000000000, 705.0000000000000000 ) ) ;
#346 = VERTEX_POINT ( 'NONE', #127 ) ;
#347 = CIRCLE ( 'NONE', #237, 7.000000000000000000 ) ;
#348 = PERSON_AND_ORGANIZATION ( #115, #189 ) ;
#349 = LOCAL_TIME ( 17, 29, 37.00000000000000000, #151 ) ;
#350 = PERSON_AND_ORGANIZATION ( #115, #189 ) ;
#351 = ORIENTED_EDGE ( 'NONE', *, *, #89, .T. ) ;
#352 = EDGE_CURVE ( 'NONE', #355, #125, #95, .T. ) ;
#353 = FACE_BOUND ( 'NONE', #53, .T. ) ;
#354 = APPROVAL_ROLE ( '' ) ;
#355 = VERTEX_POINT ( 'NONE', #90 ) ;
#356 = DIRECTION ( 'NONE',  ( -0.000000000000000000, -0.000000000000000000, -1.000000000000000000 ) ) ;
#357 = LOCAL_TIME ( 17, 29, 37.00000000000000000, #318 ) ;
#358 = DIRECTION ( 'NONE',  ( 0.000000000000000000, 0.000000000000000000, 1.000000000000000000 ) ) ;
#359 = AXIS2_PLACEMENT_3D ( 'NONE', #211, #338, #365 ) ;
#360 = AXIS2_PLACEMENT_3D ( 'NONE', #197, #317, #108 ) ;
#361 = EDGE_CURVE ( 'NONE', #185, #355, #35, .T. ) ;
#362 = DIRECTION ( 'NONE',  ( 0.000000000000000000, 0.000000000000000000, 1.000000000000000000 ) ) ;
#363 = DIRECTION ( 'NONE',  ( 1.000000000000000000, 0.000000000000000000, 0.000000000000000000 ) ) ;
#364 = AXIS2_PLACEMENT_3D ( 'NONE', #241, #37, #157 ) ;
#365 = DIRECTION ( 'NONE',  ( -1.000000000000000000, 0.000000000000000000, 0.000000000000000000 ) ) ;
#366 = CARTESIAN_POINT ( 'NONE',  ( 0.000000000000000000, 0.000000000000000000, 5.000000000000000000 ) ) ;
#367 = FACE_BOUND ( 'NONE', #173, .T. ) ;
#368 = PLANE ( 'NONE',  #120 ) ;
#369 = LINE ( 'NONE', #256, #117 ) ;
#370 = CIRCLE ( 'NONE', #149, 4.500000000000000888 ) ;
#371 = AXIS2_PLACEMENT_3D ( 'NONE', #202, #263, #236 ) ;
#372 = ORIENTED_EDGE ( 'NONE', *, *, #352, .T. ) ;
#373 = FACE_OUTER_BOUND ( 'NONE', #50, .T. ) ;
#374 = VERTEX_POINT ( 'NONE', #240 ) ;
#375 = CC_DESIGN_SECURITY_CLASSIFICATION ( #83, ( #238 ) ) ;
#376 = COORDINATED_UNIVERSAL_TIME_OFFSET ( 1, 0, .AHEAD. ) ;
#377 = DIRECTION ( 'NONE',  ( 0.000000000000000000, 0.000000000000000000, 1.000000000000000000 ) ) ;
#378 = PERSON_AND_ORGANIZATION ( #115, #189 ) ;
#379 = CC_DESIGN_PERSON_AND_ORGANIZATION_ASSIGNMENT ( #348, #233, ( #238 ) ) ;
#380 = DIRECTION ( 'NONE',  ( 1.000000000000000000, 0.000000000000000000, 0.000000000000000000 ) ) ;
#381 = CARTESIAN_POINT ( 'NONE',  ( 2.000000000000000000, 2.449293598294706414E-16, 705.0000000000000000 ) ) ;
ENDSEC;
END-ISO-10303-21;
