ISO-10303-21;
HEADER;
FILE_DESCRIPTION (( 'STEP AP203' ),
    '1' );
FILE_NAME ('fb3c.STEP',
    '2022-07-08T14:54:02',
    ( '' ),
    ( '' ),
    'SwSTEP 2.0',
    'SolidWorks 2019',
    '' );
FILE_SCHEMA (( 'CONFIG_CONTROL_DESIGN' ));
ENDSEC;

DATA;
#1 = CARTESIAN_POINT ( 'NONE',  ( 0.000000000000000000, 0.000000000000000000, 0.000000000000000000 ) ) ;
#2 = ADVANCED_FACE ( 'NONE', ( #263 ), #302, .F. ) ;
#3 = FACE_OUTER_BOUND ( 'NONE', #231, .T. ) ;
#4 = DIRECTION ( 'NONE',  ( 0.000000000000000000, 0.000000000000000000, 1.000000000000000000 ) ) ;
#5 = AXIS2_PLACEMENT_3D ( 'NONE', #280, #106, #337 ) ;
#6 = CYLINDRICAL_SURFACE ( 'NONE', #276, 6.000000000000000888 ) ;
#7 = DIRECTION ( 'NONE',  ( -0.000000000000000000, -0.000000000000000000, -1.000000000000000000 ) ) ;
#8 = CARTESIAN_POINT ( 'NONE',  ( 0.000000000000000000, 0.000000000000000000, 0.000000000000000000 ) ) ;
#9 = CC_DESIGN_APPROVAL ( #55, ( #152 ) ) ;
#10 = PRODUCT_RELATED_PRODUCT_CATEGORY ( 'detail', '', ( #281 ) ) ;
#11 = CARTESIAN_POINT ( 'NONE',  ( -3.000000000000000444, 0.000000000000000000, 257.0000000000000000 ) ) ;
#12 = EDGE_CURVE ( 'NONE', #49, #56, #283, .T. ) ;
#13 = CARTESIAN_POINT ( 'NONE',  ( 0.000000000000000000, 0.000000000000000000, 257.0000000000000000 ) ) ;
#14 = EDGE_LOOP ( 'NONE', ( #182, #146, #205, #335 ) ) ;
#15 = DIRECTION ( 'NONE',  ( 0.000000000000000000, 0.000000000000000000, 1.000000000000000000 ) ) ;
#16 = AXIS2_PLACEMENT_3D ( 'NONE', #282, #193, #39 ) ;
#17 = DIRECTION ( 'NONE',  ( 0.000000000000000000, 0.000000000000000000, 1.000000000000000000 ) ) ;
#18 = EDGE_CURVE ( 'NONE', #352, #111, #150, .T. ) ;
#19 = ORIENTED_EDGE ( 'NONE', *, *, #165, .T. ) ;
#20 = ORIENTED_EDGE ( 'NONE', *, *, #160, .F. ) ;
#21 = VECTOR ( 'NONE', #38, 1000.000000000000000 ) ;
#22 = LINE ( 'NONE', #262, #245 ) ;
#23 = ORIENTED_EDGE ( 'NONE', *, *, #12, .T. ) ;
#24 = EDGE_LOOP ( 'NONE', ( #148, #117 ) ) ;
#25 = EDGE_LOOP ( 'NONE', ( #80, #379 ) ) ;
#26 = AXIS2_PLACEMENT_3D ( 'NONE', #198, #15, #41 ) ;
#27 = ADVANCED_FACE ( 'NONE', ( #359, #304 ), #128, .T. ) ;
#28 = CARTESIAN_POINT ( 'NONE',  ( 6.000000000000000888, 7.347880794884120722E-16, 257.0000000000000000 ) ) ;
#29 = APPROVAL_ROLE ( '' ) ;
#30 = DIRECTION ( 'NONE',  ( 0.000000000000000000, 0.000000000000000000, 1.000000000000000000 ) ) ;
#31 = COORDINATED_UNIVERSAL_TIME_OFFSET ( 1, 0, .AHEAD. ) ;
#32 = DIRECTION ( 'NONE',  ( 1.000000000000000000, 0.000000000000000000, 0.000000000000000000 ) ) ;
#33 = AXIS2_PLACEMENT_3D ( 'NONE', #158, #360, #96 ) ;
#34 = APPROVAL_DATE_TIME ( #320, #55 ) ;
#35 = CC_DESIGN_SECURITY_CLASSIFICATION ( #246, ( #339 ) ) ;
#36 = CARTESIAN_POINT ( 'NONE',  ( 0.000000000000000000, 0.000000000000000000, 257.0000000000000000 ) ) ;
#37 = EDGE_CURVE ( 'NONE', #324, #376, #213, .T. ) ;
#38 = DIRECTION ( 'NONE',  ( -0.000000000000000000, -0.000000000000000000, -1.000000000000000000 ) ) ;
#39 = DIRECTION ( 'NONE',  ( -1.000000000000000000, 0.000000000000000000, 0.000000000000000000 ) ) ;
#40 = AXIS2_PLACEMENT_3D ( 'NONE', #217, #295, #154 ) ;
#41 = DIRECTION ( 'NONE',  ( 1.000000000000000000, 0.000000000000000000, 0.000000000000000000 ) ) ;
#42 = ADVANCED_FACE ( 'NONE', ( #267, #124 ), #214, .T. ) ;
#43 = FACE_OUTER_BOUND ( 'NONE', #45, .T. ) ;
#44 = ADVANCED_FACE ( 'NONE', ( #298 ), #63, .F. ) ;
#45 = EDGE_LOOP ( 'NONE', ( #289, #103 ) ) ;
#46 = DIRECTION ( 'NONE',  ( -0.000000000000000000, -0.000000000000000000, -1.000000000000000000 ) ) ;
#47 = DIRECTION ( 'NONE',  ( 1.000000000000000000, 0.000000000000000000, -0.000000000000000000 ) ) ;
#48 =( GEOMETRIC_REPRESENTATION_CONTEXT ( 3 ) GLOBAL_UNCERTAINTY_ASSIGNED_CONTEXT ( ( #319 ) ) GLOBAL_UNIT_ASSIGNED_CONTEXT ( ( #118, #345, #285 ) ) REPRESENTATION_CONTEXT ( 'NONE', 'WORKASPACE' ) );
#49 = VERTEX_POINT ( 'NONE', #132 ) ;
#50 = PERSON_AND_ORGANIZATION ( #77, #344 ) ;
#51 = ORIENTED_EDGE ( 'NONE', *, *, #377, .F. ) ;
#52 = CARTESIAN_POINT ( 'NONE',  ( 0.000000000000000000, 0.000000000000000000, 0.000000000000000000 ) ) ;
#53 = EDGE_LOOP ( 'NONE', ( #367, #83 ) ) ;
#54 = AXIS2_PLACEMENT_3D ( 'NONE', #36, #4, #162 ) ;
#55 = APPROVAL ( #143, 'NEURÈENÝ' ) ;
#56 = VERTEX_POINT ( 'NONE', #60 ) ;
#57 = APPROVAL_STATUS ( 'not_yet_approved' ) ;
#58 = ORIENTED_EDGE ( 'NONE', *, *, #112, .T. ) ;
#59 = DATE_AND_TIME ( #189, #197 ) ;
#60 = CARTESIAN_POINT ( 'NONE',  ( 6.000000000000000888, 7.347880794884120722E-16, 7.500000000000007105 ) ) ;
#61 = VECTOR ( 'NONE', #220, 1000.000000000000000 ) ;
#62 = PERSON_AND_ORGANIZATION ( #77, #344 ) ;
#63 = CYLINDRICAL_SURFACE ( 'NONE', #322, 3.000000000000000444 ) ;
#64 = PERSON_AND_ORGANIZATION ( #77, #344 ) ;
#65 = DIRECTION ( 'NONE',  ( -1.000000000000000000, 0.000000000000000000, 0.000000000000000000 ) ) ;
#66 = CALENDAR_DATE ( 2022, 8, 7 ) ;
#67 = DIRECTION ( 'NONE',  ( -1.000000000000000000, 1.224646799147351482E-16, 0.000000000000000000 ) ) ;
#68 = CIRCLE ( 'NONE', #54, 6.000000000000000888 ) ;
#69 = DIRECTION ( 'NONE',  ( 0.000000000000000000, 0.000000000000000000, 1.000000000000000000 ) ) ;
#70 = LINE ( 'NONE', #72, #21 ) ;
#71 = EDGE_CURVE ( 'NONE', #350, #87, #328, .T. ) ;
#72 = CARTESIAN_POINT ( 'NONE',  ( -10.00000000000000000, 0.000000000000000000, 7.000000000000000000 ) ) ;
#73 = CIRCLE ( 'NONE', #351, 0.5000000000000004441 ) ;
#74 = APPROVAL_PERSON_ORGANIZATION ( #62, #101, #358 ) ;
#75 = DIRECTION ( 'NONE',  ( 1.000000000000000000, 0.000000000000000000, 0.000000000000000000 ) ) ;
#76 = CARTESIAN_POINT ( 'NONE',  ( 0.000000000000000000, 0.000000000000000000, 7.000000000000000000 ) ) ;
#77 = PERSON ( 'NEURÈENÝ', 'NEURÈENÝ', 'NEURÈENÝ', ('NEURÈENÝ'), ('NEURÈENÝ'), ('NEURÈENÝ') ) ;
#78 = CARTESIAN_POINT ( 'NONE',  ( -10.00000000000000000, 0.000000000000000000, 0.000000000000000000 ) ) ;
#79 = AXIS2_PLACEMENT_3D ( 'NONE', #264, #290, #349 ) ;
#80 = ORIENTED_EDGE ( 'NONE', *, *, #71, .T. ) ;
#81 = ORIENTED_EDGE ( 'NONE', *, *, #173, .T. ) ;
#82 = APPLICATION_PROTOCOL_DEFINITION ( 'international standard', 'config_control_design', 1994, #122 ) ;
#83 = ORIENTED_EDGE ( 'NONE', *, *, #316, .F. ) ;
#84 = EDGE_LOOP ( 'NONE', ( #109, #171, #291, #256 ) ) ;
#85 = AXIS2_PLACEMENT_3D ( 'NONE', #76, #166, #219 ) ;
#86 = CARTESIAN_POINT ( 'NONE',  ( 6.500000000000000888, 0.000000000000000000, 7.500000000000007105 ) ) ;
#87 = VERTEX_POINT ( 'NONE', #28 ) ;
#88 = PERSON_AND_ORGANIZATION ( #77, #344 ) ;
#89 = CARTESIAN_POINT ( 'NONE',  ( 0.000000000000000000, 0.000000000000000000, 7.000000000000000000 ) ) ;
#90 = SECURITY_CLASSIFICATION_LEVEL ( 'unclassified' ) ;
#91 = DIRECTION ( 'NONE',  ( 1.000000000000000000, 0.000000000000000000, 0.000000000000000000 ) ) ;
#92 = AXIS2_PLACEMENT_3D ( 'NONE', #89, #130, #127 ) ;
#93 = CARTESIAN_POINT ( 'NONE',  ( 0.000000000000000000, 0.000000000000000000, 0.000000000000000000 ) ) ;
#94 = PERSON_AND_ORGANIZATION ( #77, #344 ) ;
#95 = CARTESIAN_POINT ( 'NONE',  ( 0.000000000000000000, 0.000000000000000000, 257.0000000000000000 ) ) ;
#96 = DIRECTION ( 'NONE',  ( 1.000000000000000000, 0.000000000000000000, -0.000000000000000000 ) ) ;
#97 = AXIS2_PLACEMENT_3D ( 'NONE', #52, #347, #286 ) ;
#98 = CC_DESIGN_APPROVAL ( #125, ( #246 ) ) ;
#99 = CYLINDRICAL_SURFACE ( 'NONE', #85, 10.00000000000000000 ) ;
#100 = DIRECTION ( 'NONE',  ( 1.000000000000000000, 0.000000000000000000, 0.000000000000000000 ) ) ;
#101 = APPROVAL ( #57, 'NEURÈENÝ' ) ;
#102 = CYLINDRICAL_SURFACE ( 'NONE', #16, 3.000000000000000444 ) ;
#103 = ORIENTED_EDGE ( 'NONE', *, *, #353, .F. ) ;
#104 = CIRCLE ( 'NONE', #380, 6.500000000000000888 ) ;
#105 = VERTEX_POINT ( 'NONE', #272 ) ;
#106 = DIRECTION ( 'NONE',  ( -0.000000000000000000, -0.000000000000000000, -1.000000000000000000 ) ) ;
#107 = MECHANICAL_CONTEXT ( 'NONE', #122, 'mechanical' ) ;
#108 = ADVANCED_FACE ( 'NONE', ( #3 ), #6, .T. ) ;
#109 = ORIENTED_EDGE ( 'NONE', *, *, #195, .F. ) ;
#110 = PERSON_AND_ORGANIZATION_ROLE ( 'design_owner' ) ;
#111 = VERTEX_POINT ( 'NONE', #156 ) ;
#112 = EDGE_CURVE ( 'NONE', #321, #324, #216, .T. ) ;
#113 = ORIENTED_EDGE ( 'NONE', *, *, #136, .T. ) ;
#114 = CC_DESIGN_PERSON_AND_ORGANIZATION_ASSIGNMENT ( #126, #123, ( #339 ) ) ;
#115 = EDGE_CURVE ( 'NONE', #49, #202, #129, .T. ) ;
#116 = PERSON_AND_ORGANIZATION ( #77, #344 ) ;
#117 = ORIENTED_EDGE ( 'NONE', *, *, #195, .T. ) ;
#118 =( LENGTH_UNIT ( ) NAMED_UNIT ( * ) SI_UNIT ( .MILLI., .METRE. ) );
#119 = AXIS2_PLACEMENT_3D ( 'NONE', #329, #333, #236 ) ;
#120 = EDGE_LOOP ( 'NONE', ( #226, #204, #229, #287 ) ) ;
#121 = CIRCLE ( 'NONE', #79, 6.500000000000000888 ) ;
#122 = APPLICATION_CONTEXT ( 'configuration controlled 3d designs of mechanical parts and assemblies' ) ;
#123 = PERSON_AND_ORGANIZATION_ROLE ( 'design_supplier' ) ;
#124 = FACE_OUTER_BOUND ( 'NONE', #24, .T. ) ;
#125 = APPROVAL ( #301, 'NEURÈENÝ' ) ;
#126 = PERSON_AND_ORGANIZATION ( #77, #344 ) ;
#127 = DIRECTION ( 'NONE',  ( 1.000000000000000000, 0.000000000000000000, -0.000000000000000000 ) ) ;
#128 = PLANE ( 'NONE',  #33 ) ;
#129 = CIRCLE ( 'NONE', #179, 0.5000000000000004441 ) ;
#130 = DIRECTION ( 'NONE',  ( 0.000000000000000000, 0.000000000000000000, 1.000000000000000000 ) ) ;
#131 = APPLICATION_CONTEXT ( 'configuration controlled 3d designs of mechanical parts and assemblies' ) ;
#132 = CARTESIAN_POINT ( 'NONE',  ( -6.000000000000000888, 0.000000000000000000, 7.500000000000007105 ) ) ;
#133 = EDGE_CURVE ( 'NONE', #56, #49, #363, .T. ) ;
#134 = LINE ( 'NONE', #311, #61 ) ;
#135 = AXIS2_PLACEMENT_3D ( 'NONE', #170, #275, #100 ) ;
#136 = EDGE_CURVE ( 'NONE', #350, #49, #190, .T. ) ;
#137 = DIRECTION ( 'NONE',  ( -1.000000000000000000, 0.000000000000000000, 0.000000000000000000 ) ) ;
#138 = DIRECTION ( 'NONE',  ( 1.000000000000000000, 0.000000000000000000, 0.000000000000000000 ) ) ;
#139 = FACE_OUTER_BOUND ( 'NONE', #120, .T. ) ;
#140 = CLOSED_SHELL ( 'NONE', ( #44, #342, #108, #293, #248, #42, #361, #279, #27, #2, #274 ) ) ;
#141 = TOROIDAL_SURFACE ( 'NONE', #218, 6.500000000000000888, 0.5000000000000000000 ) ;
#142 = DIRECTION ( 'NONE',  ( 0.000000000000000000, 0.000000000000000000, 1.000000000000000000 ) ) ;
#143 = APPROVAL_STATUS ( 'not_yet_approved' ) ;
#144 = AXIS2_PLACEMENT_3D ( 'NONE', #13, #305, #244 ) ;
#145 = ORIENTED_EDGE ( 'NONE', *, *, #37, .F. ) ;
#146 = ORIENTED_EDGE ( 'NONE', *, *, #133, .F. ) ;
#147 = DESIGN_CONTEXT ( 'detailed design', #131, 'design' ) ;
#148 = ORIENTED_EDGE ( 'NONE', *, *, #313, .T. ) ;
#149 = PERSON_AND_ORGANIZATION_ROLE ( 'creator' ) ;
#150 = CIRCLE ( 'NONE', #338, 10.00000000000000000 ) ;
#151 = DIRECTION ( 'NONE',  ( 0.000000000000000000, 0.000000000000000000, 1.000000000000000000 ) ) ;
#152 = PRODUCT_DEFINITION ( 'NEZNÁMÝ', '', #339, #147 ) ;
#153 = DATE_AND_TIME ( #66, #207 ) ;
#154 = DIRECTION ( 'NONE',  ( 1.000000000000000000, 0.000000000000000000, 0.000000000000000000 ) ) ;
#155 = APPROVAL_DATE_TIME ( #238, #125 ) ;
#156 = CARTESIAN_POINT ( 'NONE',  ( 10.00000000000000000, 1.224646799147353256E-15, 0.000000000000000000 ) ) ;
#157 = EDGE_CURVE ( 'NONE', #87, #350, #68, .T. ) ;
#158 = CARTESIAN_POINT ( 'NONE',  ( 0.000000000000000000, 0.000000000000000000, 257.0000000000000000 ) ) ;
#159 = VECTOR ( 'NONE', #243, 1000.000000000000000 ) ;
#160 = EDGE_CURVE ( 'NONE', #376, #324, #288, .T. ) ;
#161 = SHAPE_DEFINITION_REPRESENTATION ( #194, #247 ) ;
#162 = DIRECTION ( 'NONE',  ( 1.000000000000000000, 0.000000000000000000, 0.000000000000000000 ) ) ;
#163 = PLANE ( 'NONE',  #284 ) ;
#164 = EDGE_CURVE ( 'NONE', #202, #318, #104, .T. ) ;
#165 = EDGE_CURVE ( 'NONE', #308, #321, #259, .T. ) ;
#166 = DIRECTION ( 'NONE',  ( -0.000000000000000000, -0.000000000000000000, -1.000000000000000000 ) ) ;
#167 = VECTOR ( 'NONE', #203, 1000.000000000000000 ) ;
#168 = FACE_OUTER_BOUND ( 'NONE', #343, .T. ) ;
#169 = EDGE_LOOP ( 'NONE', ( #19, #58, #251, #254 ) ) ;
#170 = CARTESIAN_POINT ( 'NONE',  ( 0.000000000000000000, 0.000000000000000000, 7.000000000000000000 ) ) ;
#171 = ORIENTED_EDGE ( 'NONE', *, *, #381, .T. ) ;
#172 = CARTESIAN_POINT ( 'NONE',  ( 0.000000000000000000, 0.000000000000000000, 7.000000000000000000 ) ) ;
#173 = EDGE_CURVE ( 'NONE', #105, #352, #70, .T. ) ;
#174 = AXIS2_PLACEMENT_3D ( 'NONE', #172, #46, #137 ) ;
#175 = LOCAL_TIME ( 16, 54, 2.000000000000000000, #326 ) ;
#176 = CARTESIAN_POINT ( 'NONE',  ( 10.00000000000000000, 1.224646799147353256E-15, 7.000000000000000000 ) ) ;
#177 = ORIENTED_EDGE ( 'NONE', *, *, #157, .F. ) ;
#178 = ORIENTED_EDGE ( 'NONE', *, *, #223, .F. ) ;
#179 = AXIS2_PLACEMENT_3D ( 'NONE', #273, #331, #67 ) ;
#180 = LOCAL_TIME ( 16, 54, 2.000000000000000000, #31 ) ;
#181 = ORIENTED_EDGE ( 'NONE', *, *, #362, .F. ) ;
#182 = ORIENTED_EDGE ( 'NONE', *, *, #115, .F. ) ;
#183 = ORIENTED_EDGE ( 'NONE', *, *, #164, .T. ) ;
#184 = LOCAL_TIME ( 16, 54, 2.000000000000000000, #230 ) ;
#185 = DIRECTION ( 'NONE',  ( 1.000000000000000000, 0.000000000000000000, 0.000000000000000000 ) ) ;
#186 = DIRECTION ( 'NONE',  ( -1.000000000000000000, 0.000000000000000000, 0.000000000000000000 ) ) ;
#187 = CC_DESIGN_DATE_AND_TIME_ASSIGNMENT ( #59, #241, ( #152 ) ) ;
#188 = CARTESIAN_POINT ( 'NONE',  ( 0.000000000000000000, 0.000000000000000000, 257.0000000000000000 ) ) ;
#189 = CALENDAR_DATE ( 2022, 8, 7 ) ;
#190 = LINE ( 'NONE', #270, #271 ) ;
#191 = AXIS2_PLACEMENT_3D ( 'NONE', #1, #7, #185 ) ;
#192 = CARTESIAN_POINT ( 'NONE',  ( 3.000000000000000444, 3.673940397442060361E-16, 257.0000000000000000 ) ) ;
#193 = DIRECTION ( 'NONE',  ( 0.000000000000000000, 0.000000000000000000, -1.000000000000000000 ) ) ;
#194 = PRODUCT_DEFINITION_SHAPE ( 'NONE', 'NONE',  #152 ) ;
#195 = EDGE_CURVE ( 'NONE', #265, #105, #255, .T. ) ;
#196 = CARTESIAN_POINT ( 'NONE',  ( 0.000000000000000000, 0.000000000000000000, 7.000000000000000000 ) ) ;
#197 = LOCAL_TIME ( 16, 54, 2.000000000000000000, #325 ) ;
#198 = CARTESIAN_POINT ( 'NONE',  ( 0.000000000000000000, 0.000000000000000000, 257.0000000000000000 ) ) ;
#199 = CARTESIAN_POINT ( 'NONE',  ( 3.000000000000000444, 3.673940397442060361E-16, 0.000000000000000000 ) ) ;
#200 = CARTESIAN_POINT ( 'NONE',  ( 0.000000000000000000, 0.000000000000000000, 0.000000000000000000 ) ) ;
#201 = AXIS2_PLACEMENT_3D ( 'NONE', #237, #355, #91 ) ;
#202 = VERTEX_POINT ( 'NONE', #336 ) ;
#203 = DIRECTION ( 'NONE',  ( -0.000000000000000000, -0.000000000000000000, -1.000000000000000000 ) ) ;
#204 = ORIENTED_EDGE ( 'NONE', *, *, #316, .T. ) ;
#205 = ORIENTED_EDGE ( 'NONE', *, *, #362, .T. ) ;
#206 = LINE ( 'NONE', #176, #167 ) ;
#207 = LOCAL_TIME ( 16, 54, 2.000000000000000000, #297 ) ;
#208 = ORIENTED_EDGE ( 'NONE', *, *, #133, .T. ) ;
#209 = PERSON_AND_ORGANIZATION_ROLE ( 'creator' ) ;
#210 = EDGE_LOOP ( 'NONE', ( #346, #340, #81, #348 ) ) ;
#211 = CALENDAR_DATE ( 2022, 8, 7 ) ;
#212 = DIRECTION ( 'NONE',  ( 1.000000000000000000, 0.000000000000000000, 0.000000000000000000 ) ) ;
#213 = CIRCLE ( 'NONE', #191, 3.000000000000000444 ) ;
#214 = PLANE ( 'NONE',  #92 ) ;
#215 = DIRECTION ( 'NONE',  ( 0.000000000000000000, 0.000000000000000000, -1.000000000000000000 ) ) ;
#216 = LINE ( 'NONE', #192, #159 ) ;
#217 = CARTESIAN_POINT ( 'NONE',  ( 0.000000000000000000, 0.000000000000000000, 7.500000000000007105 ) ) ;
#218 = AXIS2_PLACEMENT_3D ( 'NONE', #221, #142, #75 ) ;
#219 = DIRECTION ( 'NONE',  ( -1.000000000000000000, 0.000000000000000000, 0.000000000000000000 ) ) ;
#220 = DIRECTION ( 'NONE',  ( -0.000000000000000000, -0.000000000000000000, -1.000000000000000000 ) ) ;
#221 = CARTESIAN_POINT ( 'NONE',  ( 0.000000000000000000, 0.000000000000000000, 7.500000000000007105 ) ) ;
#222 = CIRCLE ( 'NONE', #227, 10.00000000000000000 ) ;
#223 = EDGE_CURVE ( 'NONE', #87, #56, #134, .T. ) ;
#224 = CARTESIAN_POINT ( 'NONE',  ( 10.00000000000000000, 1.224646799147353256E-15, 7.000000000000000000 ) ) ;
#225 = CARTESIAN_POINT ( 'NONE',  ( 3.000000000000000444, 3.673940397442060361E-16, 257.0000000000000000 ) ) ;
#226 = ORIENTED_EDGE ( 'NONE', *, *, #112, .F. ) ;
#227 = AXIS2_PLACEMENT_3D ( 'NONE', #196, #306, #138 ) ;
#228 = DIRECTION ( 'NONE',  ( 0.000000000000000000, 0.000000000000000000, -1.000000000000000000 ) ) ;
#229 = ORIENTED_EDGE ( 'NONE', *, *, #375, .T. ) ;
#230 = COORDINATED_UNIVERSAL_TIME_OFFSET ( 1, 0, .AHEAD. ) ;
#231 = EDGE_LOOP ( 'NONE', ( #177, #261, #208, #235 ) ) ;
#232 = CALENDAR_DATE ( 2022, 8, 7 ) ;
#233 = ORIENTED_EDGE ( 'NONE', *, *, #71, .F. ) ;
#234 = CC_DESIGN_PERSON_AND_ORGANIZATION_ASSIGNMENT ( #94, #299, ( #246 ) ) ;
#235 = ORIENTED_EDGE ( 'NONE', *, *, #136, .F. ) ;
#236 = DIRECTION ( 'NONE',  ( 1.000000000000000000, 0.000000000000000000, 0.000000000000000000 ) ) ;
#237 = CARTESIAN_POINT ( 'NONE',  ( 0.000000000000000000, 0.000000000000000000, 0.000000000000000000 ) ) ;
#238 = DATE_AND_TIME ( #269, #180 ) ;
#239 = AXIS2_PLACEMENT_3D ( 'NONE', #200, #364, #250 ) ;
#240 = CARTESIAN_POINT ( 'NONE',  ( 0.000000000000000000, 0.000000000000000000, 7.000000000000000000 ) ) ;
#241 = DATE_TIME_ROLE ( 'creation_date' ) ;
#242 = DIRECTION ( 'NONE',  ( -0.000000000000000000, -0.000000000000000000, -1.000000000000000000 ) ) ;
#243 = DIRECTION ( 'NONE',  ( 0.000000000000000000, 0.000000000000000000, -1.000000000000000000 ) ) ;
#244 = DIRECTION ( 'NONE',  ( 1.000000000000000000, 0.000000000000000000, 0.000000000000000000 ) ) ;
#245 = VECTOR ( 'NONE', #312, 1000.000000000000000 ) ;
#246 = SECURITY_CLASSIFICATION ( '', '', #90 ) ;
#247 = ADVANCED_BREP_SHAPE_REPRESENTATION ( 'fb3c', ( #252, #97 ), #48 ) ;
#248 = ADVANCED_FACE ( 'NONE', ( #366 ), #368, .T. ) ;
#249 = CYLINDRICAL_SURFACE ( 'NONE', #5, 6.000000000000000888 ) ;
#250 = DIRECTION ( 'NONE',  ( 1.000000000000000000, 0.000000000000000000, 0.000000000000000000 ) ) ;
#251 = ORIENTED_EDGE ( 'NONE', *, *, #37, .T. ) ;
#252 = MANIFOLD_SOLID_BREP ( 'Odebrat vysunutím3', #140 ) ;
#253 = CARTESIAN_POINT ( 'NONE',  ( 6.500000000000000888, 0.000000000000000000, 7.000000000000002665 ) ) ;
#254 = ORIENTED_EDGE ( 'NONE', *, *, #375, .F. ) ;
#255 = CIRCLE ( 'NONE', #135, 10.00000000000000000 ) ;
#256 = ORIENTED_EDGE ( 'NONE', *, *, #173, .F. ) ;
#257 = CC_DESIGN_DATE_AND_TIME_ASSIGNMENT ( #153, #354, ( #246 ) ) ;
#258 = EDGE_LOOP ( 'NONE', ( #314, #183 ) ) ;
#259 = CIRCLE ( 'NONE', #144, 3.000000000000000444 ) ;
#260 = APPROVAL_ROLE ( '' ) ;
#261 = ORIENTED_EDGE ( 'NONE', *, *, #223, .T. ) ;
#262 = CARTESIAN_POINT ( 'NONE',  ( -3.000000000000000444, 0.000000000000000000, 257.0000000000000000 ) ) ;
#263 = FACE_OUTER_BOUND ( 'NONE', #14, .T. ) ;
#264 = CARTESIAN_POINT ( 'NONE',  ( 0.000000000000000000, 0.000000000000000000, 7.000000000000000000 ) ) ;
#265 = VERTEX_POINT ( 'NONE', #224 ) ;
#266 = PERSON_AND_ORGANIZATION ( #77, #344 ) ;
#267 = FACE_BOUND ( 'NONE', #258, .T. ) ;
#268 = DIRECTION ( 'NONE',  ( -0.000000000000000000, -0.000000000000000000, -1.000000000000000000 ) ) ;
#269 = CALENDAR_DATE ( 2022, 8, 7 ) ;
#270 = CARTESIAN_POINT ( 'NONE',  ( -6.000000000000000888, 0.000000000000000000, 257.0000000000000000 ) ) ;
#271 = VECTOR ( 'NONE', #268, 1000.000000000000000 ) ;
#272 = CARTESIAN_POINT ( 'NONE',  ( -10.00000000000000000, 0.000000000000000000, 7.000000000000000000 ) ) ;
#273 = CARTESIAN_POINT ( 'NONE',  ( -6.500000000000000888, 7.960204194457796463E-16, 7.500000000000007105 ) ) ;
#274 = ADVANCED_FACE ( 'NONE', ( #139 ), #102, .F. ) ;
#275 = DIRECTION ( 'NONE',  ( 0.000000000000000000, 0.000000000000000000, 1.000000000000000000 ) ) ;
#276 = AXIS2_PLACEMENT_3D ( 'NONE', #327, #242, #186 ) ;
#277 = APPROVAL_PERSON_ORGANIZATION ( #88, #125, #29 ) ;
#278 = CC_DESIGN_PERSON_AND_ORGANIZATION_ASSIGNMENT ( #64, #149, ( #339 ) ) ;
#279 = ADVANCED_FACE ( 'NONE', ( #371 ), #249, .T. ) ;
#280 = CARTESIAN_POINT ( 'NONE',  ( 0.000000000000000000, 0.000000000000000000, 257.0000000000000000 ) ) ;
#281 = PRODUCT ( 'fb3c', 'fb3c', '', ( #107 ) ) ;
#282 = CARTESIAN_POINT ( 'NONE',  ( 0.000000000000000000, 0.000000000000000000, 257.0000000000000000 ) ) ;
#283 = CIRCLE ( 'NONE', #332, 6.000000000000000888 ) ;
#284 = AXIS2_PLACEMENT_3D ( 'NONE', #8, #17, #47 ) ;
#285 =( NAMED_UNIT ( * ) SI_UNIT ( $, .STERADIAN. ) SOLID_ANGLE_UNIT ( ) );
#286 = DIRECTION ( 'NONE',  ( 1.000000000000000000, 0.000000000000000000, 0.000000000000000000 ) ) ;
#287 = ORIENTED_EDGE ( 'NONE', *, *, #160, .T. ) ;
#288 = CIRCLE ( 'NONE', #201, 3.000000000000000444 ) ;
#289 = ORIENTED_EDGE ( 'NONE', *, *, #18, .F. ) ;
#290 = DIRECTION ( 'NONE',  ( -0.000000000000000000, -0.000000000000000000, -1.000000000000000000 ) ) ;
#291 = ORIENTED_EDGE ( 'NONE', *, *, #353, .T. ) ;
#292 = EDGE_LOOP ( 'NONE', ( #178, #233, #113, #23 ) ) ;
#293 = ADVANCED_FACE ( 'NONE', ( #334 ), #99, .T. ) ;
#294 = APPROVAL_DATE_TIME ( #330, #101 ) ;
#295 = DIRECTION ( 'NONE',  ( 0.000000000000000000, 0.000000000000000000, 1.000000000000000000 ) ) ;
#296 = CC_DESIGN_PERSON_AND_ORGANIZATION_ASSIGNMENT ( #266, #209, ( #152 ) ) ;
#297 = COORDINATED_UNIVERSAL_TIME_OFFSET ( 1, 0, .AHEAD. ) ;
#298 = FACE_OUTER_BOUND ( 'NONE', #169, .T. ) ;
#299 = PERSON_AND_ORGANIZATION_ROLE ( 'classification_officer' ) ;
#300 = CARTESIAN_POINT ( 'NONE',  ( 0.000000000000000000, 0.000000000000000000, 7.500000000000007105 ) ) ;
#301 = APPROVAL_STATUS ( 'not_yet_approved' ) ;
#302 = TOROIDAL_SURFACE ( 'NONE', #119, 6.500000000000000888, 0.5000000000000000000 ) ;
#303 = DIRECTION ( 'NONE',  ( 1.000000000000000000, 0.000000000000000000, 0.000000000000000000 ) ) ;
#304 = FACE_OUTER_BOUND ( 'NONE', #25, .T. ) ;
#305 = DIRECTION ( 'NONE',  ( 0.000000000000000000, 0.000000000000000000, 1.000000000000000000 ) ) ;
#306 = DIRECTION ( 'NONE',  ( 0.000000000000000000, 0.000000000000000000, 1.000000000000000000 ) ) ;
#307 = AXIS2_PLACEMENT_3D ( 'NONE', #188, #69, #212 ) ;
#308 = VERTEX_POINT ( 'NONE', #11 ) ;
#309 = CC_DESIGN_APPROVAL ( #101, ( #339 ) ) ;
#310 = FACE_BOUND ( 'NONE', #373, .T. ) ;
#311 = CARTESIAN_POINT ( 'NONE',  ( 6.000000000000000888, 7.347880794884120722E-16, 257.0000000000000000 ) ) ;
#312 = DIRECTION ( 'NONE',  ( 0.000000000000000000, 0.000000000000000000, -1.000000000000000000 ) ) ;
#313 = EDGE_CURVE ( 'NONE', #105, #265, #222, .T. ) ;
#314 = ORIENTED_EDGE ( 'NONE', *, *, #377, .T. ) ;
#315 = ORIENTED_EDGE ( 'NONE', *, *, #12, .F. ) ;
#316 = EDGE_CURVE ( 'NONE', #321, #308, #369, .T. ) ;
#317 = APPLICATION_PROTOCOL_DEFINITION ( 'international standard', 'config_control_design', 1994, #131 ) ;
#318 = VERTEX_POINT ( 'NONE', #253 ) ;
#319 = UNCERTAINTY_MEASURE_WITH_UNIT (LENGTH_MEASURE( 1.000000000000000082E-05 ), #118, 'distance_accuracy_value', 'NONE');
#320 = DATE_AND_TIME ( #232, #184 ) ;
#321 = VERTEX_POINT ( 'NONE', #225 ) ;
#322 = AXIS2_PLACEMENT_3D ( 'NONE', #95, #215, #65 ) ;
#323 = CARTESIAN_POINT ( 'NONE',  ( -3.000000000000000444, 0.000000000000000000, 0.000000000000000000 ) ) ;
#324 = VERTEX_POINT ( 'NONE', #199 ) ;
#325 = COORDINATED_UNIVERSAL_TIME_OFFSET ( 1, 0, .AHEAD. ) ;
#326 = COORDINATED_UNIVERSAL_TIME_OFFSET ( 1, 0, .AHEAD. ) ;
#327 = CARTESIAN_POINT ( 'NONE',  ( 0.000000000000000000, 0.000000000000000000, 257.0000000000000000 ) ) ;
#328 = CIRCLE ( 'NONE', #307, 6.000000000000000888 ) ;
#329 = CARTESIAN_POINT ( 'NONE',  ( 0.000000000000000000, 0.000000000000000000, 7.500000000000007105 ) ) ;
#330 = DATE_AND_TIME ( #211, #175 ) ;
#331 = DIRECTION ( 'NONE',  ( 1.224646799147353207E-16, 1.000000000000000000, -0.000000000000000000 ) ) ;
#332 = AXIS2_PLACEMENT_3D ( 'NONE', #300, #151, #32 ) ;
#333 = DIRECTION ( 'NONE',  ( 0.000000000000000000, 0.000000000000000000, 1.000000000000000000 ) ) ;
#334 = FACE_OUTER_BOUND ( 'NONE', #84, .T. ) ;
#335 = ORIENTED_EDGE ( 'NONE', *, *, #164, .F. ) ;
#336 = CARTESIAN_POINT ( 'NONE',  ( -6.500000000000000888, 7.960204194457796463E-16, 7.000000000000002665 ) ) ;
#337 = DIRECTION ( 'NONE',  ( -1.000000000000000000, 0.000000000000000000, 0.000000000000000000 ) ) ;
#338 = AXIS2_PLACEMENT_3D ( 'NONE', #93, #30, #303 ) ;
#339 = PRODUCT_DEFINITION_FORMATION_WITH_SPECIFIED_SOURCE ( 'LIBOVOLNÝ', '', #281, .NOT_KNOWN. ) ;
#340 = ORIENTED_EDGE ( 'NONE', *, *, #313, .F. ) ;
#341 = CARTESIAN_POINT ( 'NONE',  ( -6.000000000000000888, 0.000000000000000000, 257.0000000000000000 ) ) ;
#342 = ADVANCED_FACE ( 'NONE', ( #168 ), #141, .F. ) ;
#343 = EDGE_LOOP ( 'NONE', ( #315, #370, #51, #181 ) ) ;
#344 = ORGANIZATION ( 'NEURÈENÝ', 'NEURÈENÝ', '' ) ;
#345 =( NAMED_UNIT ( * ) PLANE_ANGLE_UNIT ( ) SI_UNIT ( $, .RADIAN. ) );
#346 = ORIENTED_EDGE ( 'NONE', *, *, #381, .F. ) ;
#347 = DIRECTION ( 'NONE',  ( 0.000000000000000000, 0.000000000000000000, 1.000000000000000000 ) ) ;
#348 = ORIENTED_EDGE ( 'NONE', *, *, #18, .T. ) ;
#349 = DIRECTION ( 'NONE',  ( 1.000000000000000000, 0.000000000000000000, 0.000000000000000000 ) ) ;
#350 = VERTEX_POINT ( 'NONE', #341 ) ;
#351 = AXIS2_PLACEMENT_3D ( 'NONE', #86, #378, #228 ) ;
#352 = VERTEX_POINT ( 'NONE', #78 ) ;
#353 = EDGE_CURVE ( 'NONE', #111, #352, #356, .T. ) ;
#354 = DATE_TIME_ROLE ( 'classification_date' ) ;
#355 = DIRECTION ( 'NONE',  ( -0.000000000000000000, -0.000000000000000000, -1.000000000000000000 ) ) ;
#356 = CIRCLE ( 'NONE', #239, 10.00000000000000000 ) ;
#357 = DIRECTION ( 'NONE',  ( -0.000000000000000000, -0.000000000000000000, -1.000000000000000000 ) ) ;
#358 = APPROVAL_ROLE ( '' ) ;
#359 = FACE_BOUND ( 'NONE', #53, .T. ) ;
#360 = DIRECTION ( 'NONE',  ( 0.000000000000000000, 0.000000000000000000, 1.000000000000000000 ) ) ;
#361 = ADVANCED_FACE ( 'NONE', ( #310, #43 ), #163, .F. ) ;
#362 = EDGE_CURVE ( 'NONE', #56, #318, #73, .T. ) ;
#363 = CIRCLE ( 'NONE', #40, 6.000000000000000888 ) ;
#364 = DIRECTION ( 'NONE',  ( 0.000000000000000000, 0.000000000000000000, 1.000000000000000000 ) ) ;
#365 = DIRECTION ( 'NONE',  ( 1.000000000000000000, 0.000000000000000000, 0.000000000000000000 ) ) ;
#366 = FACE_OUTER_BOUND ( 'NONE', #210, .T. ) ;
#367 = ORIENTED_EDGE ( 'NONE', *, *, #165, .F. ) ;
#368 = CYLINDRICAL_SURFACE ( 'NONE', #174, 10.00000000000000000 ) ;
#369 = CIRCLE ( 'NONE', #26, 3.000000000000000444 ) ;
#370 = ORIENTED_EDGE ( 'NONE', *, *, #115, .T. ) ;
#371 = FACE_OUTER_BOUND ( 'NONE', #292, .T. ) ;
#372 = CC_DESIGN_PERSON_AND_ORGANIZATION_ASSIGNMENT ( #116, #110, ( #281 ) ) ;
#373 = EDGE_LOOP ( 'NONE', ( #20, #145 ) ) ;
#374 = APPROVAL_PERSON_ORGANIZATION ( #50, #55, #260 ) ;
#375 = EDGE_CURVE ( 'NONE', #308, #376, #22, .T. ) ;
#376 = VERTEX_POINT ( 'NONE', #323 ) ;
#377 = EDGE_CURVE ( 'NONE', #318, #202, #121, .T. ) ;
#378 = DIRECTION ( 'NONE',  ( 0.000000000000000000, -1.000000000000000000, 0.000000000000000000 ) ) ;
#379 = ORIENTED_EDGE ( 'NONE', *, *, #157, .T. ) ;
#380 = AXIS2_PLACEMENT_3D ( 'NONE', #240, #357, #365 ) ;
#381 = EDGE_CURVE ( 'NONE', #265, #111, #206, .T. ) ;
ENDSEC;
END-ISO-10303-21;
