ISO-10303-21;
HEADER;
FILE_DESCRIPTION (( 'STEP AP203' ),
    '1' );
FILE_NAME ('c2dd.STEP',
    '2022-07-08T15:31:17',
    ( '' ),
    ( '' ),
    'SwSTEP 2.0',
    'SolidWorks 2019',
    '' );
FILE_SCHEMA (( 'CONFIG_CONTROL_DESIGN' ));
ENDSEC;

DATA;
#1 = CARTESIAN_POINT ( 'NONE',  ( 4.500000000000000888, 0.000000000000000000, 5.500000000000005329 ) ) ;
#2 = CARTESIAN_POINT ( 'NONE',  ( 0.000000000000000000, 0.000000000000000000, 280.0000000000000000 ) ) ;
#3 = ORIENTED_EDGE ( 'NONE', *, *, #47, .F. ) ;
#4 = CARTESIAN_POINT ( 'NONE',  ( 7.000000000000000000, 8.572527594031473190E-16, 5.000000000000000000 ) ) ;
#5 = VERTEX_POINT ( 'NONE', #209 ) ;
#6 = ORIENTED_EDGE ( 'NONE', *, *, #108, .T. ) ;
#7 = CC_DESIGN_SECURITY_CLASSIFICATION ( #48, ( #288 ) ) ;
#8 = DIRECTION ( 'NONE',  ( 0.000000000000000000, 0.000000000000000000, 1.000000000000000000 ) ) ;
#9 = ORIENTED_EDGE ( 'NONE', *, *, #191, .F. ) ;
#10 = DIRECTION ( 'NONE',  ( 0.000000000000000000, 0.000000000000000000, 1.000000000000000000 ) ) ;
#11 = CARTESIAN_POINT ( 'NONE',  ( 0.000000000000000000, 0.000000000000000000, 5.500000000000005329 ) ) ;
#12 = CIRCLE ( 'NONE', #151, 7.000000000000000000 ) ;
#13 = DIRECTION ( 'NONE',  ( 0.000000000000000000, 0.000000000000000000, 1.000000000000000000 ) ) ;
#14 = DIRECTION ( 'NONE',  ( 1.000000000000000000, 0.000000000000000000, 0.000000000000000000 ) ) ;
#15 = PRODUCT_DEFINITION ( 'NEZNÁMÝ', '', #288, #355 ) ;
#16 = CARTESIAN_POINT ( 'NONE',  ( 0.000000000000000000, 0.000000000000000000, 5.000000000000000000 ) ) ;
#17 = ORIENTED_EDGE ( 'NONE', *, *, #363, .F. ) ;
#18 = AXIS2_PLACEMENT_3D ( 'NONE', #67, #130, #243 ) ;
#19 = APPROVAL_DATE_TIME ( #380, #255 ) ;
#20 = CARTESIAN_POINT ( 'NONE',  ( -2.000000000000000000, 0.000000000000000000, 280.0000000000000000 ) ) ;
#21 = DATE_AND_TIME ( #23, #240 ) ;
#22 = CC_DESIGN_PERSON_AND_ORGANIZATION_ASSIGNMENT ( #134, #104, ( #288 ) ) ;
#23 = CALENDAR_DATE ( 2022, 8, 7 ) ;
#24 = EDGE_CURVE ( 'NONE', #127, #349, #91, .T. ) ;
#25 = CARTESIAN_POINT ( 'NONE',  ( 0.000000000000000000, 0.000000000000000000, 280.0000000000000000 ) ) ;
#26 = EDGE_LOOP ( 'NONE', ( #235, #30 ) ) ;
#27 = COORDINATED_UNIVERSAL_TIME_OFFSET ( 1, 0, .AHEAD. ) ;
#28 = VERTEX_POINT ( 'NONE', #157 ) ;
#29 = CARTESIAN_POINT ( 'NONE',  ( 0.000000000000000000, 0.000000000000000000, 5.500000000000005329 ) ) ;
#30 = ORIENTED_EDGE ( 'NONE', *, *, #108, .F. ) ;
#31 = CIRCLE ( 'NONE', #334, 7.000000000000000000 ) ;
#32 = DIRECTION ( 'NONE',  ( 1.000000000000000000, 0.000000000000000000, 0.000000000000000000 ) ) ;
#33 = ORIENTED_EDGE ( 'NONE', *, *, #24, .F. ) ;
#34 = DIRECTION ( 'NONE',  ( -1.000000000000000000, 0.000000000000000000, 0.000000000000000000 ) ) ;
#35 = ORIENTED_EDGE ( 'NONE', *, *, #95, .T. ) ;
#36 = DIRECTION ( 'NONE',  ( -0.000000000000000000, -0.000000000000000000, -1.000000000000000000 ) ) ;
#37 = CIRCLE ( 'NONE', #179, 2.000000000000000000 ) ;
#38 = EDGE_CURVE ( 'NONE', #195, #127, #337, .T. ) ;
#39 = ORIENTED_EDGE ( 'NONE', *, *, #111, .T. ) ;
#40 = PLANE ( 'NONE',  #200 ) ;
#41 = ADVANCED_FACE ( 'NONE', ( #73, #324 ), #364, .F. ) ;
#42 = DIRECTION ( 'NONE',  ( 1.000000000000000000, 0.000000000000000000, 0.000000000000000000 ) ) ;
#43 = AXIS2_PLACEMENT_3D ( 'NONE', #245, #373, #216 ) ;
#44 = VERTEX_POINT ( 'NONE', #183 ) ;
#45 = AXIS2_PLACEMENT_3D ( 'NONE', #124, #118, #99 ) ;
#46 = CARTESIAN_POINT ( 'NONE',  ( 0.000000000000000000, 0.000000000000000000, 0.000000000000000000 ) ) ;
#47 = EDGE_CURVE ( 'NONE', #195, #28, #70, .T. ) ;
#48 = SECURITY_CLASSIFICATION ( '', '', #107 ) ;
#49 = ORIENTED_EDGE ( 'NONE', *, *, #297, .T. ) ;
#50 = PERSON_AND_ORGANIZATION_ROLE ( 'creator' ) ;
#51 = CARTESIAN_POINT ( 'NONE',  ( 2.000000000000000000, 2.449293598294706414E-16, 280.0000000000000000 ) ) ;
#52 = ORIENTED_EDGE ( 'NONE', *, *, #295, .F. ) ;
#53 = CARTESIAN_POINT ( 'NONE',  ( 7.000000000000000000, 8.572527594031473190E-16, 5.000000000000000000 ) ) ;
#54 = ORIENTED_EDGE ( 'NONE', *, *, #335, .F. ) ;
#55 = AXIS2_PLACEMENT_3D ( 'NONE', #1, #83, #193 ) ;
#56 = ORIENTED_EDGE ( 'NONE', *, *, #368, .F. ) ;
#57 = AXIS2_PLACEMENT_3D ( 'NONE', #178, #283, #34 ) ;
#58 = FACE_OUTER_BOUND ( 'NONE', #59, .T. ) ;
#59 = EDGE_LOOP ( 'NONE', ( #9, #352, #280, #322 ) ) ;
#60 = DIRECTION ( 'NONE',  ( 1.000000000000000000, 0.000000000000000000, 0.000000000000000000 ) ) ;
#61 = DIRECTION ( 'NONE',  ( -1.000000000000000000, 0.000000000000000000, 0.000000000000000000 ) ) ;
#62 = APPROVAL_DATE_TIME ( #325, #241 ) ;
#63 = DIRECTION ( 'NONE',  ( 1.000000000000000000, 0.000000000000000000, 0.000000000000000000 ) ) ;
#64 = LINE ( 'NONE', #246, #185 ) ;
#65 = AXIS2_PLACEMENT_3D ( 'NONE', #2, #320, #63 ) ;
#66 = EDGE_CURVE ( 'NONE', #222, #44, #332, .T. ) ;
#67 = CARTESIAN_POINT ( 'NONE',  ( 0.000000000000000000, 0.000000000000000000, 5.000000000000000000 ) ) ;
#68 = CARTESIAN_POINT ( 'NONE',  ( 4.000000000000000000, 4.898587196589412829E-16, 280.0000000000000000 ) ) ;
#69 = DIRECTION ( 'NONE',  ( -0.000000000000000000, -0.000000000000000000, -1.000000000000000000 ) ) ;
#70 = CIRCLE ( 'NONE', #120, 4.000000000000000000 ) ;
#71 = DIRECTION ( 'NONE',  ( -0.000000000000000000, -0.000000000000000000, -1.000000000000000000 ) ) ;
#72 = AXIS2_PLACEMENT_3D ( 'NONE', #46, #165, #379 ) ;
#73 = FACE_BOUND ( 'NONE', #194, .T. ) ;
#74 = PERSON_AND_ORGANIZATION_ROLE ( 'creator' ) ;
#75 = DIRECTION ( 'NONE',  ( 1.224646799147353207E-16, 1.000000000000000000, -0.000000000000000000 ) ) ;
#76 = PERSON_AND_ORGANIZATION ( #258, #166 ) ;
#77 = VECTOR ( 'NONE', #154, 1000.000000000000000 ) ;
#78 = COORDINATED_UNIVERSAL_TIME_OFFSET ( 1, 0, .AHEAD. ) ;
#79 = CARTESIAN_POINT ( 'NONE',  ( 4.000000000000000000, 4.898587196589412829E-16, 5.500000000000005329 ) ) ;
#80 = PERSON_AND_ORGANIZATION_ROLE ( 'design_owner' ) ;
#81 = CYLINDRICAL_SURFACE ( 'NONE', #329, 7.000000000000000000 ) ;
#82 = APPROVAL_ROLE ( '' ) ;
#83 = DIRECTION ( 'NONE',  ( 0.000000000000000000, -1.000000000000000000, 0.000000000000000000 ) ) ;
#84 = CIRCLE ( 'NONE', #372, 4.500000000000000888 ) ;
#85 = VERTEX_POINT ( 'NONE', #339 ) ;
#86 = FACE_OUTER_BOUND ( 'NONE', #117, .T. ) ;
#87 = ORIENTED_EDGE ( 'NONE', *, *, #144, .F. ) ;
#88 = UNCERTAINTY_MEASURE_WITH_UNIT (LENGTH_MEASURE( 1.000000000000000082E-05 ), #371, 'distance_accuracy_value', 'NONE');
#89 = CARTESIAN_POINT ( 'NONE',  ( 0.000000000000000000, 0.000000000000000000, 5.500000000000005329 ) ) ;
#90 = ORIENTED_EDGE ( 'NONE', *, *, #38, .F. ) ;
#91 = CIRCLE ( 'NONE', #270, 4.000000000000000000 ) ;
#92 = ORIENTED_EDGE ( 'NONE', *, *, #188, .T. ) ;
#93 = LOCAL_TIME ( 17, 31, 17.00000000000000000, #27 ) ;
#94 = CARTESIAN_POINT ( 'NONE',  ( 7.000000000000000000, 8.572527594031473190E-16, 0.000000000000000000 ) ) ;
#95 = EDGE_CURVE ( 'NONE', #349, #222, #302, .T. ) ;
#96 = CYLINDRICAL_SURFACE ( 'NONE', #211, 4.000000000000000000 ) ;
#97 = LINE ( 'NONE', #4, #77 ) ;
#98 = ADVANCED_FACE ( 'NONE', ( #306 ), #96, .T. ) ;
#99 = DIRECTION ( 'NONE',  ( -1.000000000000000000, 0.000000000000000000, 0.000000000000000000 ) ) ;
#100 = DIRECTION ( 'NONE',  ( 1.000000000000000000, 0.000000000000000000, 0.000000000000000000 ) ) ;
#101 = CIRCLE ( 'NONE', #72, 7.000000000000000000 ) ;
#102 = CARTESIAN_POINT ( 'NONE',  ( 0.000000000000000000, 0.000000000000000000, 280.0000000000000000 ) ) ;
#103 = CC_DESIGN_PERSON_AND_ORGANIZATION_ASSIGNMENT ( #313, #50, ( #288 ) ) ;
#104 = PERSON_AND_ORGANIZATION_ROLE ( 'design_supplier' ) ;
#105 = FACE_BOUND ( 'NONE', #249, .T. ) ;
#106 = AXIS2_PLACEMENT_3D ( 'NONE', #351, #279, #113 ) ;
#107 = SECURITY_CLASSIFICATION_LEVEL ( 'unclassified' ) ;
#108 = EDGE_CURVE ( 'NONE', #232, #85, #12, .T. ) ;
#109 = PERSON_AND_ORGANIZATION ( #258, #166 ) ;
#110 = DIRECTION ( 'NONE',  ( -0.000000000000000000, -0.000000000000000000, -1.000000000000000000 ) ) ;
#111 = EDGE_CURVE ( 'NONE', #28, #349, #64, .T. ) ;
#112 = VERTEX_POINT ( 'NONE', #138 ) ;
#113 = DIRECTION ( 'NONE',  ( 1.000000000000000000, 0.000000000000000000, -0.000000000000000000 ) ) ;
#114 = CC_DESIGN_APPROVAL ( #305, ( #15 ) ) ;
#115 = EDGE_LOOP ( 'NONE', ( #173, #56, #298, #259 ) ) ;
#116 = EDGE_CURVE ( 'NONE', #127, #44, #218, .T. ) ;
#117 = EDGE_LOOP ( 'NONE', ( #290, #49, #6, #87 ) ) ;
#118 = DIRECTION ( 'NONE',  ( 0.000000000000000000, 0.000000000000000000, -1.000000000000000000 ) ) ;
#119 = VERTEX_POINT ( 'NONE', #375 ) ;
#120 = AXIS2_PLACEMENT_3D ( 'NONE', #102, #304, #42 ) ;
#121 = PRODUCT ( 'c2dd', 'c2dd', '', ( #278 ) ) ;
#122 = AXIS2_PLACEMENT_3D ( 'NONE', #16, #13, #131 ) ;
#123 = ORIENTED_EDGE ( 'NONE', *, *, #335, .T. ) ;
#124 = CARTESIAN_POINT ( 'NONE',  ( 0.000000000000000000, 0.000000000000000000, 280.0000000000000000 ) ) ;
#125 = ADVANCED_BREP_SHAPE_REPRESENTATION ( 'c2dd', ( #225, #132 ), #213 ) ;
#126 = ORIENTED_EDGE ( 'NONE', *, *, #295, .T. ) ;
#127 = VERTEX_POINT ( 'NONE', #79 ) ;
#128 = CC_DESIGN_APPROVAL ( #241, ( #48 ) ) ;
#129 = CC_DESIGN_PERSON_AND_ORGANIZATION_ASSIGNMENT ( #250, #338, ( #48 ) ) ;
#130 = DIRECTION ( 'NONE',  ( -0.000000000000000000, -0.000000000000000000, -1.000000000000000000 ) ) ;
#131 = DIRECTION ( 'NONE',  ( 1.000000000000000000, 0.000000000000000000, 0.000000000000000000 ) ) ;
#132 = AXIS2_PLACEMENT_3D ( 'NONE', #348, #164, #343 ) ;
#133 = EDGE_LOOP ( 'NONE', ( #201, #33, #145, #360 ) ) ;
#134 = PERSON_AND_ORGANIZATION ( #258, #166 ) ;
#135 = DATE_AND_TIME ( #217, #226 ) ;
#136 = CC_DESIGN_APPROVAL ( #255, ( #288 ) ) ;
#137 = DATE_TIME_ROLE ( 'creation_date' ) ;
#138 = CARTESIAN_POINT ( 'NONE',  ( -7.000000000000000000, 0.000000000000000000, 5.000000000000000000 ) ) ;
#139 = DATE_AND_TIME ( #192, #93 ) ;
#140 = PLANE ( 'NONE',  #106 ) ;
#141 = ORIENTED_EDGE ( 'NONE', *, *, #300, .F. ) ;
#142 = FACE_OUTER_BOUND ( 'NONE', #254, .T. ) ;
#143 = CIRCLE ( 'NONE', #65, 2.000000000000000000 ) ;
#144 = EDGE_CURVE ( 'NONE', #112, #85, #314, .T. ) ;
#145 = ORIENTED_EDGE ( 'NONE', *, *, #116, .T. ) ;
#146 = CARTESIAN_POINT ( 'NONE',  ( 2.000000000000000000, 2.449293598294706414E-16, 280.0000000000000000 ) ) ;
#147 = ORIENTED_EDGE ( 'NONE', *, *, #368, .T. ) ;
#148 = DIRECTION ( 'NONE',  ( 0.000000000000000000, 0.000000000000000000, 1.000000000000000000 ) ) ;
#149 = EDGE_LOOP ( 'NONE', ( #52, #35, #17, #190 ) ) ;
#150 = CC_DESIGN_PERSON_AND_ORGANIZATION_ASSIGNMENT ( #281, #80, ( #121 ) ) ;
#151 = AXIS2_PLACEMENT_3D ( 'NONE', #177, #8, #366 ) ;
#152 = DIRECTION ( 'NONE',  ( 0.000000000000000000, 0.000000000000000000, 1.000000000000000000 ) ) ;
#153 = SHAPE_DEFINITION_REPRESENTATION ( #292, #125 ) ;
#154 = DIRECTION ( 'NONE',  ( -0.000000000000000000, -0.000000000000000000, -1.000000000000000000 ) ) ;
#155 = ORIENTED_EDGE ( 'NONE', *, *, #191, .T. ) ;
#156 = DIRECTION ( 'NONE',  ( 1.000000000000000000, 0.000000000000000000, -0.000000000000000000 ) ) ;
#157 = CARTESIAN_POINT ( 'NONE',  ( -4.000000000000000000, 0.000000000000000000, 280.0000000000000000 ) ) ;
#158 = TOROIDAL_SURFACE ( 'NONE', #377, 4.500000000000000888, 0.5000000000000000000 ) ;
#159 = DIRECTION ( 'NONE',  ( 0.000000000000000000, 0.000000000000000000, 1.000000000000000000 ) ) ;
#160 = CIRCLE ( 'NONE', #260, 2.000000000000000000 ) ;
#161 = ADVANCED_FACE ( 'NONE', ( #105, #282 ), #140, .T. ) ;
#162 = APPLICATION_PROTOCOL_DEFINITION ( 'international standard', 'config_control_design', 1994, #287 ) ;
#163 = DIRECTION ( 'NONE',  ( 0.000000000000000000, 0.000000000000000000, 1.000000000000000000 ) ) ;
#164 = DIRECTION ( 'NONE',  ( 0.000000000000000000, 0.000000000000000000, 1.000000000000000000 ) ) ;
#165 = DIRECTION ( 'NONE',  ( 0.000000000000000000, 0.000000000000000000, 1.000000000000000000 ) ) ;
#166 = ORGANIZATION ( 'NEURÈENÝ', 'NEURÈENÝ', '' ) ;
#167 = EDGE_LOOP ( 'NONE', ( #3, #224, #315, #230 ) ) ;
#168 = VERTEX_POINT ( 'NONE', #53 ) ;
#169 = CYLINDRICAL_SURFACE ( 'NONE', #361, 4.000000000000000000 ) ;
#170 = CC_DESIGN_DATE_AND_TIME_ASSIGNMENT ( #21, #137, ( #15 ) ) ;
#171 = ORIENTED_EDGE ( 'NONE', *, *, #247, .T. ) ;
#172 = DIRECTION ( 'NONE',  ( 1.000000000000000000, 0.000000000000000000, 0.000000000000000000 ) ) ;
#173 = ORIENTED_EDGE ( 'NONE', *, *, #297, .F. ) ;
#174 = DIRECTION ( 'NONE',  ( -1.000000000000000000, 0.000000000000000000, 0.000000000000000000 ) ) ;
#175 = ORIENTED_EDGE ( 'NONE', *, *, #207, .F. ) ;
#176 = CARTESIAN_POINT ( 'NONE',  ( -2.000000000000000000, 0.000000000000000000, 0.000000000000000000 ) ) ;
#177 = CARTESIAN_POINT ( 'NONE',  ( 0.000000000000000000, 0.000000000000000000, 0.000000000000000000 ) ) ;
#178 = CARTESIAN_POINT ( 'NONE',  ( 0.000000000000000000, 0.000000000000000000, 280.0000000000000000 ) ) ;
#179 = AXIS2_PLACEMENT_3D ( 'NONE', #197, #362, #172 ) ;
#180 = FACE_OUTER_BOUND ( 'NONE', #327, .T. ) ;
#181 = APPLICATION_PROTOCOL_DEFINITION ( 'international standard', 'config_control_design', 1994, #359 ) ;
#182 =( NAMED_UNIT ( * ) PLANE_ANGLE_UNIT ( ) SI_UNIT ( $, .RADIAN. ) );
#183 = CARTESIAN_POINT ( 'NONE',  ( 4.500000000000000888, 0.000000000000000000, 5.000000000000002665 ) ) ;
#184 = DIRECTION ( 'NONE',  ( 1.000000000000000000, 0.000000000000000000, -0.000000000000000000 ) ) ;
#185 = VECTOR ( 'NONE', #223, 1000.000000000000000 ) ;
#186 = CIRCLE ( 'NONE', #276, 2.000000000000000000 ) ;
#187 = APPROVAL_DATE_TIME ( #139, #305 ) ;
#188 = EDGE_CURVE ( 'NONE', #28, #195, #219, .T. ) ;
#189 = DIRECTION ( 'NONE',  ( 0.000000000000000000, 0.000000000000000000, -1.000000000000000000 ) ) ;
#190 = ORIENTED_EDGE ( 'NONE', *, *, #116, .F. ) ;
#191 = EDGE_CURVE ( 'NONE', #286, #119, #227, .T. ) ;
#192 = CALENDAR_DATE ( 2022, 8, 7 ) ;
#193 = DIRECTION ( 'NONE',  ( 0.000000000000000000, 0.000000000000000000, -1.000000000000000000 ) ) ;
#194 = EDGE_LOOP ( 'NONE', ( #347, #54 ) ) ;
#195 = VERTEX_POINT ( 'NONE', #309 ) ;
#196 = PRODUCT_RELATED_PRODUCT_CATEGORY ( 'detail', '', ( #121 ) ) ;
#197 = CARTESIAN_POINT ( 'NONE',  ( 0.000000000000000000, 0.000000000000000000, 280.0000000000000000 ) ) ;
#198 = EDGE_CURVE ( 'NONE', #85, #232, #101, .T. ) ;
#199 = ORIENTED_EDGE ( 'NONE', *, *, #66, .T. ) ;
#200 = AXIS2_PLACEMENT_3D ( 'NONE', #267, #269, #156 ) ;
#201 = ORIENTED_EDGE ( 'NONE', *, *, #95, .F. ) ;
#202 = DIRECTION ( 'NONE',  ( -0.000000000000000000, -0.000000000000000000, -1.000000000000000000 ) ) ;
#203 = CARTESIAN_POINT ( 'NONE',  ( 0.000000000000000000, 0.000000000000000000, 280.0000000000000000 ) ) ;
#204 = APPROVAL_ROLE ( '' ) ;
#205 = CARTESIAN_POINT ( 'NONE',  ( -4.500000000000000888, 5.510910596163088569E-16, 5.000000000000002665 ) ) ;
#206 = VECTOR ( 'NONE', #345, 1000.000000000000000 ) ;
#207 = EDGE_CURVE ( 'NONE', #5, #312, #220, .T. ) ;
#208 = CYLINDRICAL_SURFACE ( 'NONE', #18, 7.000000000000000000 ) ;
#209 = CARTESIAN_POINT ( 'NONE',  ( -2.000000000000000000, 0.000000000000000000, 280.0000000000000000 ) ) ;
#210 = CARTESIAN_POINT ( 'NONE',  ( 0.000000000000000000, 0.000000000000000000, 5.000000000000000000 ) ) ;
#211 = AXIS2_PLACEMENT_3D ( 'NONE', #203, #36, #61 ) ;
#212 = ADVANCED_FACE ( 'NONE', ( #86 ), #81, .T. ) ;
#213 =( GEOMETRIC_REPRESENTATION_CONTEXT ( 3 ) GLOBAL_UNCERTAINTY_ASSIGNED_CONTEXT ( ( #88 ) ) GLOBAL_UNIT_ASSIGNED_CONTEXT ( ( #371, #182, #299 ) ) REPRESENTATION_CONTEXT ( 'NONE', 'WORKASPACE' ) );
#214 = FACE_BOUND ( 'NONE', #330, .T. ) ;
#215 = CARTESIAN_POINT ( 'NONE',  ( 0.000000000000000000, 0.000000000000000000, 5.000000000000000000 ) ) ;
#216 = DIRECTION ( 'NONE',  ( 1.000000000000000000, 0.000000000000000000, 0.000000000000000000 ) ) ;
#217 = CALENDAR_DATE ( 2022, 8, 7 ) ;
#218 = CIRCLE ( 'NONE', #55, 0.5000000000000004441 ) ;
#219 = CIRCLE ( 'NONE', #307, 4.000000000000000000 ) ;
#220 = LINE ( 'NONE', #20, #206 ) ;
#221 = ADVANCED_FACE ( 'NONE', ( #142 ), #169, .T. ) ;
#222 = VERTEX_POINT ( 'NONE', #205 ) ;
#223 = DIRECTION ( 'NONE',  ( -0.000000000000000000, -0.000000000000000000, -1.000000000000000000 ) ) ;
#224 = ORIENTED_EDGE ( 'NONE', *, *, #38, .T. ) ;
#225 = MANIFOLD_SOLID_BREP ( 'Odebrat vysunutím3', #285 ) ;
#226 = LOCAL_TIME ( 17, 31, 17.00000000000000000, #78 ) ;
#227 = LINE ( 'NONE', #51, #296 ) ;
#228 = ORIENTED_EDGE ( 'NONE', *, *, #188, .F. ) ;
#229 = ADVANCED_FACE ( 'NONE', ( #367 ), #263, .F. ) ;
#230 = ORIENTED_EDGE ( 'NONE', *, *, #111, .F. ) ;
#231 = DIRECTION ( 'NONE',  ( 0.000000000000000000, 0.000000000000000000, 1.000000000000000000 ) ) ;
#232 = VERTEX_POINT ( 'NONE', #94 ) ;
#233 = CALENDAR_DATE ( 2022, 8, 7 ) ;
#234 = APPROVAL_PERSON_ORGANIZATION ( #109, #241, #204 ) ;
#235 = ORIENTED_EDGE ( 'NONE', *, *, #198, .F. ) ;
#236 = DIRECTION ( 'NONE',  ( 0.000000000000000000, 0.000000000000000000, 1.000000000000000000 ) ) ;
#237 = DIRECTION ( 'NONE',  ( -1.000000000000000000, 1.224646799147351482E-16, 0.000000000000000000 ) ) ;
#238 = DIRECTION ( 'NONE',  ( -0.000000000000000000, -0.000000000000000000, -1.000000000000000000 ) ) ;
#239 = CARTESIAN_POINT ( 'NONE',  ( 0.000000000000000000, 0.000000000000000000, 0.000000000000000000 ) ) ;
#240 = LOCAL_TIME ( 17, 31, 17.00000000000000000, #271 ) ;
#241 = APPROVAL ( #344, 'NEURÈENÝ' ) ;
#242 = FACE_OUTER_BOUND ( 'NONE', #115, .T. ) ;
#243 = DIRECTION ( 'NONE',  ( -1.000000000000000000, 0.000000000000000000, 0.000000000000000000 ) ) ;
#244 = APPROVAL_PERSON_ORGANIZATION ( #76, #305, #82 ) ;
#245 = CARTESIAN_POINT ( 'NONE',  ( 0.000000000000000000, 0.000000000000000000, 5.000000000000000000 ) ) ;
#246 = CARTESIAN_POINT ( 'NONE',  ( -4.000000000000000000, 0.000000000000000000, 280.0000000000000000 ) ) ;
#247 = EDGE_CURVE ( 'NONE', #5, #286, #143, .T. ) ;
#248 = CALENDAR_DATE ( 2022, 8, 7 ) ;
#249 = EDGE_LOOP ( 'NONE', ( #257, #141 ) ) ;
#250 = PERSON_AND_ORGANIZATION ( #258, #166 ) ;
#251 = AXIS2_PLACEMENT_3D ( 'NONE', #262, #75, #237 ) ;
#252 = ORIENTED_EDGE ( 'NONE', *, *, #47, .T. ) ;
#253 = LOCAL_TIME ( 17, 31, 17.00000000000000000, #376 ) ;
#254 = EDGE_LOOP ( 'NONE', ( #90, #228, #39, #126 ) ) ;
#255 = APPROVAL ( #374, 'NEURÈENÝ' ) ;
#256 = FACE_OUTER_BOUND ( 'NONE', #149, .T. ) ;
#257 = ORIENTED_EDGE ( 'NONE', *, *, #247, .F. ) ;
#258 = PERSON ( 'NEURÈENÝ', 'NEURÈENÝ', 'NEURÈENÝ', ('NEURÈENÝ'), ('NEURÈENÝ'), ('NEURÈENÝ') ) ;
#259 = ORIENTED_EDGE ( 'NONE', *, *, #198, .T. ) ;
#260 = AXIS2_PLACEMENT_3D ( 'NONE', #333, #69, #264 ) ;
#261 = ADVANCED_FACE ( 'NONE', ( #256 ), #350, .F. ) ;
#262 = CARTESIAN_POINT ( 'NONE',  ( -4.500000000000000888, 5.510910596163089556E-16, 5.500000000000005329 ) ) ;
#263 = CYLINDRICAL_SURFACE ( 'NONE', #45, 2.000000000000000000 ) ;
#264 = DIRECTION ( 'NONE',  ( 1.000000000000000000, 0.000000000000000000, 0.000000000000000000 ) ) ;
#265 = DIRECTION ( 'NONE',  ( -0.000000000000000000, -0.000000000000000000, -1.000000000000000000 ) ) ;
#266 = VECTOR ( 'NONE', #110, 1000.000000000000000 ) ;
#267 = CARTESIAN_POINT ( 'NONE',  ( 0.000000000000000000, 0.000000000000000000, 5.000000000000000000 ) ) ;
#268 = AXIS2_PLACEMENT_3D ( 'NONE', #29, #236, #32 ) ;
#269 = DIRECTION ( 'NONE',  ( 0.000000000000000000, 0.000000000000000000, 1.000000000000000000 ) ) ;
#270 = AXIS2_PLACEMENT_3D ( 'NONE', #11, #152, #100 ) ;
#271 = COORDINATED_UNIVERSAL_TIME_OFFSET ( 1, 0, .AHEAD. ) ;
#272 = CARTESIAN_POINT ( 'NONE',  ( -7.000000000000000000, 0.000000000000000000, 5.000000000000000000 ) ) ;
#273 = APPROVAL_ROLE ( '' ) ;
#274 = DIRECTION ( 'NONE',  ( 1.000000000000000000, 0.000000000000000000, 0.000000000000000000 ) ) ;
#275 = AXIS2_PLACEMENT_3D ( 'NONE', #328, #231, #365 ) ;
#276 = AXIS2_PLACEMENT_3D ( 'NONE', #289, #202, #60 ) ;
#277 = ADVANCED_FACE ( 'NONE', ( #58 ), #291, .F. ) ;
#278 = MECHANICAL_CONTEXT ( 'NONE', #359, 'mechanical' ) ;
#279 = DIRECTION ( 'NONE',  ( 0.000000000000000000, 0.000000000000000000, 1.000000000000000000 ) ) ;
#280 = ORIENTED_EDGE ( 'NONE', *, *, #207, .T. ) ;
#281 = PERSON_AND_ORGANIZATION ( #258, #166 ) ;
#282 = FACE_OUTER_BOUND ( 'NONE', #316, .T. ) ;
#283 = DIRECTION ( 'NONE',  ( 0.000000000000000000, 0.000000000000000000, -1.000000000000000000 ) ) ;
#284 = ADVANCED_FACE ( 'NONE', ( #356 ), #158, .F. ) ;
#285 = CLOSED_SHELL ( 'NONE', ( #229, #261, #98, #212, #357, #321, #41, #221, #161, #284, #277 ) ) ;
#286 = VERTEX_POINT ( 'NONE', #146 ) ;
#287 = APPLICATION_CONTEXT ( 'configuration controlled 3d designs of mechanical parts and assemblies' ) ;
#288 = PRODUCT_DEFINITION_FORMATION_WITH_SPECIFIED_SOURCE ( 'LIBOVOLNÝ', '', #121, .NOT_KNOWN. ) ;
#289 = CARTESIAN_POINT ( 'NONE',  ( 0.000000000000000000, 0.000000000000000000, 0.000000000000000000 ) ) ;
#290 = ORIENTED_EDGE ( 'NONE', *, *, #341, .F. ) ;
#291 = CYLINDRICAL_SURFACE ( 'NONE', #57, 2.000000000000000000 ) ;
#292 = PRODUCT_DEFINITION_SHAPE ( 'NONE', 'NONE',  #15 ) ;
#293 = CARTESIAN_POINT ( 'NONE',  ( 0.000000000000000000, 0.000000000000000000, 280.0000000000000000 ) ) ;
#294 = COORDINATED_UNIVERSAL_TIME_OFFSET ( 1, 0, .AHEAD. ) ;
#295 = EDGE_CURVE ( 'NONE', #349, #127, #370, .T. ) ;
#296 = VECTOR ( 'NONE', #189, 1000.000000000000000 ) ;
#297 = EDGE_CURVE ( 'NONE', #168, #232, #97, .T. ) ;
#298 = ORIENTED_EDGE ( 'NONE', *, *, #144, .T. ) ;
#299 =( NAMED_UNIT ( * ) SI_UNIT ( $, .STERADIAN. ) SOLID_ANGLE_UNIT ( ) );
#300 = EDGE_CURVE ( 'NONE', #286, #5, #37, .T. ) ;
#301 = VECTOR ( 'NONE', #265, 1000.000000000000000 ) ;
#302 = CIRCLE ( 'NONE', #251, 0.5000000000000004441 ) ;
#303 = APPROVAL_PERSON_ORGANIZATION ( #378, #255, #273 ) ;
#304 = DIRECTION ( 'NONE',  ( 0.000000000000000000, 0.000000000000000000, 1.000000000000000000 ) ) ;
#305 = APPROVAL ( #311, 'NEURÈENÝ' ) ;
#306 = FACE_OUTER_BOUND ( 'NONE', #167, .T. ) ;
#307 = AXIS2_PLACEMENT_3D ( 'NONE', #25, #163, #274 ) ;
#308 = PERSON_AND_ORGANIZATION ( #258, #166 ) ;
#309 = CARTESIAN_POINT ( 'NONE',  ( 4.000000000000000000, 4.898587196589412829E-16, 280.0000000000000000 ) ) ;
#310 = EDGE_CURVE ( 'NONE', #312, #119, #186, .T. ) ;
#311 = APPROVAL_STATUS ( 'not_yet_approved' ) ;
#312 = VERTEX_POINT ( 'NONE', #176 ) ;
#313 = PERSON_AND_ORGANIZATION ( #258, #166 ) ;
#314 = LINE ( 'NONE', #272, #266 ) ;
#315 = ORIENTED_EDGE ( 'NONE', *, *, #24, .T. ) ;
#316 = EDGE_LOOP ( 'NONE', ( #92, #252 ) ) ;
#317 = DIRECTION ( 'NONE',  ( -0.000000000000000000, -0.000000000000000000, -1.000000000000000000 ) ) ;
#318 = EDGE_LOOP ( 'NONE', ( #171, #155, #123, #175 ) ) ;
#319 = LOCAL_TIME ( 17, 31, 17.00000000000000000, #294 ) ;
#320 = DIRECTION ( 'NONE',  ( 0.000000000000000000, 0.000000000000000000, 1.000000000000000000 ) ) ;
#321 = ADVANCED_FACE ( 'NONE', ( #214, #180 ), #40, .T. ) ;
#322 = ORIENTED_EDGE ( 'NONE', *, *, #310, .T. ) ;
#323 = DIRECTION ( 'NONE',  ( -1.000000000000000000, 0.000000000000000000, 0.000000000000000000 ) ) ;
#324 = FACE_OUTER_BOUND ( 'NONE', #26, .T. ) ;
#325 = DATE_AND_TIME ( #233, #319 ) ;
#326 = DIRECTION ( 'NONE',  ( 1.000000000000000000, 0.000000000000000000, 0.000000000000000000 ) ) ;
#327 = EDGE_LOOP ( 'NONE', ( #147, #354 ) ) ;
#328 = CARTESIAN_POINT ( 'NONE',  ( 0.000000000000000000, 0.000000000000000000, 5.500000000000005329 ) ) ;
#329 = AXIS2_PLACEMENT_3D ( 'NONE', #353, #317, #174 ) ;
#330 = EDGE_LOOP ( 'NONE', ( #381, #199 ) ) ;
#331 = CC_DESIGN_PERSON_AND_ORGANIZATION_ASSIGNMENT ( #308, #74, ( #15 ) ) ;
#332 = CIRCLE ( 'NONE', #43, 4.500000000000000888 ) ;
#333 = CARTESIAN_POINT ( 'NONE',  ( 0.000000000000000000, 0.000000000000000000, 0.000000000000000000 ) ) ;
#334 = AXIS2_PLACEMENT_3D ( 'NONE', #210, #10, #369 ) ;
#335 = EDGE_CURVE ( 'NONE', #119, #312, #160, .T. ) ;
#336 = CARTESIAN_POINT ( 'NONE',  ( -4.000000000000000000, 0.000000000000000000, 5.500000000000005329 ) ) ;
#337 = LINE ( 'NONE', #68, #301 ) ;
#338 = PERSON_AND_ORGANIZATION_ROLE ( 'classification_officer' ) ;
#339 = CARTESIAN_POINT ( 'NONE',  ( -7.000000000000000000, 0.000000000000000000, 0.000000000000000000 ) ) ;
#340 = DATE_TIME_ROLE ( 'classification_date' ) ;
#341 = EDGE_CURVE ( 'NONE', #168, #112, #342, .T. ) ;
#342 = CIRCLE ( 'NONE', #122, 7.000000000000000000 ) ;
#343 = DIRECTION ( 'NONE',  ( 1.000000000000000000, 0.000000000000000000, 0.000000000000000000 ) ) ;
#344 = APPROVAL_STATUS ( 'not_yet_approved' ) ;
#345 = DIRECTION ( 'NONE',  ( 0.000000000000000000, 0.000000000000000000, -1.000000000000000000 ) ) ;
#346 = CC_DESIGN_DATE_AND_TIME_ASSIGNMENT ( #135, #340, ( #48 ) ) ;
#347 = ORIENTED_EDGE ( 'NONE', *, *, #310, .F. ) ;
#348 = CARTESIAN_POINT ( 'NONE',  ( 0.000000000000000000, 0.000000000000000000, 0.000000000000000000 ) ) ;
#349 = VERTEX_POINT ( 'NONE', #336 ) ;
#350 = TOROIDAL_SURFACE ( 'NONE', #275, 4.500000000000000888, 0.5000000000000000000 ) ;
#351 = CARTESIAN_POINT ( 'NONE',  ( 0.000000000000000000, 0.000000000000000000, 280.0000000000000000 ) ) ;
#352 = ORIENTED_EDGE ( 'NONE', *, *, #300, .T. ) ;
#353 = CARTESIAN_POINT ( 'NONE',  ( 0.000000000000000000, 0.000000000000000000, 5.000000000000000000 ) ) ;
#354 = ORIENTED_EDGE ( 'NONE', *, *, #341, .T. ) ;
#355 = DESIGN_CONTEXT ( 'detailed design', #287, 'design' ) ;
#356 = FACE_OUTER_BOUND ( 'NONE', #133, .T. ) ;
#357 = ADVANCED_FACE ( 'NONE', ( #242 ), #208, .T. ) ;
#358 = AXIS2_PLACEMENT_3D ( 'NONE', #239, #159, #184 ) ;
#359 = APPLICATION_CONTEXT ( 'configuration controlled 3d designs of mechanical parts and assemblies' ) ;
#360 = ORIENTED_EDGE ( 'NONE', *, *, #66, .F. ) ;
#361 = AXIS2_PLACEMENT_3D ( 'NONE', #293, #238, #323 ) ;
#362 = DIRECTION ( 'NONE',  ( 0.000000000000000000, 0.000000000000000000, 1.000000000000000000 ) ) ;
#363 = EDGE_CURVE ( 'NONE', #44, #222, #84, .T. ) ;
#364 = PLANE ( 'NONE',  #358 ) ;
#365 = DIRECTION ( 'NONE',  ( 1.000000000000000000, 0.000000000000000000, 0.000000000000000000 ) ) ;
#366 = DIRECTION ( 'NONE',  ( 1.000000000000000000, 0.000000000000000000, 0.000000000000000000 ) ) ;
#367 = FACE_OUTER_BOUND ( 'NONE', #318, .T. ) ;
#368 = EDGE_CURVE ( 'NONE', #112, #168, #31, .T. ) ;
#369 = DIRECTION ( 'NONE',  ( 1.000000000000000000, 0.000000000000000000, 0.000000000000000000 ) ) ;
#370 = CIRCLE ( 'NONE', #268, 4.000000000000000000 ) ;
#371 =( LENGTH_UNIT ( ) NAMED_UNIT ( * ) SI_UNIT ( .MILLI., .METRE. ) );
#372 = AXIS2_PLACEMENT_3D ( 'NONE', #215, #71, #14 ) ;
#373 = DIRECTION ( 'NONE',  ( -0.000000000000000000, -0.000000000000000000, -1.000000000000000000 ) ) ;
#374 = APPROVAL_STATUS ( 'not_yet_approved' ) ;
#375 = CARTESIAN_POINT ( 'NONE',  ( 2.000000000000000000, 2.449293598294706414E-16, 0.000000000000000000 ) ) ;
#376 = COORDINATED_UNIVERSAL_TIME_OFFSET ( 1, 0, .AHEAD. ) ;
#377 = AXIS2_PLACEMENT_3D ( 'NONE', #89, #148, #326 ) ;
#378 = PERSON_AND_ORGANIZATION ( #258, #166 ) ;
#379 = DIRECTION ( 'NONE',  ( 1.000000000000000000, 0.000000000000000000, 0.000000000000000000 ) ) ;
#380 = DATE_AND_TIME ( #248, #253 ) ;
#381 = ORIENTED_EDGE ( 'NONE', *, *, #363, .T. ) ;
ENDSEC;
END-ISO-10303-21;
