ISO-10303-21;
HEADER;
FILE_DESCRIPTION (( 'STEP AP203' ),
    '1' );
FILE_NAME ('81f0.STEP',
    '2022-07-08T15:27:39',
    ( '' ),
    ( '' ),
    'SwSTEP 2.0',
    'SolidWorks 2019',
    '' );
FILE_SCHEMA (( 'CONFIG_CONTROL_DESIGN' ));
ENDSEC;

DATA;
#1 = VERTEX_POINT ( 'NONE', #114 ) ;
#2 = CALENDAR_DATE ( 2022, 8, 7 ) ;
#3 = PERSON_AND_ORGANIZATION ( #48, #193 ) ;
#4 = DIRECTION ( 'NONE',  ( 1.000000000000000000, 0.000000000000000000, 0.000000000000000000 ) ) ;
#5 = CIRCLE ( 'NONE', #289, 4.000000000000000000 ) ;
#6 = EDGE_LOOP ( 'NONE', ( #47, #201, #145, #223 ) ) ;
#7 = DIRECTION ( 'NONE',  ( 0.000000000000000000, 0.000000000000000000, 1.000000000000000000 ) ) ;
#8 = AXIS2_PLACEMENT_3D ( 'NONE', #316, #168, #353 ) ;
#9 = VERTEX_POINT ( 'NONE', #207 ) ;
#10 = DIRECTION ( 'NONE',  ( 1.000000000000000000, 0.000000000000000000, 0.000000000000000000 ) ) ;
#11 = ADVANCED_FACE ( 'NONE', ( #287, #320 ), #350, .T. ) ;
#12 = ORIENTED_EDGE ( 'NONE', *, *, #153, .T. ) ;
#13 = CARTESIAN_POINT ( 'NONE',  ( 0.000000000000000000, 0.000000000000000000, 0.000000000000000000 ) ) ;
#14 = VECTOR ( 'NONE', #187, 1000.000000000000000 ) ;
#15 = CYLINDRICAL_SURFACE ( 'NONE', #237, 2.100000000000000089 ) ;
#16 = ORIENTED_EDGE ( 'NONE', *, *, #188, .T. ) ;
#17 = CIRCLE ( 'NONE', #281, 4.000000000000000000 ) ;
#18 = DIRECTION ( 'NONE',  ( -1.000000000000000000, 0.000000000000000000, 0.000000000000000000 ) ) ;
#19 = EDGE_LOOP ( 'NONE', ( #330, #256, #282, #124 ) ) ;
#20 = FACE_BOUND ( 'NONE', #79, .T. ) ;
#21 = CIRCLE ( 'NONE', #80, 2.100000000000000089 ) ;
#22 = AXIS2_PLACEMENT_3D ( 'NONE', #126, #332, #253 ) ;
#23 = DIRECTION ( 'NONE',  ( 0.000000000000000000, 0.000000000000000000, 1.000000000000000000 ) ) ;
#24 = VERTEX_POINT ( 'NONE', #90 ) ;
#25 = DIRECTION ( 'NONE',  ( 0.000000000000000000, 0.000000000000000000, -1.000000000000000000 ) ) ;
#26 = EDGE_CURVE ( 'NONE', #227, #196, #175, .T. ) ;
#27 = LINE ( 'NONE', #56, #347 ) ;
#28 = CARTESIAN_POINT ( 'NONE',  ( 0.000000000000000000, 0.000000000000000000, 255.0000000000000000 ) ) ;
#29 = CIRCLE ( 'NONE', #318, 4.500000000000000888 ) ;
#30 = CC_DESIGN_PERSON_AND_ORGANIZATION_ASSIGNMENT ( #3, #265, ( #214 ) ) ;
#31 = DATE_AND_TIME ( #292, #200 ) ;
#32 = CARTESIAN_POINT ( 'NONE',  ( -4.500000000000000888, 5.510910596163089556E-16, 5.500000000000005329 ) ) ;
#33 = DATE_TIME_ROLE ( 'classification_date' ) ;
#34 = DIRECTION ( 'NONE',  ( 0.000000000000000000, 0.000000000000000000, 1.000000000000000000 ) ) ;
#35 = EDGE_LOOP ( 'NONE', ( #252, #194, #246, #336 ) ) ;
#36 = MECHANICAL_CONTEXT ( 'NONE', #137, 'mechanical' ) ;
#37 = CARTESIAN_POINT ( 'NONE',  ( 0.000000000000000000, 0.000000000000000000, 255.0000000000000000 ) ) ;
#38 = AXIS2_PLACEMENT_3D ( 'NONE', #74, #213, #364 ) ;
#39 = EDGE_LOOP ( 'NONE', ( #248, #185 ) ) ;
#40 = EDGE_CURVE ( 'NONE', #130, #209, #304, .T. ) ;
#41 = DIRECTION ( 'NONE',  ( 0.000000000000000000, 0.000000000000000000, -1.000000000000000000 ) ) ;
#42 = AXIS2_PLACEMENT_3D ( 'NONE', #236, #372, #286 ) ;
#43 = CARTESIAN_POINT ( 'NONE',  ( 0.000000000000000000, 0.000000000000000000, 5.000000000000000000 ) ) ;
#44 = CARTESIAN_POINT ( 'NONE',  ( -7.000000000000000000, 0.000000000000000000, 5.000000000000000000 ) ) ;
#45 = UNCERTAINTY_MEASURE_WITH_UNIT (LENGTH_MEASURE( 1.000000000000000082E-05 ), #341, 'distance_accuracy_value', 'NONE');
#46 = AXIS2_PLACEMENT_3D ( 'NONE', #371, #315, #224 ) ;
#47 = ORIENTED_EDGE ( 'NONE', *, *, #183, .F. ) ;
#48 = PERSON ( 'NEURÈENÝ', 'NEURÈENÝ', 'NEURÈENÝ', ('NEURÈENÝ'), ('NEURÈENÝ'), ('NEURÈENÝ') ) ;
#49 = EDGE_LOOP ( 'NONE', ( #298, #99, #342, #164 ) ) ;
#50 = AXIS2_PLACEMENT_3D ( 'NONE', #167, #206, #136 ) ;
#51 = ORIENTED_EDGE ( 'NONE', *, *, #115, .F. ) ;
#52 = FACE_OUTER_BOUND ( 'NONE', #109, .T. ) ;
#53 = ORIENTED_EDGE ( 'NONE', *, *, #153, .F. ) ;
#54 = FACE_OUTER_BOUND ( 'NONE', #49, .T. ) ;
#55 = EDGE_CURVE ( 'NONE', #250, #209, #27, .T. ) ;
#56 = CARTESIAN_POINT ( 'NONE',  ( -2.100000000000000089, 0.000000000000000000, 255.0000000000000000 ) ) ;
#57 = AXIS2_PLACEMENT_3D ( 'NONE', #43, #362, #18 ) ;
#58 = APPLICATION_PROTOCOL_DEFINITION ( 'international standard', 'config_control_design', 1994, #137 ) ;
#59 = DIRECTION ( 'NONE',  ( 1.000000000000000000, 0.000000000000000000, 0.000000000000000000 ) ) ;
#60 = COORDINATED_UNIVERSAL_TIME_OFFSET ( 1, 0, .AHEAD. ) ;
#61 = DIRECTION ( 'NONE',  ( 1.224646799147353207E-16, 1.000000000000000000, -0.000000000000000000 ) ) ;
#62 = PERSON_AND_ORGANIZATION ( #48, #193 ) ;
#63 = DIRECTION ( 'NONE',  ( 1.000000000000000000, 0.000000000000000000, 0.000000000000000000 ) ) ;
#64 = ADVANCED_FACE ( 'NONE', ( #170, #355 ), #143, .F. ) ;
#65 = APPROVAL_DATE_TIME ( #324, #352 ) ;
#66 = AXIS2_PLACEMENT_3D ( 'NONE', #13, #191, #96 ) ;
#67 = PRODUCT_DEFINITION_FORMATION_WITH_SPECIFIED_SOURCE ( 'LIBOVOLNÝ', '', #76, .NOT_KNOWN. ) ;
#68 = PERSON_AND_ORGANIZATION ( #48, #193 ) ;
#69 = EDGE_CURVE ( 'NONE', #24, #150, #273, .T. ) ;
#70 = EDGE_LOOP ( 'NONE', ( #107, #255 ) ) ;
#71 = DIRECTION ( 'NONE',  ( 0.000000000000000000, 0.000000000000000000, 1.000000000000000000 ) ) ;
#72 = CARTESIAN_POINT ( 'NONE',  ( 4.000000000000000000, 4.898587196589412829E-16, 255.0000000000000000 ) ) ;
#73 = DIRECTION ( 'NONE',  ( -0.000000000000000000, -0.000000000000000000, -1.000000000000000000 ) ) ;
#74 = CARTESIAN_POINT ( 'NONE',  ( 0.000000000000000000, 0.000000000000000000, 255.0000000000000000 ) ) ;
#75 = VERTEX_POINT ( 'NONE', #133 ) ;
#76 = PRODUCT ( '81f0', '81f0', '', ( #36 ) ) ;
#77 = FACE_OUTER_BOUND ( 'NONE', #70, .T. ) ;
#78 = CC_DESIGN_PERSON_AND_ORGANIZATION_ASSIGNMENT ( #116, #211, ( #381 ) ) ;
#79 = EDGE_LOOP ( 'NONE', ( #368, #264 ) ) ;
#80 = AXIS2_PLACEMENT_3D ( 'NONE', #221, #216, #102 ) ;
#81 = ORIENTED_EDGE ( 'NONE', *, *, #363, .T. ) ;
#82 = CIRCLE ( 'NONE', #343, 4.500000000000000888 ) ;
#83 = ORIENTED_EDGE ( 'NONE', *, *, #333, .F. ) ;
#84 = LINE ( 'NONE', #340, #119 ) ;
#85 = DATE_AND_TIME ( #2, #360 ) ;
#86 = DIRECTION ( 'NONE',  ( 0.000000000000000000, 0.000000000000000000, -1.000000000000000000 ) ) ;
#87 = ADVANCED_FACE ( 'NONE', ( #140 ), #325, .T. ) ;
#88 =( GEOMETRIC_REPRESENTATION_CONTEXT ( 3 ) GLOBAL_UNCERTAINTY_ASSIGNED_CONTEXT ( ( #45 ) ) GLOBAL_UNIT_ASSIGNED_CONTEXT ( ( #341, #108, #165 ) ) REPRESENTATION_CONTEXT ( 'NONE', 'WORKASPACE' ) );
#89 = DATE_AND_TIME ( #267, #258 ) ;
#90 = CARTESIAN_POINT ( 'NONE',  ( -4.000000000000000000, 0.000000000000000000, 5.500000000000005329 ) ) ;
#91 = APPROVAL_DATE_TIME ( #85, #123 ) ;
#92 = EDGE_CURVE ( 'NONE', #365, #1, #233, .T. ) ;
#93 = DATE_TIME_ROLE ( 'creation_date' ) ;
#94 = PERSON_AND_ORGANIZATION ( #48, #193 ) ;
#95 = APPROVAL ( #142, 'NEURÈENÝ' ) ;
#96 = DIRECTION ( 'NONE',  ( 1.000000000000000000, 0.000000000000000000, 0.000000000000000000 ) ) ;
#97 = CARTESIAN_POINT ( 'NONE',  ( -2.100000000000000089, 0.000000000000000000, 255.0000000000000000 ) ) ;
#98 = CIRCLE ( 'NONE', #284, 2.100000000000000089 ) ;
#99 = ORIENTED_EDGE ( 'NONE', *, *, #183, .T. ) ;
#100 = FACE_OUTER_BOUND ( 'NONE', #6, .T. ) ;
#101 = ORIENTED_EDGE ( 'NONE', *, *, #69, .F. ) ;
#102 = DIRECTION ( 'NONE',  ( 1.000000000000000000, 0.000000000000000000, 0.000000000000000000 ) ) ;
#103 = VECTOR ( 'NONE', #346, 1000.000000000000000 ) ;
#104 = EDGE_CURVE ( 'NONE', #339, #24, #17, .T. ) ;
#105 = EDGE_LOOP ( 'NONE', ( #314, #228, #121, #370 ) ) ;
#106 = PLANE ( 'NONE',  #50 ) ;
#107 = ORIENTED_EDGE ( 'NONE', *, *, #92, .T. ) ;
#108 =( NAMED_UNIT ( * ) PLANE_ANGLE_UNIT ( ) SI_UNIT ( $, .RADIAN. ) );
#109 = EDGE_LOOP ( 'NONE', ( #101, #285, #81, #53 ) ) ;
#110 = CARTESIAN_POINT ( 'NONE',  ( 2.100000000000000089, 2.571758278209441957E-16, 255.0000000000000000 ) ) ;
#111 = ADVANCED_FACE ( 'NONE', ( #376 ), #375, .F. ) ;
#112 = CIRCLE ( 'NONE', #242, 7.000000000000000000 ) ;
#113 = CYLINDRICAL_SURFACE ( 'NONE', #148, 4.000000000000000000 ) ;
#114 = CARTESIAN_POINT ( 'NONE',  ( 4.000000000000000000, 4.898587196589412829E-16, 255.0000000000000000 ) ) ;
#115 = EDGE_CURVE ( 'NONE', #209, #130, #21, .T. ) ;
#116 = PERSON_AND_ORGANIZATION ( #48, #193 ) ;
#117 = APPROVAL_ROLE ( '' ) ;
#118 = EDGE_CURVE ( 'NONE', #24, #339, #351, .T. ) ;
#119 = VECTOR ( 'NONE', #254, 1000.000000000000000 ) ;
#120 = LINE ( 'NONE', #358, #182 ) ;
#121 = ORIENTED_EDGE ( 'NONE', *, *, #160, .T. ) ;
#122 = CARTESIAN_POINT ( 'NONE',  ( 0.000000000000000000, 0.000000000000000000, 5.000000000000000000 ) ) ;
#123 = APPROVAL ( #269, 'NEURÈENÝ' ) ;
#124 = ORIENTED_EDGE ( 'NONE', *, *, #55, .F. ) ;
#125 = CYLINDRICAL_SURFACE ( 'NONE', #57, 7.000000000000000000 ) ;
#126 = CARTESIAN_POINT ( 'NONE',  ( 0.000000000000000000, 0.000000000000000000, 5.500000000000005329 ) ) ;
#127 = VERTEX_POINT ( 'NONE', #276 ) ;
#128 = EDGE_CURVE ( 'NONE', #196, #227, #156, .T. ) ;
#129 = CARTESIAN_POINT ( 'NONE',  ( 4.000000000000000000, 4.898587196589412829E-16, 5.500000000000005329 ) ) ;
#130 = VERTEX_POINT ( 'NONE', #308 ) ;
#131 = CARTESIAN_POINT ( 'NONE',  ( 0.000000000000000000, 0.000000000000000000, 0.000000000000000000 ) ) ;
#132 = CARTESIAN_POINT ( 'NONE',  ( 0.000000000000000000, 0.000000000000000000, 255.0000000000000000 ) ) ;
#133 = CARTESIAN_POINT ( 'NONE',  ( -7.000000000000000000, 0.000000000000000000, 0.000000000000000000 ) ) ;
#134 = DIRECTION ( 'NONE',  ( -0.000000000000000000, -0.000000000000000000, -1.000000000000000000 ) ) ;
#135 = EDGE_LOOP ( 'NONE', ( #51, #152 ) ) ;
#136 = DIRECTION ( 'NONE',  ( 1.000000000000000000, 0.000000000000000000, -0.000000000000000000 ) ) ;
#137 = APPLICATION_CONTEXT ( 'configuration controlled 3d designs of mechanical parts and assemblies' ) ;
#138 = DIRECTION ( 'NONE',  ( 1.000000000000000000, 0.000000000000000000, 0.000000000000000000 ) ) ;
#139 = PERSON_AND_ORGANIZATION ( #48, #193 ) ;
#140 = FACE_OUTER_BOUND ( 'NONE', #105, .T. ) ;
#141 = PRODUCT_RELATED_PRODUCT_CATEGORY ( 'detail', '', ( #76 ) ) ;
#142 = APPROVAL_STATUS ( 'not_yet_approved' ) ;
#143 = PLANE ( 'NONE',  #275 ) ;
#144 = CALENDAR_DATE ( 2022, 8, 7 ) ;
#145 = ORIENTED_EDGE ( 'NONE', *, *, #260, .T. ) ;
#146 = CARTESIAN_POINT ( 'NONE',  ( 0.000000000000000000, 0.000000000000000000, 0.000000000000000000 ) ) ;
#147 = ORIENTED_EDGE ( 'NONE', *, *, #283, .T. ) ;
#148 = AXIS2_PLACEMENT_3D ( 'NONE', #28, #134, #195 ) ;
#149 = APPROVAL_PERSON_ORGANIZATION ( #62, #123, #117 ) ;
#150 = VERTEX_POINT ( 'NONE', #251 ) ;
#151 = CARTESIAN_POINT ( 'NONE',  ( -4.000000000000000000, 0.000000000000000000, 255.0000000000000000 ) ) ;
#152 = ORIENTED_EDGE ( 'NONE', *, *, #40, .F. ) ;
#153 = EDGE_CURVE ( 'NONE', #150, #9, #82, .T. ) ;
#154 = DIRECTION ( 'NONE',  ( -1.000000000000000000, 0.000000000000000000, 0.000000000000000000 ) ) ;
#155 = DIRECTION ( 'NONE',  ( 0.000000000000000000, 0.000000000000000000, 1.000000000000000000 ) ) ;
#156 = CIRCLE ( 'NONE', #222, 7.000000000000000000 ) ;
#157 = ORIENTED_EDGE ( 'NONE', *, *, #160, .F. ) ;
#158 = CARTESIAN_POINT ( 'NONE',  ( 0.000000000000000000, 0.000000000000000000, 255.0000000000000000 ) ) ;
#159 = DESIGN_CONTEXT ( 'detailed design', #357, 'design' ) ;
#160 = EDGE_CURVE ( 'NONE', #227, #75, #120, .T. ) ;
#161 = ORIENTED_EDGE ( 'NONE', *, *, #128, .F. ) ;
#162 = AXIS2_PLACEMENT_3D ( 'NONE', #235, #205, #59 ) ;
#163 = CARTESIAN_POINT ( 'NONE',  ( 0.000000000000000000, 0.000000000000000000, 255.0000000000000000 ) ) ;
#164 = ORIENTED_EDGE ( 'NONE', *, *, #260, .F. ) ;
#165 =( NAMED_UNIT ( * ) SI_UNIT ( $, .STERADIAN. ) SOLID_ANGLE_UNIT ( ) );
#166 = ORIENTED_EDGE ( 'NONE', *, *, #333, .T. ) ;
#167 = CARTESIAN_POINT ( 'NONE',  ( 0.000000000000000000, 0.000000000000000000, 255.0000000000000000 ) ) ;
#168 = DIRECTION ( 'NONE',  ( -0.000000000000000000, -0.000000000000000000, -1.000000000000000000 ) ) ;
#169 = DIRECTION ( 'NONE',  ( 0.000000000000000000, 0.000000000000000000, -1.000000000000000000 ) ) ;
#170 = FACE_BOUND ( 'NONE', #135, .T. ) ;
#171 = COORDINATED_UNIVERSAL_TIME_OFFSET ( 1, 0, .AHEAD. ) ;
#172 = CARTESIAN_POINT ( 'NONE',  ( 0.000000000000000000, 0.000000000000000000, 5.000000000000000000 ) ) ;
#173 = CLOSED_SHELL ( 'NONE', ( #204, #111, #329, #208, #87, #11, #64, #231, #300, #338, #278 ) ) ;
#174 = COORDINATED_UNIVERSAL_TIME_OFFSET ( 1, 0, .AHEAD. ) ;
#175 = CIRCLE ( 'NONE', #162, 7.000000000000000000 ) ;
#176 = PERSON_AND_ORGANIZATION_ROLE ( 'creator' ) ;
#177 = CARTESIAN_POINT ( 'NONE',  ( 0.000000000000000000, 0.000000000000000000, 5.000000000000000000 ) ) ;
#178 = CC_DESIGN_SECURITY_CLASSIFICATION ( #381, ( #67 ) ) ;
#179 = PERSON_AND_ORGANIZATION ( #48, #193 ) ;
#180 = PERSON_AND_ORGANIZATION_ROLE ( 'design_owner' ) ;
#181 = ORIENTED_EDGE ( 'NONE', *, *, #55, .T. ) ;
#182 = VECTOR ( 'NONE', #245, 1000.000000000000000 ) ;
#183 = EDGE_CURVE ( 'NONE', #1, #339, #280, .T. ) ;
#184 = DIRECTION ( 'NONE',  ( 1.000000000000000000, 0.000000000000000000, 0.000000000000000000 ) ) ;
#185 = ORIENTED_EDGE ( 'NONE', *, *, #128, .T. ) ;
#186 = AXIS2_PLACEMENT_3D ( 'NONE', #172, #294, #232 ) ;
#187 = DIRECTION ( 'NONE',  ( -0.000000000000000000, -0.000000000000000000, -1.000000000000000000 ) ) ;
#188 = EDGE_CURVE ( 'NONE', #9, #150, #29, .T. ) ;
#189 = FACE_OUTER_BOUND ( 'NONE', #19, .T. ) ;
#190 = EDGE_LOOP ( 'NONE', ( #161, #147, #166, #157 ) ) ;
#191 = DIRECTION ( 'NONE',  ( 0.000000000000000000, 0.000000000000000000, 1.000000000000000000 ) ) ;
#192 = EDGE_CURVE ( 'NONE', #1, #365, #5, .T. ) ;
#193 = ORGANIZATION ( 'NEURÈENÝ', 'NEURÈENÝ', '' ) ;
#194 = ORIENTED_EDGE ( 'NONE', *, *, #69, .T. ) ;
#195 = DIRECTION ( 'NONE',  ( -1.000000000000000000, 0.000000000000000000, 0.000000000000000000 ) ) ;
#196 = VERTEX_POINT ( 'NONE', #247 ) ;
#197 = AXIS2_PLACEMENT_3D ( 'NONE', #334, #155, #302 ) ;
#198 = DIRECTION ( 'NONE',  ( 0.000000000000000000, 0.000000000000000000, 1.000000000000000000 ) ) ;
#199 = ORIENTED_EDGE ( 'NONE', *, *, #226, .F. ) ;
#200 = LOCAL_TIME ( 17, 27, 39.00000000000000000, #174 ) ;
#201 = ORIENTED_EDGE ( 'NONE', *, *, #92, .F. ) ;
#202 = CC_DESIGN_PERSON_AND_ORGANIZATION_ASSIGNMENT ( #68, #180, ( #76 ) ) ;
#203 = CYLINDRICAL_SURFACE ( 'NONE', #215, 2.100000000000000089 ) ;
#204 = ADVANCED_FACE ( 'NONE', ( #189 ), #15, .F. ) ;
#205 = DIRECTION ( 'NONE',  ( 0.000000000000000000, 0.000000000000000000, 1.000000000000000000 ) ) ;
#206 = DIRECTION ( 'NONE',  ( 0.000000000000000000, 0.000000000000000000, 1.000000000000000000 ) ) ;
#207 = CARTESIAN_POINT ( 'NONE',  ( 4.500000000000000888, 0.000000000000000000, 5.000000000000002665 ) ) ;
#208 = ADVANCED_FACE ( 'NONE', ( #277 ), #125, .T. ) ;
#209 = VERTEX_POINT ( 'NONE', #306 ) ;
#210 = CARTESIAN_POINT ( 'NONE',  ( 0.000000000000000000, 0.000000000000000000, 0.000000000000000000 ) ) ;
#211 = PERSON_AND_ORGANIZATION_ROLE ( 'classification_officer' ) ;
#212 = MANIFOLD_SOLID_BREP ( 'Odebrat vysunutím3', #173 ) ;
#213 = DIRECTION ( 'NONE',  ( -0.000000000000000000, -0.000000000000000000, -1.000000000000000000 ) ) ;
#214 = PRODUCT_DEFINITION ( 'NEZNÁMÝ', '', #67, #159 ) ;
#215 = AXIS2_PLACEMENT_3D ( 'NONE', #163, #25, #344 ) ;
#216 = DIRECTION ( 'NONE',  ( -0.000000000000000000, -0.000000000000000000, -1.000000000000000000 ) ) ;
#217 = ADVANCED_BREP_SHAPE_REPRESENTATION ( '81f0', ( #212, #345 ), #88 ) ;
#218 = DIRECTION ( 'NONE',  ( -0.000000000000000000, -0.000000000000000000, -1.000000000000000000 ) ) ;
#219 = EDGE_LOOP ( 'NONE', ( #16, #12 ) ) ;
#220 = CYLINDRICAL_SURFACE ( 'NONE', #38, 4.000000000000000000 ) ;
#221 = CARTESIAN_POINT ( 'NONE',  ( 0.000000000000000000, 0.000000000000000000, 0.000000000000000000 ) ) ;
#222 = AXIS2_PLACEMENT_3D ( 'NONE', #272, #361, #63 ) ;
#223 = ORIENTED_EDGE ( 'NONE', *, *, #118, .T. ) ;
#224 = DIRECTION ( 'NONE',  ( 1.000000000000000000, 0.000000000000000000, 0.000000000000000000 ) ) ;
#225 = DIRECTION ( 'NONE',  ( 0.000000000000000000, -1.000000000000000000, 0.000000000000000000 ) ) ;
#226 = EDGE_CURVE ( 'NONE', #75, #127, #380, .T. ) ;
#227 = VERTEX_POINT ( 'NONE', #44 ) ;
#228 = ORIENTED_EDGE ( 'NONE', *, *, #26, .F. ) ;
#229 = PRODUCT_DEFINITION_SHAPE ( 'NONE', 'NONE',  #214 ) ;
#230 = CARTESIAN_POINT ( 'NONE',  ( 4.500000000000000888, 0.000000000000000000, 5.500000000000005329 ) ) ;
#231 = ADVANCED_FACE ( 'NONE', ( #100 ), #220, .T. ) ;
#232 = DIRECTION ( 'NONE',  ( -1.000000000000000000, 0.000000000000000000, 0.000000000000000000 ) ) ;
#233 = CIRCLE ( 'NONE', #322, 4.000000000000000000 ) ;
#234 = EDGE_CURVE ( 'NONE', #356, #250, #98, .T. ) ;
#235 = CARTESIAN_POINT ( 'NONE',  ( 0.000000000000000000, 0.000000000000000000, 5.000000000000000000 ) ) ;
#236 = CARTESIAN_POINT ( 'NONE',  ( 0.000000000000000000, 0.000000000000000000, 5.000000000000000000 ) ) ;
#237 = AXIS2_PLACEMENT_3D ( 'NONE', #37, #41, #154 ) ;
#238 = CC_DESIGN_APPROVAL ( #352, ( #381 ) ) ;
#239 = APPLICATION_PROTOCOL_DEFINITION ( 'international standard', 'config_control_design', 1994, #357 ) ;
#240 = DIRECTION ( 'NONE',  ( 1.000000000000000000, 0.000000000000000000, 0.000000000000000000 ) ) ;
#241 = APPROVAL_STATUS ( 'not_yet_approved' ) ;
#242 = AXIS2_PLACEMENT_3D ( 'NONE', #131, #198, #369 ) ;
#243 = CC_DESIGN_APPROVAL ( #123, ( #67 ) ) ;
#244 = CC_DESIGN_DATE_AND_TIME_ASSIGNMENT ( #31, #33, ( #381 ) ) ;
#245 = DIRECTION ( 'NONE',  ( -0.000000000000000000, -0.000000000000000000, -1.000000000000000000 ) ) ;
#246 = ORIENTED_EDGE ( 'NONE', *, *, #188, .F. ) ;
#247 = CARTESIAN_POINT ( 'NONE',  ( 7.000000000000000000, 8.572527594031473190E-16, 5.000000000000000000 ) ) ;
#248 = ORIENTED_EDGE ( 'NONE', *, *, #26, .T. ) ;
#249 = LOCAL_TIME ( 17, 27, 39.00000000000000000, #60 ) ;
#250 = VERTEX_POINT ( 'NONE', #97 ) ;
#251 = CARTESIAN_POINT ( 'NONE',  ( -4.500000000000000888, 5.510910596163088569E-16, 5.000000000000002665 ) ) ;
#252 = ORIENTED_EDGE ( 'NONE', *, *, #118, .F. ) ;
#253 = DIRECTION ( 'NONE',  ( 1.000000000000000000, 0.000000000000000000, 0.000000000000000000 ) ) ;
#254 = DIRECTION ( 'NONE',  ( 0.000000000000000000, 0.000000000000000000, -1.000000000000000000 ) ) ;
#255 = ORIENTED_EDGE ( 'NONE', *, *, #192, .T. ) ;
#256 = ORIENTED_EDGE ( 'NONE', *, *, #373, .T. ) ;
#257 = AXIS2_PLACEMENT_3D ( 'NONE', #230, #225, #169 ) ;
#258 = LOCAL_TIME ( 17, 27, 39.00000000000000000, #171 ) ;
#259 = DIRECTION ( 'NONE',  ( 1.000000000000000000, 0.000000000000000000, -0.000000000000000000 ) ) ;
#260 = EDGE_CURVE ( 'NONE', #365, #24, #335, .T. ) ;
#261 = DIRECTION ( 'NONE',  ( 1.000000000000000000, 0.000000000000000000, 0.000000000000000000 ) ) ;
#262 = DIRECTION ( 'NONE',  ( 0.000000000000000000, 0.000000000000000000, 1.000000000000000000 ) ) ;
#263 = APPROVAL_ROLE ( '' ) ;
#264 = ORIENTED_EDGE ( 'NONE', *, *, #234, .F. ) ;
#265 = PERSON_AND_ORGANIZATION_ROLE ( 'creator' ) ;
#266 = ORIENTED_EDGE ( 'NONE', *, *, #234, .T. ) ;
#267 = CALENDAR_DATE ( 2022, 8, 7 ) ;
#268 = DIRECTION ( 'NONE',  ( 0.000000000000000000, 0.000000000000000000, 1.000000000000000000 ) ) ;
#269 = APPROVAL_STATUS ( 'not_yet_approved' ) ;
#270 = CC_DESIGN_DATE_AND_TIME_ASSIGNMENT ( #354, #93, ( #214 ) ) ;
#271 = VECTOR ( 'NONE', #274, 1000.000000000000000 ) ;
#272 = CARTESIAN_POINT ( 'NONE',  ( 0.000000000000000000, 0.000000000000000000, 5.000000000000000000 ) ) ;
#273 = CIRCLE ( 'NONE', #310, 0.5000000000000004441 ) ;
#274 = DIRECTION ( 'NONE',  ( -0.000000000000000000, -0.000000000000000000, -1.000000000000000000 ) ) ;
#275 = AXIS2_PLACEMENT_3D ( 'NONE', #210, #293, #259 ) ;
#276 = CARTESIAN_POINT ( 'NONE',  ( 7.000000000000000000, 8.572527594031473190E-16, 0.000000000000000000 ) ) ;
#277 = FACE_OUTER_BOUND ( 'NONE', #190, .T. ) ;
#278 = ADVANCED_FACE ( 'NONE', ( #312 ), #203, .F. ) ;
#279 = ORIENTED_EDGE ( 'NONE', *, *, #373, .F. ) ;
#280 = LINE ( 'NONE', #72, #14 ) ;
#281 = AXIS2_PLACEMENT_3D ( 'NONE', #348, #262, #240 ) ;
#282 = ORIENTED_EDGE ( 'NONE', *, *, #40, .T. ) ;
#283 = EDGE_CURVE ( 'NONE', #196, #127, #337, .T. ) ;
#284 = AXIS2_PLACEMENT_3D ( 'NONE', #331, #71, #184 ) ;
#285 = ORIENTED_EDGE ( 'NONE', *, *, #104, .F. ) ;
#286 = DIRECTION ( 'NONE',  ( 1.000000000000000000, 0.000000000000000000, -0.000000000000000000 ) ) ;
#287 = FACE_BOUND ( 'NONE', #219, .T. ) ;
#288 = CARTESIAN_POINT ( 'NONE',  ( -4.000000000000000000, 0.000000000000000000, 255.0000000000000000 ) ) ;
#289 = AXIS2_PLACEMENT_3D ( 'NONE', #158, #7, #305 ) ;
#290 = APPROVAL_PERSON_ORGANIZATION ( #139, #352, #263 ) ;
#291 = CARTESIAN_POINT ( 'NONE',  ( 0.000000000000000000, 0.000000000000000000, 255.0000000000000000 ) ) ;
#292 = CALENDAR_DATE ( 2022, 8, 7 ) ;
#293 = DIRECTION ( 'NONE',  ( 0.000000000000000000, 0.000000000000000000, 1.000000000000000000 ) ) ;
#294 = DIRECTION ( 'NONE',  ( -0.000000000000000000, -0.000000000000000000, -1.000000000000000000 ) ) ;
#295 = APPROVAL_ROLE ( '' ) ;
#296 = AXIS2_PLACEMENT_3D ( 'NONE', #132, #23, #261 ) ;
#297 = SHAPE_DEFINITION_REPRESENTATION ( #229, #217 ) ;
#298 = ORIENTED_EDGE ( 'NONE', *, *, #192, .F. ) ;
#299 = SECURITY_CLASSIFICATION_LEVEL ( 'unclassified' ) ;
#300 = ADVANCED_FACE ( 'NONE', ( #20, #77 ), #106, .T. ) ;
#301 = EDGE_CURVE ( 'NONE', #250, #356, #313, .T. ) ;
#302 = DIRECTION ( 'NONE',  ( 1.000000000000000000, 0.000000000000000000, 0.000000000000000000 ) ) ;
#303 = ORIENTED_EDGE ( 'NONE', *, *, #115, .T. ) ;
#304 = CIRCLE ( 'NONE', #8, 2.100000000000000089 ) ;
#305 = DIRECTION ( 'NONE',  ( 1.000000000000000000, 0.000000000000000000, 0.000000000000000000 ) ) ;
#306 = CARTESIAN_POINT ( 'NONE',  ( -2.100000000000000089, 0.000000000000000000, 0.000000000000000000 ) ) ;
#307 = EDGE_LOOP ( 'NONE', ( #279, #266, #181, #303 ) ) ;
#308 = CARTESIAN_POINT ( 'NONE',  ( 2.100000000000000089, 2.571758278209441957E-16, 0.000000000000000000 ) ) ;
#309 = EDGE_LOOP ( 'NONE', ( #199, #83 ) ) ;
#310 = AXIS2_PLACEMENT_3D ( 'NONE', #32, #61, #323 ) ;
#311 = CC_DESIGN_PERSON_AND_ORGANIZATION_ASSIGNMENT ( #179, #317, ( #67 ) ) ;
#312 = FACE_OUTER_BOUND ( 'NONE', #307, .T. ) ;
#313 = CIRCLE ( 'NONE', #296, 2.100000000000000089 ) ;
#314 = ORIENTED_EDGE ( 'NONE', *, *, #283, .F. ) ;
#315 = DIRECTION ( 'NONE',  ( 0.000000000000000000, 0.000000000000000000, 1.000000000000000000 ) ) ;
#316 = CARTESIAN_POINT ( 'NONE',  ( 0.000000000000000000, 0.000000000000000000, 0.000000000000000000 ) ) ;
#317 = PERSON_AND_ORGANIZATION_ROLE ( 'design_supplier' ) ;
#318 = AXIS2_PLACEMENT_3D ( 'NONE', #177, #218, #359 ) ;
#319 = LOCAL_TIME ( 17, 27, 39.00000000000000000, #378 ) ;
#320 = FACE_OUTER_BOUND ( 'NONE', #39, .T. ) ;
#321 = APPROVAL_DATE_TIME ( #89, #95 ) ;
#322 = AXIS2_PLACEMENT_3D ( 'NONE', #291, #34, #138 ) ;
#323 = DIRECTION ( 'NONE',  ( -1.000000000000000000, 1.224646799147351482E-16, 0.000000000000000000 ) ) ;
#324 = DATE_AND_TIME ( #326, #319 ) ;
#325 = CYLINDRICAL_SURFACE ( 'NONE', #186, 7.000000000000000000 ) ;
#326 = CALENDAR_DATE ( 2022, 8, 7 ) ;
#327 = TOROIDAL_SURFACE ( 'NONE', #46, 4.500000000000000888, 0.5000000000000000000 ) ;
#328 = APPROVAL_PERSON_ORGANIZATION ( #379, #95, #295 ) ;
#329 = ADVANCED_FACE ( 'NONE', ( #54 ), #113, .T. ) ;
#330 = ORIENTED_EDGE ( 'NONE', *, *, #301, .T. ) ;
#331 = CARTESIAN_POINT ( 'NONE',  ( 0.000000000000000000, 0.000000000000000000, 255.0000000000000000 ) ) ;
#332 = DIRECTION ( 'NONE',  ( 0.000000000000000000, 0.000000000000000000, 1.000000000000000000 ) ) ;
#333 = EDGE_CURVE ( 'NONE', #127, #75, #112, .T. ) ;
#334 = CARTESIAN_POINT ( 'NONE',  ( 0.000000000000000000, 0.000000000000000000, 5.500000000000005329 ) ) ;
#335 = LINE ( 'NONE', #151, #271 ) ;
#336 = ORIENTED_EDGE ( 'NONE', *, *, #363, .F. ) ;
#337 = LINE ( 'NONE', #374, #103 ) ;
#338 = ADVANCED_FACE ( 'NONE', ( #52 ), #327, .F. ) ;
#339 = VERTEX_POINT ( 'NONE', #129 ) ;
#340 = CARTESIAN_POINT ( 'NONE',  ( 2.100000000000000089, 2.571758278209441957E-16, 255.0000000000000000 ) ) ;
#341 =( LENGTH_UNIT ( ) NAMED_UNIT ( * ) SI_UNIT ( .MILLI., .METRE. ) );
#342 = ORIENTED_EDGE ( 'NONE', *, *, #104, .T. ) ;
#343 = AXIS2_PLACEMENT_3D ( 'NONE', #122, #73, #10 ) ;
#344 = DIRECTION ( 'NONE',  ( -1.000000000000000000, 0.000000000000000000, 0.000000000000000000 ) ) ;
#345 = AXIS2_PLACEMENT_3D ( 'NONE', #146, #268, #4 ) ;
#346 = DIRECTION ( 'NONE',  ( -0.000000000000000000, -0.000000000000000000, -1.000000000000000000 ) ) ;
#347 = VECTOR ( 'NONE', #86, 1000.000000000000000 ) ;
#348 = CARTESIAN_POINT ( 'NONE',  ( 0.000000000000000000, 0.000000000000000000, 5.500000000000005329 ) ) ;
#349 = COORDINATED_UNIVERSAL_TIME_OFFSET ( 1, 0, .AHEAD. ) ;
#350 = PLANE ( 'NONE',  #42 ) ;
#351 = CIRCLE ( 'NONE', #22, 4.000000000000000000 ) ;
#352 = APPROVAL ( #241, 'NEURÈENÝ' ) ;
#353 = DIRECTION ( 'NONE',  ( 1.000000000000000000, 0.000000000000000000, 0.000000000000000000 ) ) ;
#354 = DATE_AND_TIME ( #144, #249 ) ;
#355 = FACE_OUTER_BOUND ( 'NONE', #309, .T. ) ;
#356 = VERTEX_POINT ( 'NONE', #110 ) ;
#357 = APPLICATION_CONTEXT ( 'configuration controlled 3d designs of mechanical parts and assemblies' ) ;
#358 = CARTESIAN_POINT ( 'NONE',  ( -7.000000000000000000, 0.000000000000000000, 5.000000000000000000 ) ) ;
#359 = DIRECTION ( 'NONE',  ( 1.000000000000000000, 0.000000000000000000, 0.000000000000000000 ) ) ;
#360 = LOCAL_TIME ( 17, 27, 39.00000000000000000, #349 ) ;
#361 = DIRECTION ( 'NONE',  ( 0.000000000000000000, 0.000000000000000000, 1.000000000000000000 ) ) ;
#362 = DIRECTION ( 'NONE',  ( -0.000000000000000000, -0.000000000000000000, -1.000000000000000000 ) ) ;
#363 = EDGE_CURVE ( 'NONE', #339, #9, #366, .T. ) ;
#364 = DIRECTION ( 'NONE',  ( -1.000000000000000000, 0.000000000000000000, 0.000000000000000000 ) ) ;
#365 = VERTEX_POINT ( 'NONE', #288 ) ;
#366 = CIRCLE ( 'NONE', #257, 0.5000000000000004441 ) ;
#367 = CC_DESIGN_APPROVAL ( #95, ( #214 ) ) ;
#368 = ORIENTED_EDGE ( 'NONE', *, *, #301, .F. ) ;
#369 = DIRECTION ( 'NONE',  ( 1.000000000000000000, 0.000000000000000000, 0.000000000000000000 ) ) ;
#370 = ORIENTED_EDGE ( 'NONE', *, *, #226, .T. ) ;
#371 = CARTESIAN_POINT ( 'NONE',  ( 0.000000000000000000, 0.000000000000000000, 5.500000000000005329 ) ) ;
#372 = DIRECTION ( 'NONE',  ( 0.000000000000000000, 0.000000000000000000, 1.000000000000000000 ) ) ;
#373 = EDGE_CURVE ( 'NONE', #356, #130, #84, .T. ) ;
#374 = CARTESIAN_POINT ( 'NONE',  ( 7.000000000000000000, 8.572527594031473190E-16, 5.000000000000000000 ) ) ;
#375 = TOROIDAL_SURFACE ( 'NONE', #197, 4.500000000000000888, 0.5000000000000000000 ) ;
#376 = FACE_OUTER_BOUND ( 'NONE', #35, .T. ) ;
#377 = CC_DESIGN_PERSON_AND_ORGANIZATION_ASSIGNMENT ( #94, #176, ( #67 ) ) ;
#378 = COORDINATED_UNIVERSAL_TIME_OFFSET ( 1, 0, .AHEAD. ) ;
#379 = PERSON_AND_ORGANIZATION ( #48, #193 ) ;
#380 = CIRCLE ( 'NONE', #66, 7.000000000000000000 ) ;
#381 = SECURITY_CLASSIFICATION ( '', '', #299 ) ;
ENDSEC;
END-ISO-10303-21;
