ISO-10303-21;
HEADER;
FILE_DESCRIPTION (( 'STEP AP203' ),
    '1' );
FILE_NAME ('7a62.STEP',
    '2022-07-08T15:51:46',
    ( '' ),
    ( '' ),
    'SwSTEP 2.0',
    'SolidWorks 2019',
    '' );
FILE_SCHEMA (( 'CONFIG_CONTROL_DESIGN' ));
ENDSEC;

DATA;
#1 = EDGE_LOOP ( 'NONE', ( #123, #172, #44, #87 ) ) ;
#2 = DIRECTION ( 'NONE',  ( 0.000000000000000000, 0.000000000000000000, 1.000000000000000000 ) ) ;
#3 = DIRECTION ( 'NONE',  ( 0.000000000000000000, 0.000000000000000000, 1.000000000000000000 ) ) ;
#4 = APPLICATION_CONTEXT ( 'configuration controlled 3d designs of mechanical parts and assemblies' ) ;
#5 = ORIENTED_EDGE ( 'NONE', *, *, #148, .F. ) ;
#6 = CARTESIAN_POINT ( 'NONE',  ( 0.000000000000000000, 0.000000000000000000, 0.000000000000000000 ) ) ;
#7 = CIRCLE ( 'NONE', #132, 0.2999999999999999334 ) ;
#8 = CC_DESIGN_APPROVAL ( #335, ( #295 ) ) ;
#9 = CARTESIAN_POINT ( 'NONE',  ( 0.000000000000000000, 0.000000000000000000, 303.0000000000000000 ) ) ;
#10 = DATE_AND_TIME ( #274, #380 ) ;
#11 = ORIENTED_EDGE ( 'NONE', *, *, #306, .T. ) ;
#12 = COORDINATED_UNIVERSAL_TIME_OFFSET ( 1, 0, .AHEAD. ) ;
#13 = PERSON_AND_ORGANIZATION ( #19, #262 ) ;
#14 = VECTOR ( 'NONE', #350, 1000.000000000000000 ) ;
#15 = PLANE ( 'NONE',  #361 ) ;
#16 = CIRCLE ( 'NONE', #227, 2.500000000000000000 ) ;
#17 = APPROVAL_ROLE ( '' ) ;
#18 = DIRECTION ( 'NONE',  ( -1.000000000000000000, 0.000000000000000000, 0.000000000000000000 ) ) ;
#19 = PERSON ( 'NEURÈENÝ', 'NEURÈENÝ', 'NEURÈENÝ', ('NEURÈENÝ'), ('NEURÈENÝ'), ('NEURÈENÝ') ) ;
#20 = DATE_AND_TIME ( #49, #137 ) ;
#21 = DIRECTION ( 'NONE',  ( 1.000000000000000000, 0.000000000000000000, -0.000000000000000000 ) ) ;
#22 = EDGE_CURVE ( 'NONE', #334, #305, #171, .T. ) ;
#23 = AXIS2_PLACEMENT_3D ( 'NONE', #142, #91, #358 ) ;
#24 = APPROVAL_PERSON_ORGANIZATION ( #152, #335, #17 ) ;
#25 = CARTESIAN_POINT ( 'NONE',  ( 1.000000000000000000, 1.224646799147353207E-16, 303.0000000000000000 ) ) ;
#26 = PRODUCT ( '7a62', '7a62', '', ( #245 ) ) ;
#27 = AXIS2_PLACEMENT_3D ( 'NONE', #151, #158, #271 ) ;
#28 = CARTESIAN_POINT ( 'NONE',  ( -1.000000000000000000, 0.000000000000000000, 303.0000000000000000 ) ) ;
#29 = VERTEX_POINT ( 'NONE', #35 ) ;
#30 = CARTESIAN_POINT ( 'NONE',  ( 5.000000000000000000, 6.123233995736766282E-16, 0.000000000000000000 ) ) ;
#31 = EDGE_CURVE ( 'NONE', #29, #231, #101, .T. ) ;
#32 = ORIENTED_EDGE ( 'NONE', *, *, #31, .F. ) ;
#33 = AXIS2_PLACEMENT_3D ( 'NONE', #315, #286, #53 ) ;
#34 = FACE_OUTER_BOUND ( 'NONE', #153, .T. ) ;
#35 = CARTESIAN_POINT ( 'NONE',  ( 2.500000000000000000, 3.061616997868383141E-16, 303.0000000000000000 ) ) ;
#36 = CARTESIAN_POINT ( 'NONE',  ( 2.500000000000000000, 3.061616997868383141E-16, 3.300000000000025135 ) ) ;
#37 = EDGE_LOOP ( 'NONE', ( #318, #329 ) ) ;
#38 = APPROVAL ( #272, 'NEURÈENÝ' ) ;
#39 = PERSON_AND_ORGANIZATION_ROLE ( 'creator' ) ;
#40 = ORIENTED_EDGE ( 'NONE', *, *, #290, .F. ) ;
#41 = PERSON_AND_ORGANIZATION ( #19, #262 ) ;
#42 = AXIS2_PLACEMENT_3D ( 'NONE', #230, #138, #164 ) ;
#43 = DIRECTION ( 'NONE',  ( -0.000000000000000000, -0.000000000000000000, -1.000000000000000000 ) ) ;
#44 = ORIENTED_EDGE ( 'NONE', *, *, #312, .T. ) ;
#45 = PERSON_AND_ORGANIZATION ( #19, #262 ) ;
#46 = DIRECTION ( 'NONE',  ( 1.000000000000000000, 0.000000000000000000, -0.000000000000000000 ) ) ;
#47 = CARTESIAN_POINT ( 'NONE',  ( 0.000000000000000000, 0.000000000000000000, 3.300000000000025135 ) ) ;
#48 = CIRCLE ( 'NONE', #106, 1.000000000000000000 ) ;
#49 = CALENDAR_DATE ( 2022, 8, 7 ) ;
#50 = FACE_OUTER_BOUND ( 'NONE', #377, .T. ) ;
#51 = EDGE_CURVE ( 'NONE', #219, #233, #364, .T. ) ;
#52 = CARTESIAN_POINT ( 'NONE',  ( 0.000000000000000000, 0.000000000000000000, 303.0000000000000000 ) ) ;
#53 = DIRECTION ( 'NONE',  ( 1.000000000000000000, 0.000000000000000000, 0.000000000000000000 ) ) ;
#54 = LOCAL_TIME ( 17, 51, 46.00000000000000000, #365 ) ;
#55 = ADVANCED_FACE ( 'NONE', ( #275 ), #121, .F. ) ;
#56 = ORIENTED_EDGE ( 'NONE', *, *, #290, .T. ) ;
#57 = ORIENTED_EDGE ( 'NONE', *, *, #306, .F. ) ;
#58 = ORIENTED_EDGE ( 'NONE', *, *, #156, .T. ) ;
#59 = VECTOR ( 'NONE', #199, 1000.000000000000000 ) ;
#60 = CIRCLE ( 'NONE', #374, 1.000000000000000000 ) ;
#61 = CARTESIAN_POINT ( 'NONE',  ( 0.000000000000000000, 0.000000000000000000, 3.000000000000000000 ) ) ;
#62 = PRODUCT_RELATED_PRODUCT_CATEGORY ( 'detail', '', ( #26 ) ) ;
#63 = CYLINDRICAL_SURFACE ( 'NONE', #323, 1.000000000000000000 ) ;
#64 = DIRECTION ( 'NONE',  ( 0.000000000000000000, 0.000000000000000000, 1.000000000000000000 ) ) ;
#65 = ORIENTED_EDGE ( 'NONE', *, *, #215, .T. ) ;
#66 = CIRCLE ( 'NONE', #196, 2.799999999999999822 ) ;
#67 = FACE_OUTER_BOUND ( 'NONE', #246, .T. ) ;
#68 = EDGE_CURVE ( 'NONE', #332, #278, #261, .T. ) ;
#69 = DIRECTION ( 'NONE',  ( 1.000000000000000000, 0.000000000000000000, 0.000000000000000000 ) ) ;
#70 = EDGE_LOOP ( 'NONE', ( #175, #116 ) ) ;
#71 =( NAMED_UNIT ( * ) SI_UNIT ( $, .STERADIAN. ) SOLID_ANGLE_UNIT ( ) );
#72 = DIRECTION ( 'NONE',  ( 0.000000000000000000, 0.000000000000000000, -1.000000000000000000 ) ) ;
#73 = SECURITY_CLASSIFICATION_LEVEL ( 'unclassified' ) ;
#74 = AXIS2_PLACEMENT_3D ( 'NONE', #89, #243, #113 ) ;
#75 = APPROVAL ( #257, 'NEURÈENÝ' ) ;
#76 = CARTESIAN_POINT ( 'NONE',  ( 0.000000000000000000, 0.000000000000000000, 303.0000000000000000 ) ) ;
#77 = DIRECTION ( 'NONE',  ( -1.000000000000000000, 1.224646799147353207E-16, 0.000000000000000000 ) ) ;
#78 = AXIS2_PLACEMENT_3D ( 'NONE', #61, #234, #69 ) ;
#79 = PLANE ( 'NONE',  #347 ) ;
#80 = AXIS2_PLACEMENT_3D ( 'NONE', #47, #188, #249 ) ;
#81 = LINE ( 'NONE', #339, #59 ) ;
#82 = DIRECTION ( 'NONE',  ( 1.000000000000000000, 0.000000000000000000, 0.000000000000000000 ) ) ;
#83 = EDGE_CURVE ( 'NONE', #278, #332, #304, .T. ) ;
#84 = ORIENTED_EDGE ( 'NONE', *, *, #348, .T. ) ;
#85 = CARTESIAN_POINT ( 'NONE',  ( 0.000000000000000000, 0.000000000000000000, 3.000000000000000000 ) ) ;
#86 = EDGE_CURVE ( 'NONE', #112, #241, #60, .T. ) ;
#87 = ORIENTED_EDGE ( 'NONE', *, *, #83, .T. ) ;
#88 = CIRCLE ( 'NONE', #259, 5.000000000000000000 ) ;
#89 = CARTESIAN_POINT ( 'NONE',  ( 0.000000000000000000, 0.000000000000000000, 3.300000000000025135 ) ) ;
#90 = ORIENTED_EDGE ( 'NONE', *, *, #191, .T. ) ;
#91 = DIRECTION ( 'NONE',  ( -0.000000000000000000, -0.000000000000000000, -1.000000000000000000 ) ) ;
#92 = CARTESIAN_POINT ( 'NONE',  ( -5.000000000000000000, 0.000000000000000000, 0.000000000000000000 ) ) ;
#93 = ORIENTED_EDGE ( 'NONE', *, *, #100, .T. ) ;
#94 = VECTOR ( 'NONE', #43, 1000.000000000000000 ) ;
#95 = CARTESIAN_POINT ( 'NONE',  ( 0.000000000000000000, 0.000000000000000000, 3.000000000000000000 ) ) ;
#96 = EDGE_LOOP ( 'NONE', ( #93, #308, #321, #244 ) ) ;
#97 = APPLICATION_CONTEXT ( 'configuration controlled 3d designs of mechanical parts and assemblies' ) ;
#98 = DIRECTION ( 'NONE',  ( 0.000000000000000000, 0.000000000000000000, 1.000000000000000000 ) ) ;
#99 = ORIENTED_EDGE ( 'NONE', *, *, #215, .F. ) ;
#100 = EDGE_CURVE ( 'NONE', #241, #112, #48, .T. ) ;
#101 = CIRCLE ( 'NONE', #146, 2.500000000000000000 ) ;
#102 = DIRECTION ( 'NONE',  ( 0.000000000000000000, 0.000000000000000000, 1.000000000000000000 ) ) ;
#103 =( LENGTH_UNIT ( ) NAMED_UNIT ( * ) SI_UNIT ( .MILLI., .METRE. ) );
#104 = DIRECTION ( 'NONE',  ( 0.000000000000000000, 0.000000000000000000, 1.000000000000000000 ) ) ;
#105 = DATE_TIME_ROLE ( 'creation_date' ) ;
#106 = AXIS2_PLACEMENT_3D ( 'NONE', #52, #287, #82 ) ;
#107 = CARTESIAN_POINT ( 'NONE',  ( 0.000000000000000000, 0.000000000000000000, 0.000000000000000000 ) ) ;
#108 = APPROVAL_PERSON_ORGANIZATION ( #247, #75, #195 ) ;
#109 = FACE_OUTER_BOUND ( 'NONE', #212, .T. ) ;
#110 = ADVANCED_FACE ( 'NONE', ( #130, #258 ), #15, .T. ) ;
#111 = TOROIDAL_SURFACE ( 'NONE', #203, 2.799999999999999822, 0.2999999999999999889 ) ;
#112 = VERTEX_POINT ( 'NONE', #313 ) ;
#113 = DIRECTION ( 'NONE',  ( 1.000000000000000000, 0.000000000000000000, 0.000000000000000000 ) ) ;
#114 = ADVANCED_FACE ( 'NONE', ( #223, #250 ), #165, .T. ) ;
#115 = DIRECTION ( 'NONE',  ( 1.000000000000000000, 0.000000000000000000, 0.000000000000000000 ) ) ;
#116 = ORIENTED_EDGE ( 'NONE', *, *, #166, .F. ) ;
#117 = CARTESIAN_POINT ( 'NONE',  ( 0.000000000000000000, 0.000000000000000000, 303.0000000000000000 ) ) ;
#118 = VERTEX_POINT ( 'NONE', #201 ) ;
#119 = ADVANCED_FACE ( 'NONE', ( #50 ), #368, .T. ) ;
#120 = DIRECTION ( 'NONE',  ( 0.000000000000000000, 0.000000000000000000, 1.000000000000000000 ) ) ;
#121 = CYLINDRICAL_SURFACE ( 'NONE', #202, 1.000000000000000000 ) ;
#122 = CARTESIAN_POINT ( 'NONE',  ( -2.500000000000000000, 0.000000000000000000, 303.0000000000000000 ) ) ;
#123 = ORIENTED_EDGE ( 'NONE', *, *, #277, .F. ) ;
#124 = CIRCLE ( 'NONE', #139, 5.000000000000000000 ) ;
#125 = TOROIDAL_SURFACE ( 'NONE', #80, 2.799999999999999822, 0.2999999999999999889 ) ;
#126 = ORIENTED_EDGE ( 'NONE', *, *, #183, .T. ) ;
#127 = CALENDAR_DATE ( 2022, 8, 7 ) ;
#128 = CC_DESIGN_PERSON_AND_ORGANIZATION_ASSIGNMENT ( #131, #184, ( #252 ) ) ;
#129 = PERSON_AND_ORGANIZATION_ROLE ( 'design_supplier' ) ;
#130 = FACE_BOUND ( 'NONE', #237, .T. ) ;
#131 = PERSON_AND_ORGANIZATION ( #19, #262 ) ;
#132 = AXIS2_PLACEMENT_3D ( 'NONE', #256, #254, #77 ) ;
#133 = DIRECTION ( 'NONE',  ( 1.000000000000000000, 0.000000000000000000, 0.000000000000000000 ) ) ;
#134 = ADVANCED_FACE ( 'NONE', ( #109 ), #135, .T. ) ;
#135 = CYLINDRICAL_SURFACE ( 'NONE', #42, 5.000000000000000000 ) ;
#136 = CIRCLE ( 'NONE', #33, 5.000000000000000000 ) ;
#137 = LOCAL_TIME ( 17, 51, 46.00000000000000000, #372 ) ;
#138 = DIRECTION ( 'NONE',  ( -0.000000000000000000, -0.000000000000000000, -1.000000000000000000 ) ) ;
#139 = AXIS2_PLACEMENT_3D ( 'NONE', #370, #221, #283 ) ;
#140 = UNCERTAINTY_MEASURE_WITH_UNIT (LENGTH_MEASURE( 1.000000000000000082E-05 ), #103, 'distance_accuracy_value', 'NONE');
#141 = CC_DESIGN_DATE_AND_TIME_ASSIGNMENT ( #253, #369, ( #252 ) ) ;
#142 = CARTESIAN_POINT ( 'NONE',  ( 0.000000000000000000, 0.000000000000000000, 303.0000000000000000 ) ) ;
#143 = DIRECTION ( 'NONE',  ( -1.000000000000000000, 0.000000000000000000, 0.000000000000000000 ) ) ;
#144 = EDGE_LOOP ( 'NONE', ( #185, #349, #170, #182 ) ) ;
#145 = CARTESIAN_POINT ( 'NONE',  ( -5.000000000000000000, 0.000000000000000000, 3.000000000000000000 ) ) ;
#146 = AXIS2_PLACEMENT_3D ( 'NONE', #9, #3, #301 ) ;
#147 = CARTESIAN_POINT ( 'NONE',  ( -2.500000000000000000, 0.000000000000000000, 3.300000000000025135 ) ) ;
#148 = EDGE_CURVE ( 'NONE', #219, #118, #136, .T. ) ;
#149 = EDGE_LOOP ( 'NONE', ( #210, #338 ) ) ;
#150 = MANIFOLD_SOLID_BREP ( 'Odebrat vysunutím3', #316 ) ;
#151 = CARTESIAN_POINT ( 'NONE',  ( 0.000000000000000000, 0.000000000000000000, 0.000000000000000000 ) ) ;
#152 = PERSON_AND_ORGANIZATION ( #19, #262 ) ;
#153 = EDGE_LOOP ( 'NONE', ( #32, #58, #297, #325 ) ) ;
#154 = CIRCLE ( 'NONE', #74, 2.500000000000000000 ) ;
#155 = CC_DESIGN_APPROVAL ( #75, ( #252 ) ) ;
#156 = EDGE_CURVE ( 'NONE', #29, #334, #311, .T. ) ;
#157 = COORDINATED_UNIVERSAL_TIME_OFFSET ( 1, 0, .AHEAD. ) ;
#158 = DIRECTION ( 'NONE',  ( -0.000000000000000000, -0.000000000000000000, -1.000000000000000000 ) ) ;
#159 = DIRECTION ( 'NONE',  ( 1.000000000000000000, 0.000000000000000000, 0.000000000000000000 ) ) ;
#160 = DIRECTION ( 'NONE',  ( -0.000000000000000000, -0.000000000000000000, -1.000000000000000000 ) ) ;
#161 = PERSON_AND_ORGANIZATION_ROLE ( 'design_owner' ) ;
#162 = APPROVAL_PERSON_ORGANIZATION ( #224, #38, #279 ) ;
#163 = DIRECTION ( 'NONE',  ( 1.000000000000000000, 0.000000000000000000, -0.000000000000000000 ) ) ;
#164 = DIRECTION ( 'NONE',  ( -1.000000000000000000, 0.000000000000000000, 0.000000000000000000 ) ) ;
#165 = PLANE ( 'NONE',  #232 ) ;
#166 = EDGE_CURVE ( 'NONE', #273, #233, #88, .T. ) ;
#167 = AXIS2_PLACEMENT_3D ( 'NONE', #375, #260, #18 ) ;
#168 = DIRECTION ( 'NONE',  ( 0.000000000000000000, 0.000000000000000000, 1.000000000000000000 ) ) ;
#169 = EDGE_LOOP ( 'NONE', ( #351, #177 ) ) ;
#170 = ORIENTED_EDGE ( 'NONE', *, *, #22, .T. ) ;
#171 = CIRCLE ( 'NONE', #206, 0.2999999999999999334 ) ;
#172 = ORIENTED_EDGE ( 'NONE', *, *, #86, .T. ) ;
#173 = DESIGN_CONTEXT ( 'detailed design', #97, 'design' ) ;
#174 = DIRECTION ( 'NONE',  ( 0.000000000000000000, 0.000000000000000000, -1.000000000000000000 ) ) ;
#175 = ORIENTED_EDGE ( 'NONE', *, *, #176, .F. ) ;
#176 = EDGE_CURVE ( 'NONE', #233, #273, #124, .T. ) ;
#177 = ORIENTED_EDGE ( 'NONE', *, *, #68, .F. ) ;
#178 = VECTOR ( 'NONE', #324, 1000.000000000000000 ) ;
#179 = CC_DESIGN_APPROVAL ( #38, ( #213 ) ) ;
#180 = DIRECTION ( 'NONE',  ( 0.000000000000000000, 0.000000000000000000, -1.000000000000000000 ) ) ;
#181 = CARTESIAN_POINT ( 'NONE',  ( 0.000000000000000000, 0.000000000000000000, 303.0000000000000000 ) ) ;
#182 = ORIENTED_EDGE ( 'NONE', *, *, #191, .F. ) ;
#183 = EDGE_CURVE ( 'NONE', #231, #356, #81, .T. ) ;
#184 = PERSON_AND_ORGANIZATION_ROLE ( 'classification_officer' ) ;
#185 = ORIENTED_EDGE ( 'NONE', *, *, #200, .F. ) ;
#186 = CIRCLE ( 'NONE', #322, 2.500000000000000000 ) ;
#187 = AXIS2_PLACEMENT_3D ( 'NONE', #6, #98, #159 ) ;
#188 = DIRECTION ( 'NONE',  ( 0.000000000000000000, 0.000000000000000000, 1.000000000000000000 ) ) ;
#189 = DIRECTION ( 'NONE',  ( 0.000000000000000000, 0.000000000000000000, -1.000000000000000000 ) ) ;
#190 = APPROVAL_DATE_TIME ( #10, #335 ) ;
#191 = EDGE_CURVE ( 'NONE', #292, #305, #66, .T. ) ;
#192 = PRODUCT_DEFINITION_SHAPE ( 'NONE', 'NONE',  #295 ) ;
#193 = DIRECTION ( 'NONE',  ( 1.000000000000000000, 0.000000000000000000, 0.000000000000000000 ) ) ;
#194 = FACE_BOUND ( 'NONE', #169, .T. ) ;
#195 = APPROVAL_ROLE ( '' ) ;
#196 = AXIS2_PLACEMENT_3D ( 'NONE', #225, #160, #133 ) ;
#197 = LOCAL_TIME ( 17, 51, 46.00000000000000000, #12 ) ;
#198 = CARTESIAN_POINT ( 'NONE',  ( 0.000000000000000000, 0.000000000000000000, 0.000000000000000000 ) ) ;
#199 = DIRECTION ( 'NONE',  ( -0.000000000000000000, -0.000000000000000000, -1.000000000000000000 ) ) ;
#200 = EDGE_CURVE ( 'NONE', #356, #292, #7, .T. ) ;
#201 = CARTESIAN_POINT ( 'NONE',  ( 5.000000000000000000, 6.123233995736766282E-16, 3.000000000000000000 ) ) ;
#202 = AXIS2_PLACEMENT_3D ( 'NONE', #181, #72, #359 ) ;
#203 = AXIS2_PLACEMENT_3D ( 'NONE', #205, #64, #296 ) ;
#204 = ORIENTED_EDGE ( 'NONE', *, *, #22, .F. ) ;
#205 = CARTESIAN_POINT ( 'NONE',  ( 0.000000000000000000, 0.000000000000000000, 3.300000000000025135 ) ) ;
#206 = AXIS2_PLACEMENT_3D ( 'NONE', #327, #303, #189 ) ;
#207 = CYLINDRICAL_SURFACE ( 'NONE', #337, 5.000000000000000000 ) ;
#208 = ADVANCED_FACE ( 'NONE', ( #194, #342 ), #79, .F. ) ;
#209 = DIRECTION ( 'NONE',  ( -0.000000000000000000, -0.000000000000000000, -1.000000000000000000 ) ) ;
#210 = ORIENTED_EDGE ( 'NONE', *, *, #100, .F. ) ;
#211 = DIRECTION ( 'NONE',  ( 1.000000000000000000, 0.000000000000000000, 0.000000000000000000 ) ) ;
#212 = EDGE_LOOP ( 'NONE', ( #99, #11, #379, #319 ) ) ;
#213 = PRODUCT_DEFINITION_FORMATION_WITH_SPECIFIED_SOURCE ( 'LIBOVOLNÝ', '', #26, .NOT_KNOWN. ) ;
#214 = CARTESIAN_POINT ( 'NONE',  ( 2.799999999999999822, 0.000000000000000000, 3.000000000000012434 ) ) ;
#215 = EDGE_CURVE ( 'NONE', #118, #219, #281, .T. ) ;
#216 = APPROVAL_DATE_TIME ( #362, #38 ) ;
#217 = ORIENTED_EDGE ( 'NONE', *, *, #200, .T. ) ;
#218 = APPLICATION_PROTOCOL_DEFINITION ( 'international standard', 'config_control_design', 1994, #4 ) ;
#219 = VERTEX_POINT ( 'NONE', #145 ) ;
#220 = LOCAL_TIME ( 17, 51, 46.00000000000000000, #157 ) ;
#221 = DIRECTION ( 'NONE',  ( 0.000000000000000000, 0.000000000000000000, 1.000000000000000000 ) ) ;
#222 = CC_DESIGN_PERSON_AND_ORGANIZATION_ASSIGNMENT ( #13, #341, ( #213 ) ) ;
#223 = FACE_BOUND ( 'NONE', #149, .T. ) ;
#224 = PERSON_AND_ORGANIZATION ( #19, #262 ) ;
#225 = CARTESIAN_POINT ( 'NONE',  ( 0.000000000000000000, 0.000000000000000000, 3.000000000000000000 ) ) ;
#226 = SHAPE_DEFINITION_REPRESENTATION ( #192, #330 ) ;
#227 = AXIS2_PLACEMENT_3D ( 'NONE', #238, #264, #115 ) ;
#228 = DIRECTION ( 'NONE',  ( -0.000000000000000000, -0.000000000000000000, -1.000000000000000000 ) ) ;
#229 = EDGE_CURVE ( 'NONE', #231, #29, #186, .T. ) ;
#230 = CARTESIAN_POINT ( 'NONE',  ( 0.000000000000000000, 0.000000000000000000, 3.000000000000000000 ) ) ;
#231 = VERTEX_POINT ( 'NONE', #122 ) ;
#232 = AXIS2_PLACEMENT_3D ( 'NONE', #344, #340, #46 ) ;
#233 = VERTEX_POINT ( 'NONE', #92 ) ;
#234 = DIRECTION ( 'NONE',  ( -0.000000000000000000, -0.000000000000000000, -1.000000000000000000 ) ) ;
#235 = VECTOR ( 'NONE', #373, 1000.000000000000000 ) ;
#236 = EDGE_CURVE ( 'NONE', #334, #356, #154, .T. ) ;
#237 = EDGE_LOOP ( 'NONE', ( #56, #90 ) ) ;
#238 = CARTESIAN_POINT ( 'NONE',  ( 0.000000000000000000, 0.000000000000000000, 3.300000000000025135 ) ) ;
#239 = ORIENTED_EDGE ( 'NONE', *, *, #176, .T. ) ;
#240 = CARTESIAN_POINT ( 'NONE',  ( -1.000000000000000000, 0.000000000000000000, 0.000000000000000000 ) ) ;
#241 = VERTEX_POINT ( 'NONE', #28 ) ;
#242 = ADVANCED_FACE ( 'NONE', ( #34 ), #360, .T. ) ;
#243 = DIRECTION ( 'NONE',  ( 0.000000000000000000, 0.000000000000000000, 1.000000000000000000 ) ) ;
#244 = ORIENTED_EDGE ( 'NONE', *, *, #312, .F. ) ;
#245 = MECHANICAL_CONTEXT ( 'NONE', #4, 'mechanical' ) ;
#246 = EDGE_LOOP ( 'NONE', ( #57, #5, #269, #239 ) ) ;
#247 = PERSON_AND_ORGANIZATION ( #19, #262 ) ;
#248 = CARTESIAN_POINT ( 'NONE',  ( -5.000000000000000000, 0.000000000000000000, 3.000000000000000000 ) ) ;
#249 = DIRECTION ( 'NONE',  ( 1.000000000000000000, 0.000000000000000000, 0.000000000000000000 ) ) ;
#250 = FACE_OUTER_BOUND ( 'NONE', #37, .T. ) ;
#251 = CIRCLE ( 'NONE', #78, 2.799999999999999822 ) ;
#252 = SECURITY_CLASSIFICATION ( '', '', #73 ) ;
#253 = DATE_AND_TIME ( #127, #220 ) ;
#254 = DIRECTION ( 'NONE',  ( 1.224646799147353207E-16, 1.000000000000000000, -0.000000000000000000 ) ) ;
#255 = COORDINATED_UNIVERSAL_TIME_OFFSET ( 1, 0, .AHEAD. ) ;
#256 = CARTESIAN_POINT ( 'NONE',  ( -2.799999999999999822, 3.429011037612588783E-16, 3.300000000000025135 ) ) ;
#257 = APPROVAL_STATUS ( 'not_yet_approved' ) ;
#258 = FACE_OUTER_BOUND ( 'NONE', #291, .T. ) ;
#259 = AXIS2_PLACEMENT_3D ( 'NONE', #107, #102, #280 ) ;
#260 = DIRECTION ( 'NONE',  ( -0.000000000000000000, -0.000000000000000000, -1.000000000000000000 ) ) ;
#261 = CIRCLE ( 'NONE', #27, 1.000000000000000000 ) ;
#262 = ORGANIZATION ( 'NEURÈENÝ', 'NEURÈENÝ', '' ) ;
#263 = CARTESIAN_POINT ( 'NONE',  ( -2.799999999999999822, 3.429011037612589276E-16, 3.000000000000012434 ) ) ;
#264 = DIRECTION ( 'NONE',  ( 0.000000000000000000, 0.000000000000000000, 1.000000000000000000 ) ) ;
#265 = CC_DESIGN_PERSON_AND_ORGANIZATION_ASSIGNMENT ( #302, #39, ( #295 ) ) ;
#266 = ORIENTED_EDGE ( 'NONE', *, *, #148, .T. ) ;
#267 = EDGE_LOOP ( 'NONE', ( #299, #217, #40, #204 ) ) ;
#268 = DIRECTION ( 'NONE',  ( 1.000000000000000000, 0.000000000000000000, 0.000000000000000000 ) ) ;
#269 = ORIENTED_EDGE ( 'NONE', *, *, #51, .T. ) ;
#270 = CC_DESIGN_PERSON_AND_ORGANIZATION_ASSIGNMENT ( #41, #129, ( #213 ) ) ;
#271 = DIRECTION ( 'NONE',  ( 1.000000000000000000, 0.000000000000000000, 0.000000000000000000 ) ) ;
#272 = APPROVAL_STATUS ( 'not_yet_approved' ) ;
#273 = VERTEX_POINT ( 'NONE', #30 ) ;
#274 = CALENDAR_DATE ( 2022, 8, 7 ) ;
#275 = FACE_OUTER_BOUND ( 'NONE', #96, .T. ) ;
#276 = DATE_AND_TIME ( #333, #197 ) ;
#277 = EDGE_CURVE ( 'NONE', #112, #332, #328, .T. ) ;
#278 = VERTEX_POINT ( 'NONE', #240 ) ;
#279 = APPROVAL_ROLE ( '' ) ;
#280 = DIRECTION ( 'NONE',  ( 1.000000000000000000, 0.000000000000000000, 0.000000000000000000 ) ) ;
#281 = CIRCLE ( 'NONE', #352, 5.000000000000000000 ) ;
#282 = APPLICATION_PROTOCOL_DEFINITION ( 'international standard', 'config_control_design', 1994, #97 ) ;
#283 = DIRECTION ( 'NONE',  ( 1.000000000000000000, 0.000000000000000000, 0.000000000000000000 ) ) ;
#284 = ADVANCED_FACE ( 'NONE', ( #67 ), #207, .T. ) ;
#285 = APPROVAL_DATE_TIME ( #20, #75 ) ;
#286 = DIRECTION ( 'NONE',  ( 0.000000000000000000, 0.000000000000000000, 1.000000000000000000 ) ) ;
#287 = DIRECTION ( 'NONE',  ( 0.000000000000000000, 0.000000000000000000, 1.000000000000000000 ) ) ;
#288 = VECTOR ( 'NONE', #180, 1000.000000000000000 ) ;
#289 = CARTESIAN_POINT ( 'NONE',  ( -1.000000000000000000, 0.000000000000000000, 303.0000000000000000 ) ) ;
#290 = EDGE_CURVE ( 'NONE', #305, #292, #251, .T. ) ;
#291 = EDGE_LOOP ( 'NONE', ( #266, #65 ) ) ;
#292 = VERTEX_POINT ( 'NONE', #263 ) ;
#293 =( GEOMETRIC_REPRESENTATION_CONTEXT ( 3 ) GLOBAL_UNCERTAINTY_ASSIGNED_CONTEXT ( ( #140 ) ) GLOBAL_UNIT_ASSIGNED_CONTEXT ( ( #103, #310, #71 ) ) REPRESENTATION_CONTEXT ( 'NONE', 'WORKASPACE' ) );
#294 = ORIENTED_EDGE ( 'NONE', *, *, #229, .F. ) ;
#295 = PRODUCT_DEFINITION ( 'NEZNÁMÝ', '', #213, #173 ) ;
#296 = DIRECTION ( 'NONE',  ( 1.000000000000000000, 0.000000000000000000, 0.000000000000000000 ) ) ;
#297 = ORIENTED_EDGE ( 'NONE', *, *, #236, .T. ) ;
#298 = FACE_OUTER_BOUND ( 'NONE', #144, .T. ) ;
#299 = ORIENTED_EDGE ( 'NONE', *, *, #348, .F. ) ;
#300 = LINE ( 'NONE', #289, #14 ) ;
#301 = DIRECTION ( 'NONE',  ( 1.000000000000000000, 0.000000000000000000, 0.000000000000000000 ) ) ;
#302 = PERSON_AND_ORGANIZATION ( #19, #262 ) ;
#303 = DIRECTION ( 'NONE',  ( 0.000000000000000000, -1.000000000000000000, 0.000000000000000000 ) ) ;
#304 = CIRCLE ( 'NONE', #367, 1.000000000000000000 ) ;
#305 = VERTEX_POINT ( 'NONE', #214 ) ;
#306 = EDGE_CURVE ( 'NONE', #118, #273, #355, .T. ) ;
#307 = CALENDAR_DATE ( 2022, 8, 7 ) ;
#308 = ORIENTED_EDGE ( 'NONE', *, *, #277, .T. ) ;
#309 = CARTESIAN_POINT ( 'NONE',  ( 2.500000000000000000, 3.061616997868383141E-16, 303.0000000000000000 ) ) ;
#310 =( NAMED_UNIT ( * ) PLANE_ANGLE_UNIT ( ) SI_UNIT ( $, .RADIAN. ) );
#311 = LINE ( 'NONE', #309, #235 ) ;
#312 = EDGE_CURVE ( 'NONE', #241, #278, #300, .T. ) ;
#313 = CARTESIAN_POINT ( 'NONE',  ( 1.000000000000000000, 1.224646799147353207E-16, 303.0000000000000000 ) ) ;
#314 = DIRECTION ( 'NONE',  ( 0.000000000000000000, 0.000000000000000000, 1.000000000000000000 ) ) ;
#315 = CARTESIAN_POINT ( 'NONE',  ( 0.000000000000000000, 0.000000000000000000, 3.000000000000000000 ) ) ;
#316 = CLOSED_SHELL ( 'NONE', ( #55, #320, #242, #134, #284, #110, #208, #119, #114, #363, #346 ) ) ;
#317 = CC_DESIGN_DATE_AND_TIME_ASSIGNMENT ( #276, #105, ( #295 ) ) ;
#318 = ORIENTED_EDGE ( 'NONE', *, *, #229, .T. ) ;
#319 = ORIENTED_EDGE ( 'NONE', *, *, #51, .F. ) ;
#320 = ADVANCED_FACE ( 'NONE', ( #326 ), #111, .F. ) ;
#321 = ORIENTED_EDGE ( 'NONE', *, *, #68, .T. ) ;
#322 = AXIS2_PLACEMENT_3D ( 'NONE', #331, #120, #268 ) ;
#323 = AXIS2_PLACEMENT_3D ( 'NONE', #117, #174, #143 ) ;
#324 = DIRECTION ( 'NONE',  ( -0.000000000000000000, -0.000000000000000000, -1.000000000000000000 ) ) ;
#325 = ORIENTED_EDGE ( 'NONE', *, *, #183, .F. ) ;
#326 = FACE_OUTER_BOUND ( 'NONE', #267, .T. ) ;
#327 = CARTESIAN_POINT ( 'NONE',  ( 2.799999999999999822, 0.000000000000000000, 3.300000000000025135 ) ) ;
#328 = LINE ( 'NONE', #25, #288 ) ;
#329 = ORIENTED_EDGE ( 'NONE', *, *, #31, .T. ) ;
#330 = ADVANCED_BREP_SHAPE_REPRESENTATION ( '7a62', ( #150, #187 ), #293 ) ;
#331 = CARTESIAN_POINT ( 'NONE',  ( 0.000000000000000000, 0.000000000000000000, 303.0000000000000000 ) ) ;
#332 = VERTEX_POINT ( 'NONE', #381 ) ;
#333 = CALENDAR_DATE ( 2022, 8, 7 ) ;
#334 = VERTEX_POINT ( 'NONE', #36 ) ;
#335 = APPROVAL ( #336, 'NEURÈENÝ' ) ;
#336 = APPROVAL_STATUS ( 'not_yet_approved' ) ;
#337 = AXIS2_PLACEMENT_3D ( 'NONE', #95, #209, #378 ) ;
#338 = ORIENTED_EDGE ( 'NONE', *, *, #86, .F. ) ;
#339 = CARTESIAN_POINT ( 'NONE',  ( -2.500000000000000000, 0.000000000000000000, 303.0000000000000000 ) ) ;
#340 = DIRECTION ( 'NONE',  ( 0.000000000000000000, 0.000000000000000000, 1.000000000000000000 ) ) ;
#341 = PERSON_AND_ORGANIZATION_ROLE ( 'creator' ) ;
#342 = FACE_OUTER_BOUND ( 'NONE', #70, .T. ) ;
#343 = CC_DESIGN_SECURITY_CLASSIFICATION ( #252, ( #213 ) ) ;
#344 = CARTESIAN_POINT ( 'NONE',  ( 0.000000000000000000, 0.000000000000000000, 303.0000000000000000 ) ) ;
#345 = DIRECTION ( 'NONE',  ( 1.000000000000000000, 0.000000000000000000, 0.000000000000000000 ) ) ;
#346 = ADVANCED_FACE ( 'NONE', ( #353 ), #63, .F. ) ;
#347 = AXIS2_PLACEMENT_3D ( 'NONE', #198, #314, #21 ) ;
#348 = EDGE_CURVE ( 'NONE', #356, #334, #16, .T. ) ;
#349 = ORIENTED_EDGE ( 'NONE', *, *, #236, .F. ) ;
#350 = DIRECTION ( 'NONE',  ( 0.000000000000000000, 0.000000000000000000, -1.000000000000000000 ) ) ;
#351 = ORIENTED_EDGE ( 'NONE', *, *, #83, .F. ) ;
#352 = AXIS2_PLACEMENT_3D ( 'NONE', #85, #2, #211 ) ;
#353 = FACE_OUTER_BOUND ( 'NONE', #1, .T. ) ;
#354 = ORIENTED_EDGE ( 'NONE', *, *, #156, .F. ) ;
#355 = LINE ( 'NONE', #376, #178 ) ;
#356 = VERTEX_POINT ( 'NONE', #147 ) ;
#357 = CC_DESIGN_PERSON_AND_ORGANIZATION_ASSIGNMENT ( #45, #161, ( #26 ) ) ;
#358 = DIRECTION ( 'NONE',  ( -1.000000000000000000, 0.000000000000000000, 0.000000000000000000 ) ) ;
#359 = DIRECTION ( 'NONE',  ( -1.000000000000000000, 0.000000000000000000, 0.000000000000000000 ) ) ;
#360 = CYLINDRICAL_SURFACE ( 'NONE', #23, 2.500000000000000000 ) ;
#361 = AXIS2_PLACEMENT_3D ( 'NONE', #371, #168, #163 ) ;
#362 = DATE_AND_TIME ( #307, #54 ) ;
#363 = ADVANCED_FACE ( 'NONE', ( #298 ), #125, .F. ) ;
#364 = LINE ( 'NONE', #248, #94 ) ;
#365 = COORDINATED_UNIVERSAL_TIME_OFFSET ( 1, 0, .AHEAD. ) ;
#366 = CARTESIAN_POINT ( 'NONE',  ( 0.000000000000000000, 0.000000000000000000, 0.000000000000000000 ) ) ;
#367 = AXIS2_PLACEMENT_3D ( 'NONE', #366, #228, #345 ) ;
#368 = CYLINDRICAL_SURFACE ( 'NONE', #167, 2.500000000000000000 ) ;
#369 = DATE_TIME_ROLE ( 'classification_date' ) ;
#370 = CARTESIAN_POINT ( 'NONE',  ( 0.000000000000000000, 0.000000000000000000, 0.000000000000000000 ) ) ;
#371 = CARTESIAN_POINT ( 'NONE',  ( 0.000000000000000000, 0.000000000000000000, 3.000000000000000000 ) ) ;
#372 = COORDINATED_UNIVERSAL_TIME_OFFSET ( 1, 0, .AHEAD. ) ;
#373 = DIRECTION ( 'NONE',  ( -0.000000000000000000, -0.000000000000000000, -1.000000000000000000 ) ) ;
#374 = AXIS2_PLACEMENT_3D ( 'NONE', #76, #104, #193 ) ;
#375 = CARTESIAN_POINT ( 'NONE',  ( 0.000000000000000000, 0.000000000000000000, 303.0000000000000000 ) ) ;
#376 = CARTESIAN_POINT ( 'NONE',  ( 5.000000000000000000, 6.123233995736766282E-16, 3.000000000000000000 ) ) ;
#377 = EDGE_LOOP ( 'NONE', ( #354, #294, #126, #84 ) ) ;
#378 = DIRECTION ( 'NONE',  ( -1.000000000000000000, 0.000000000000000000, 0.000000000000000000 ) ) ;
#379 = ORIENTED_EDGE ( 'NONE', *, *, #166, .T. ) ;
#381 = CARTESIAN_POINT ( 'NONE',  ( 1.000000000000000000, 1.224646799147353207E-16, 0.000000000000000000 ) ) ;
#380 = LOCAL_TIME ( 17, 51, 46.00000000000000000, #255 ) ;
ENDSEC;
END-ISO-10303-21;
