ISO-10303-21;
HEADER;
FILE_DESCRIPTION (( 'STEP AP203' ),
    '1' );
FILE_NAME ('dc52.STEP',
    '2022-07-08T14:19:23',
    ( '' ),
    ( '' ),
    'SwSTEP 2.0',
    'SolidWorks 2019',
    '' );
FILE_SCHEMA (( 'CONFIG_CONTROL_DESIGN' ));
ENDSEC;

DATA;
#1 = EDGE_CURVE ( 'NONE', #220, #274, #81, .T. ) ;
#2 = EDGE_LOOP ( 'NONE', ( #96, #266, #335, #251 ) ) ;
#3 = CARTESIAN_POINT ( 'NONE',  ( 8.699999999999999289, 0.000000000000000000, 6.999999999999992006 ) ) ;
#4 = CIRCLE ( 'NONE', #381, 8.000000000000000000 ) ;
#5 = APPROVAL ( #139, 'NEURÈENÝ' ) ;
#6 = DIRECTION ( 'NONE',  ( -0.000000000000000000, -0.000000000000000000, -1.000000000000000000 ) ) ;
#7 = ORIENTED_EDGE ( 'NONE', *, *, #249, .T. ) ;
#8 = DIRECTION ( 'NONE',  ( 0.000000000000000000, 0.000000000000000000, 1.000000000000000000 ) ) ;
#9 = FACE_OUTER_BOUND ( 'NONE', #365, .T. ) ;
#10 = EDGE_LOOP ( 'NONE', ( #250, #122, #7, #331 ) ) ;
#11 = LOCAL_TIME ( 16, 19, 23.00000000000000000, #44 ) ;
#12 = DIRECTION ( 'NONE',  ( -0.000000000000000000, -0.000000000000000000, -1.000000000000000000 ) ) ;
#13 = ORIENTED_EDGE ( 'NONE', *, *, #36, .T. ) ;
#14 = ORIENTED_EDGE ( 'NONE', *, *, #41, .F. ) ;
#15 = DATE_AND_TIME ( #166, #11 ) ;
#16 = VECTOR ( 'NONE', #260, 1000.000000000000000 ) ;
#17 = CARTESIAN_POINT ( 'NONE',  ( -6.000000000000000888, 0.000000000000000000, 0.000000000000000000 ) ) ;
#18 = AXIS2_PLACEMENT_3D ( 'NONE', #338, #223, #256 ) ;
#19 = DIRECTION ( 'NONE',  ( 1.000000000000000000, 0.000000000000000000, 0.000000000000000000 ) ) ;
#20 = EDGE_CURVE ( 'NONE', #356, #196, #284, .T. ) ;
#21 = FACE_OUTER_BOUND ( 'NONE', #197, .T. ) ;
#22 = MECHANICAL_CONTEXT ( 'NONE', #97, 'mechanical' ) ;
#23 = DIRECTION ( 'NONE',  ( 1.000000000000000000, 0.000000000000000000, 0.000000000000000000 ) ) ;
#24 = AXIS2_PLACEMENT_3D ( 'NONE', #232, #12, #134 ) ;
#25 = PERSON_AND_ORGANIZATION_ROLE ( 'design_supplier' ) ;
#26 = APPROVAL_DATE_TIME ( #378, #270 ) ;
#27 = DIRECTION ( 'NONE',  ( 0.000000000000000000, 0.000000000000000000, 1.000000000000000000 ) ) ;
#28 = EDGE_CURVE ( 'NONE', #237, #45, #233, .T. ) ;
#29 = AXIS2_PLACEMENT_3D ( 'NONE', #221, #254, #19 ) ;
#30 = DIRECTION ( 'NONE',  ( 1.000000000000000000, 0.000000000000000000, 0.000000000000000000 ) ) ;
#31 = ORIENTED_EDGE ( 'NONE', *, *, #178, .F. ) ;
#32 = DIRECTION ( 'NONE',  ( -1.000000000000000000, 0.000000000000000000, 0.000000000000000000 ) ) ;
#33 = CYLINDRICAL_SURFACE ( 'NONE', #202, 8.000000000000000000 ) ;
#34 = CC_DESIGN_SECURITY_CLASSIFICATION ( #376, ( #272 ) ) ;
#35 = ORIENTED_EDGE ( 'NONE', *, *, #200, .F. ) ;
#36 = EDGE_CURVE ( 'NONE', #220, #40, #58, .T. ) ;
#37 = DIRECTION ( 'NONE',  ( -0.000000000000000000, -0.000000000000000000, -1.000000000000000000 ) ) ;
#38 = ORIENTED_EDGE ( 'NONE', *, *, #1, .T. ) ;
#39 = CARTESIAN_POINT ( 'NONE',  ( 0.000000000000000000, 0.000000000000000000, 0.000000000000000000 ) ) ;
#40 = VERTEX_POINT ( 'NONE', #377 ) ;
#41 = EDGE_CURVE ( 'NONE', #261, #103, #50, .T. ) ;
#42 = LOCAL_TIME ( 16, 19, 23.00000000000000000, #343 ) ;
#43 = ORIENTED_EDGE ( 'NONE', *, *, #28, .T. ) ;
#44 = COORDINATED_UNIVERSAL_TIME_OFFSET ( 1, 0, .AHEAD. ) ;
#45 = VERTEX_POINT ( 'NONE', #281 ) ;
#46 = PERSON_AND_ORGANIZATION_ROLE ( 'design_owner' ) ;
#47 = DIRECTION ( 'NONE',  ( 0.000000000000000000, -1.000000000000000000, 0.000000000000000000 ) ) ;
#48 = EDGE_CURVE ( 'NONE', #196, #220, #143, .T. ) ;
#49 = DATE_TIME_ROLE ( 'creation_date' ) ;
#50 = LINE ( 'NONE', #147, #16 ) ;
#51 = DIRECTION ( 'NONE',  ( 0.000000000000000000, 0.000000000000000000, -1.000000000000000000 ) ) ;
#52 = DIRECTION ( 'NONE',  ( 0.000000000000000000, 0.000000000000000000, -1.000000000000000000 ) ) ;
#53 = CALENDAR_DATE ( 2022, 8, 7 ) ;
#54 = AXIS2_PLACEMENT_3D ( 'NONE', #373, #371, #311 ) ;
#55 = CARTESIAN_POINT ( 'NONE',  ( 0.000000000000000000, 0.000000000000000000, 282.0000000000000000 ) ) ;
#56 = ADVANCED_FACE ( 'NONE', ( #174 ), #332, .F. ) ;
#57 = COORDINATED_UNIVERSAL_TIME_OFFSET ( 1, 0, .AHEAD. ) ;
#58 = CIRCLE ( 'NONE', #271, 8.000000000000000000 ) ;
#59 = DIRECTION ( 'NONE',  ( 1.000000000000000000, 0.000000000000000000, -0.000000000000000000 ) ) ;
#60 = AXIS2_PLACEMENT_3D ( 'NONE', #280, #369, #170 ) ;
#61 = DIRECTION ( 'NONE',  ( 0.000000000000000000, 0.000000000000000000, 1.000000000000000000 ) ) ;
#62 = EDGE_LOOP ( 'NONE', ( #76, #222, #361, #14 ) ) ;
#63 = FACE_OUTER_BOUND ( 'NONE', #380, .T. ) ;
#64 = ORIENTED_EDGE ( 'NONE', *, *, #297, .T. ) ;
#65 = MANIFOLD_SOLID_BREP ( 'Odebrat vysunutím3', #279 ) ;
#66 = CARTESIAN_POINT ( 'NONE',  ( -6.000000000000000888, 0.000000000000000000, 282.0000000000000000 ) ) ;
#67 = AXIS2_PLACEMENT_3D ( 'NONE', #182, #298, #121 ) ;
#68 = ORIENTED_EDGE ( 'NONE', *, *, #102, .F. ) ;
#69 = DIRECTION ( 'NONE',  ( -1.000000000000000000, 0.000000000000000000, 0.000000000000000000 ) ) ;
#70 = ORIENTED_EDGE ( 'NONE', *, *, #71, .F. ) ;
#71 = EDGE_CURVE ( 'NONE', #305, #261, #118, .T. ) ;
#72 =( LENGTH_UNIT ( ) NAMED_UNIT ( * ) SI_UNIT ( .MILLI., .METRE. ) );
#73 = EDGE_LOOP ( 'NONE', ( #79, #157 ) ) ;
#74 = PERSON_AND_ORGANIZATION ( #312, #320 ) ;
#75 = APPROVAL_PERSON_ORGANIZATION ( #304, #5, #367 ) ;
#76 = ORIENTED_EDGE ( 'NONE', *, *, #145, .T. ) ;
#77 = FACE_OUTER_BOUND ( 'NONE', #149, .T. ) ;
#78 = ADVANCED_FACE ( 'NONE', ( #203 ), #278, .F. ) ;
#79 = ORIENTED_EDGE ( 'NONE', *, *, #379, .T. ) ;
#80 = CYLINDRICAL_SURFACE ( 'NONE', #60, 11.00000000000000000 ) ;
#81 = CIRCLE ( 'NONE', #289, 0.7000000000000000666 ) ;
#82 = DIRECTION ( 'NONE',  ( 1.000000000000000000, 0.000000000000000000, 0.000000000000000000 ) ) ;
#83 = CIRCLE ( 'NONE', #181, 11.00000000000000000 ) ;
#84 = FACE_BOUND ( 'NONE', #211, .T. ) ;
#85 = PERSON_AND_ORGANIZATION_ROLE ( 'classification_officer' ) ;
#86 = CARTESIAN_POINT ( 'NONE',  ( 0.000000000000000000, 0.000000000000000000, 282.0000000000000000 ) ) ;
#87 = PERSON_AND_ORGANIZATION ( #312, #320 ) ;
#88 = ADVANCED_FACE ( 'NONE', ( #84, #255 ), #205, .T. ) ;
#89 = COORDINATED_UNIVERSAL_TIME_OFFSET ( 1, 0, .AHEAD. ) ;
#90 = CARTESIAN_POINT ( 'NONE',  ( 0.000000000000000000, 0.000000000000000000, 282.0000000000000000 ) ) ;
#91 = AXIS2_PLACEMENT_3D ( 'NONE', #141, #27, #253 ) ;
#92 = VECTOR ( 'NONE', #6, 1000.000000000000000 ) ;
#93 = CARTESIAN_POINT ( 'NONE',  ( 0.000000000000000000, 0.000000000000000000, 282.0000000000000000 ) ) ;
#94 = DIRECTION ( 'NONE',  ( -0.000000000000000000, -0.000000000000000000, -1.000000000000000000 ) ) ;
#95 = DIRECTION ( 'NONE',  ( 1.000000000000000000, 0.000000000000000000, 0.000000000000000000 ) ) ;
#96 = ORIENTED_EDGE ( 'NONE', *, *, #123, .F. ) ;
#97 = APPLICATION_CONTEXT ( 'configuration controlled 3d designs of mechanical parts and assemblies' ) ;
#98 = DIRECTION ( 'NONE',  ( 1.000000000000000000, 0.000000000000000000, 0.000000000000000000 ) ) ;
#99 = PRODUCT ( 'dc52', 'dc52', '', ( #22 ) ) ;
#100 = AXIS2_PLACEMENT_3D ( 'NONE', #352, #184, #32 ) ;
#101 = EDGE_LOOP ( 'NONE', ( #358, #64 ) ) ;
#102 = EDGE_CURVE ( 'NONE', #160, #237, #349, .T. ) ;
#103 = VERTEX_POINT ( 'NONE', #17 ) ;
#104 = DIRECTION ( 'NONE',  ( 1.000000000000000000, 0.000000000000000000, 0.000000000000000000 ) ) ;
#105 = VERTEX_POINT ( 'NONE', #307 ) ;
#106 = AXIS2_PLACEMENT_3D ( 'NONE', #199, #308, #115 ) ;
#107 = COORDINATED_UNIVERSAL_TIME_OFFSET ( 1, 0, .AHEAD. ) ;
#108 = EDGE_LOOP ( 'NONE', ( #363, #191, #13, #188 ) ) ;
#109 = DIRECTION ( 'NONE',  ( 0.000000000000000000, 0.000000000000000000, 1.000000000000000000 ) ) ;
#110 = ADVANCED_FACE ( 'NONE', ( #169, #21 ), #111, .F. ) ;
#111 = PLANE ( 'NONE',  #106 ) ;
#112 = FACE_OUTER_BOUND ( 'NONE', #10, .T. ) ;
#113 = CARTESIAN_POINT ( 'NONE',  ( 6.000000000000000888, 7.347880794884120722E-16, 282.0000000000000000 ) ) ;
#114 = DATE_AND_TIME ( #180, #42 ) ;
#115 = DIRECTION ( 'NONE',  ( 1.000000000000000000, 0.000000000000000000, -0.000000000000000000 ) ) ;
#116 = CC_DESIGN_PERSON_AND_ORGANIZATION_ASSIGNMENT ( #74, #46, ( #99 ) ) ;
#117 = CC_DESIGN_APPROVAL ( #270, ( #272 ) ) ;
#118 = CIRCLE ( 'NONE', #162, 6.000000000000000888 ) ;
#119 = APPROVAL_ROLE ( '' ) ;
#120 = DIRECTION ( 'NONE',  ( 0.000000000000000000, 0.000000000000000000, 1.000000000000000000 ) ) ;
#121 = DIRECTION ( 'NONE',  ( 1.000000000000000000, 0.000000000000000000, 0.000000000000000000 ) ) ;
#122 = ORIENTED_EDGE ( 'NONE', *, *, #20, .F. ) ;
#123 = EDGE_CURVE ( 'NONE', #305, #135, #171, .T. ) ;
#124 = AXIS2_PLACEMENT_3D ( 'NONE', #128, #245, #98 ) ;
#125 = FACE_BOUND ( 'NONE', #167, .T. ) ;
#126 = CARTESIAN_POINT ( 'NONE',  ( -8.000000000000000000, 0.000000000000000000, 282.0000000000000000 ) ) ;
#127 = ORIENTED_EDGE ( 'NONE', *, *, #183, .F. ) ;
#128 = CARTESIAN_POINT ( 'NONE',  ( 0.000000000000000000, 0.000000000000000000, 7.000000000000000000 ) ) ;
#129 = CC_DESIGN_PERSON_AND_ORGANIZATION_ASSIGNMENT ( #348, #25, ( #272 ) ) ;
#130 = ORIENTED_EDGE ( 'NONE', *, *, #313, .F. ) ;
#131 = CARTESIAN_POINT ( 'NONE',  ( 0.000000000000000000, 0.000000000000000000, 282.0000000000000000 ) ) ;
#132 = CC_DESIGN_APPROVAL ( #5, ( #153 ) ) ;
#133 = ORIENTED_EDGE ( 'NONE', *, *, #36, .F. ) ;
#134 = DIRECTION ( 'NONE',  ( 1.000000000000000000, 0.000000000000000000, 0.000000000000000000 ) ) ;
#135 = VERTEX_POINT ( 'NONE', #241 ) ;
#136 = CARTESIAN_POINT ( 'NONE',  ( 0.000000000000000000, 0.000000000000000000, 7.000000000000000000 ) ) ;
#137 = ORIENTED_EDGE ( 'NONE', *, *, #173, .T. ) ;
#138 = CC_DESIGN_PERSON_AND_ORGANIZATION_ASSIGNMENT ( #204, #375, ( #272 ) ) ;
#139 = APPROVAL_STATUS ( 'not_yet_approved' ) ;
#140 = AXIS2_PLACEMENT_3D ( 'NONE', #247, #327, #354 ) ;
#141 = CARTESIAN_POINT ( 'NONE',  ( 0.000000000000000000, 0.000000000000000000, 7.699999999999985079 ) ) ;
#142 = CARTESIAN_POINT ( 'NONE',  ( 0.000000000000000000, 0.000000000000000000, 7.000000000000000000 ) ) ;
#143 = LINE ( 'NONE', #341, #318 ) ;
#144 = CARTESIAN_POINT ( 'NONE',  ( -8.000000000000000000, 0.000000000000000000, 282.0000000000000000 ) ) ;
#145 = EDGE_CURVE ( 'NONE', #261, #305, #315, .T. ) ;
#146 = CARTESIAN_POINT ( 'NONE',  ( 0.000000000000000000, 0.000000000000000000, 7.699999999999985079 ) ) ;
#147 = CARTESIAN_POINT ( 'NONE',  ( -6.000000000000000888, 0.000000000000000000, 282.0000000000000000 ) ) ;
#148 = AXIS2_PLACEMENT_3D ( 'NONE', #93, #264, #265 ) ;
#149 = EDGE_LOOP ( 'NONE', ( #226, #302, #137, #68 ) ) ;
#150 = CALENDAR_DATE ( 2022, 8, 7 ) ;
#151 = LOCAL_TIME ( 16, 19, 23.00000000000000000, #107 ) ;
#152 = CYLINDRICAL_SURFACE ( 'NONE', #148, 6.000000000000000888 ) ;
#153 = PRODUCT_DEFINITION ( 'NEZNÁMÝ', '', #272, #310 ) ;
#154 = DIRECTION ( 'NONE',  ( 0.000000000000000000, 0.000000000000000000, 1.000000000000000000 ) ) ;
#155 = AXIS2_PLACEMENT_3D ( 'NONE', #39, #37, #30 ) ;
#156 = DIRECTION ( 'NONE',  ( 1.000000000000000000, 0.000000000000000000, 0.000000000000000000 ) ) ;
#157 = ORIENTED_EDGE ( 'NONE', *, *, #326, .T. ) ;
#158 = ADVANCED_FACE ( 'NONE', ( #63 ), #294, .F. ) ;
#159 = DIRECTION ( 'NONE',  ( -0.000000000000000000, -0.000000000000000000, -1.000000000000000000 ) ) ;
#160 = VERTEX_POINT ( 'NONE', #291 ) ;
#161 = CARTESIAN_POINT ( 'NONE',  ( 8.000000000000000000, 9.797174393178825657E-16, 7.699999999999985079 ) ) ;
#162 = AXIS2_PLACEMENT_3D ( 'NONE', #55, #120, #82 ) ;
#163 = APPROVAL_DATE_TIME ( #306, #5 ) ;
#164 = PRODUCT_DEFINITION_SHAPE ( 'NONE', 'NONE',  #153 ) ;
#165 = ORIENTED_EDGE ( 'NONE', *, *, #350, .T. ) ;
#166 = CALENDAR_DATE ( 2022, 8, 7 ) ;
#167 = EDGE_LOOP ( 'NONE', ( #165, #244 ) ) ;
#168 = CARTESIAN_POINT ( 'NONE',  ( 0.000000000000000000, 0.000000000000000000, 0.000000000000000000 ) ) ;
#169 = FACE_BOUND ( 'NONE', #224, .T. ) ;
#170 = DIRECTION ( 'NONE',  ( -1.000000000000000000, 0.000000000000000000, 0.000000000000000000 ) ) ;
#171 = LINE ( 'NONE', #113, #345 ) ;
#172 = DIRECTION ( 'NONE',  ( 0.000000000000000000, 0.000000000000000000, 1.000000000000000000 ) ) ;
#173 = EDGE_CURVE ( 'NONE', #45, #237, #246, .T. ) ;
#174 = FACE_OUTER_BOUND ( 'NONE', #325, .T. ) ;
#175 = DIRECTION ( 'NONE',  ( 0.000000000000000000, 0.000000000000000000, 1.000000000000000000 ) ) ;
#176 = CARTESIAN_POINT ( 'NONE',  ( 8.699999999999999289, 0.000000000000000000, 7.699999999999985079 ) ) ;
#177 = CIRCLE ( 'NONE', #155, 6.000000000000000888 ) ;
#178 = EDGE_CURVE ( 'NONE', #248, #45, #213, .T. ) ;
#179 = SHAPE_DEFINITION_REPRESENTATION ( #164, #195 ) ;
#180 = CALENDAR_DATE ( 2022, 8, 7 ) ;
#181 = AXIS2_PLACEMENT_3D ( 'NONE', #136, #277, #104 ) ;
#182 = CARTESIAN_POINT ( 'NONE',  ( 0.000000000000000000, 0.000000000000000000, 282.0000000000000000 ) ) ;
#183 = EDGE_CURVE ( 'NONE', #40, #105, #359, .T. ) ;
#184 = DIRECTION ( 'NONE',  ( -0.000000000000000000, -0.000000000000000000, -1.000000000000000000 ) ) ;
#185 = DIRECTION ( 'NONE',  ( 1.224646799147353207E-16, 1.000000000000000000, -0.000000000000000000 ) ) ;
#186 = APPROVAL ( #258, 'NEURÈENÝ' ) ;
#187 = CIRCLE ( 'NONE', #193, 11.00000000000000000 ) ;
#188 = ORIENTED_EDGE ( 'NONE', *, *, #249, .F. ) ;
#189 = CARTESIAN_POINT ( 'NONE',  ( -8.699999999999999289, 1.065442715258197248E-15, 7.699999999999985079 ) ) ;
#190 = ORIENTED_EDGE ( 'NONE', *, *, #379, .F. ) ;
#191 = ORIENTED_EDGE ( 'NONE', *, *, #48, .T. ) ;
#192 = APPLICATION_PROTOCOL_DEFINITION ( 'international standard', 'config_control_design', 1994, #328 ) ;
#193 = AXIS2_PLACEMENT_3D ( 'NONE', #142, #109, #273 ) ;
#194 = ADVANCED_FACE ( 'NONE', ( #125, #295 ), #319, .T. ) ;
#195 = ADVANCED_BREP_SHAPE_REPRESENTATION ( 'dc52', ( #65, #366 ), #215 ) ;
#196 = VERTEX_POINT ( 'NONE', #242 ) ;
#197 = EDGE_LOOP ( 'NONE', ( #333, #276 ) ) ;
#198 = PERSON_AND_ORGANIZATION ( #312, #320 ) ;
#199 = CARTESIAN_POINT ( 'NONE',  ( 0.000000000000000000, 0.000000000000000000, 0.000000000000000000 ) ) ;
#200 = EDGE_CURVE ( 'NONE', #135, #103, #303, .T. ) ;
#201 =( NAMED_UNIT ( * ) SI_UNIT ( $, .STERADIAN. ) SOLID_ANGLE_UNIT ( ) );
#202 = AXIS2_PLACEMENT_3D ( 'NONE', #131, #357, #69 ) ;
#203 = FACE_OUTER_BOUND ( 'NONE', #62, .T. ) ;
#204 = PERSON_AND_ORGANIZATION ( #312, #320 ) ;
#205 = PLANE ( 'NONE',  #54 ) ;
#206 = DATE_TIME_ROLE ( 'classification_date' ) ;
#207 = DIRECTION ( 'NONE',  ( 0.000000000000000000, 0.000000000000000000, 1.000000000000000000 ) ) ;
#208 = UNCERTAINTY_MEASURE_WITH_UNIT (LENGTH_MEASURE( 1.000000000000000082E-05 ), #72, 'distance_accuracy_value', 'NONE');
#209 = EDGE_CURVE ( 'NONE', #103, #135, #177, .T. ) ;
#210 = CC_DESIGN_APPROVAL ( #186, ( #376 ) ) ;
#211 = EDGE_LOOP ( 'NONE', ( #268, #70 ) ) ;
#212 = ADVANCED_FACE ( 'NONE', ( #323 ), #152, .F. ) ;
#213 = LINE ( 'NONE', #262, #92 ) ;
#214 = ORIENTED_EDGE ( 'NONE', *, *, #183, .T. ) ;
#215 =( GEOMETRIC_REPRESENTATION_CONTEXT ( 3 ) GLOBAL_UNCERTAINTY_ASSIGNED_CONTEXT ( ( #208 ) ) GLOBAL_UNIT_ASSIGNED_CONTEXT ( ( #72, #275, #201 ) ) REPRESENTATION_CONTEXT ( 'NONE', 'WORKASPACE' ) );
#216 = APPROVAL_PERSON_ORGANIZATION ( #317, #270, #119 ) ;
#217 = CARTESIAN_POINT ( 'NONE',  ( -11.00000000000000000, 0.000000000000000000, 0.000000000000000000 ) ) ;
#218 = DIRECTION ( 'NONE',  ( 1.000000000000000000, 0.000000000000000000, 0.000000000000000000 ) ) ;
#219 = CARTESIAN_POINT ( 'NONE',  ( 0.000000000000000000, 0.000000000000000000, 0.000000000000000000 ) ) ;
#220 = VERTEX_POINT ( 'NONE', #161 ) ;
#221 = CARTESIAN_POINT ( 'NONE',  ( 0.000000000000000000, 0.000000000000000000, 7.699999999999985079 ) ) ;
#222 = ORIENTED_EDGE ( 'NONE', *, *, #123, .T. ) ;
#223 = DIRECTION ( 'NONE',  ( -0.000000000000000000, -0.000000000000000000, -1.000000000000000000 ) ) ;
#224 = EDGE_LOOP ( 'NONE', ( #296, #35 ) ) ;
#225 = PRODUCT_RELATED_PRODUCT_CATEGORY ( 'detail', '', ( #99 ) ) ;
#226 = ORIENTED_EDGE ( 'NONE', *, *, #326, .F. ) ;
#227 = AXIS2_PLACEMENT_3D ( 'NONE', #90, #240, #257 ) ;
#228 = CIRCLE ( 'NONE', #29, 8.000000000000000000 ) ;
#229 = ORIENTED_EDGE ( 'NONE', *, *, #1, .F. ) ;
#230 = ADVANCED_FACE ( 'NONE', ( #9 ), #269, .T. ) ;
#231 = DIRECTION ( 'NONE',  ( -0.000000000000000000, -0.000000000000000000, -1.000000000000000000 ) ) ;
#232 = CARTESIAN_POINT ( 'NONE',  ( 0.000000000000000000, 0.000000000000000000, 7.000000000000000000 ) ) ;
#233 = CIRCLE ( 'NONE', #344, 11.00000000000000000 ) ;
#234 = AXIS2_PLACEMENT_3D ( 'NONE', #189, #185, #292 ) ;
#235 = CARTESIAN_POINT ( 'NONE',  ( -11.00000000000000000, 0.000000000000000000, 7.000000000000000000 ) ) ;
#236 = DATE_AND_TIME ( #150, #286 ) ;
#237 = VERTEX_POINT ( 'NONE', #217 ) ;
#238 = APPROVAL_DATE_TIME ( #236, #186 ) ;
#239 = ADVANCED_FACE ( 'NONE', ( #293 ), #33, .T. ) ;
#240 = DIRECTION ( 'NONE',  ( 0.000000000000000000, 0.000000000000000000, -1.000000000000000000 ) ) ;
#241 = CARTESIAN_POINT ( 'NONE',  ( 6.000000000000000888, 7.347880794884120722E-16, 0.000000000000000000 ) ) ;
#242 = CARTESIAN_POINT ( 'NONE',  ( 8.000000000000000000, 9.797174393178825657E-16, 282.0000000000000000 ) ) ;
#243 = CARTESIAN_POINT ( 'NONE',  ( 0.000000000000000000, 0.000000000000000000, 282.0000000000000000 ) ) ;
#244 = ORIENTED_EDGE ( 'NONE', *, *, #313, .T. ) ;
#245 = DIRECTION ( 'NONE',  ( -0.000000000000000000, -0.000000000000000000, -1.000000000000000000 ) ) ;
#246 = CIRCLE ( 'NONE', #346, 11.00000000000000000 ) ;
#247 = CARTESIAN_POINT ( 'NONE',  ( 0.000000000000000000, 0.000000000000000000, 7.699999999999985079 ) ) ;
#248 = VERTEX_POINT ( 'NONE', #324 ) ;
#249 = EDGE_CURVE ( 'NONE', #356, #40, #321, .T. ) ;
#250 = ORIENTED_EDGE ( 'NONE', *, *, #48, .F. ) ;
#251 = ORIENTED_EDGE ( 'NONE', *, *, #209, .T. ) ;
#252 = CC_DESIGN_DATE_AND_TIME_ASSIGNMENT ( #114, #206, ( #376 ) ) ;
#253 = DIRECTION ( 'NONE',  ( 1.000000000000000000, 0.000000000000000000, 0.000000000000000000 ) ) ;
#254 = DIRECTION ( 'NONE',  ( 0.000000000000000000, 0.000000000000000000, 1.000000000000000000 ) ) ;
#255 = FACE_OUTER_BOUND ( 'NONE', #101, .T. ) ;
#256 = DIRECTION ( 'NONE',  ( -1.000000000000000000, 0.000000000000000000, 0.000000000000000000 ) ) ;
#257 = DIRECTION ( 'NONE',  ( -1.000000000000000000, 0.000000000000000000, 0.000000000000000000 ) ) ;
#258 = APPROVAL_STATUS ( 'not_yet_approved' ) ;
#259 = APPROVAL_PERSON_ORGANIZATION ( #87, #186, #372 ) ;
#260 = DIRECTION ( 'NONE',  ( 0.000000000000000000, 0.000000000000000000, -1.000000000000000000 ) ) ;
#261 = VERTEX_POINT ( 'NONE', #66 ) ;
#262 = CARTESIAN_POINT ( 'NONE',  ( 11.00000000000000000, 1.347111479062088405E-15, 7.000000000000000000 ) ) ;
#263 = ORIENTED_EDGE ( 'NONE', *, *, #350, .F. ) ;
#264 = DIRECTION ( 'NONE',  ( 0.000000000000000000, 0.000000000000000000, -1.000000000000000000 ) ) ;
#265 = DIRECTION ( 'NONE',  ( -1.000000000000000000, 0.000000000000000000, 0.000000000000000000 ) ) ;
#266 = ORIENTED_EDGE ( 'NONE', *, *, #71, .T. ) ;
#267 = CARTESIAN_POINT ( 'NONE',  ( 0.000000000000000000, 0.000000000000000000, 0.000000000000000000 ) ) ;
#268 = ORIENTED_EDGE ( 'NONE', *, *, #145, .F. ) ;
#269 = CYLINDRICAL_SURFACE ( 'NONE', #100, 11.00000000000000000 ) ;
#270 = APPROVAL ( #285, 'NEURÈENÝ' ) ;
#271 = AXIS2_PLACEMENT_3D ( 'NONE', #146, #207, #23 ) ;
#272 = PRODUCT_DEFINITION_FORMATION_WITH_SPECIFIED_SOURCE ( 'LIBOVOLNÝ', '', #99, .NOT_KNOWN. ) ;
#273 = DIRECTION ( 'NONE',  ( 1.000000000000000000, 0.000000000000000000, 0.000000000000000000 ) ) ;
#274 = VERTEX_POINT ( 'NONE', #3 ) ;
#275 =( NAMED_UNIT ( * ) PLANE_ANGLE_UNIT ( ) SI_UNIT ( $, .RADIAN. ) );
#276 = ORIENTED_EDGE ( 'NONE', *, *, #173, .F. ) ;
#277 = DIRECTION ( 'NONE',  ( 0.000000000000000000, 0.000000000000000000, 1.000000000000000000 ) ) ;
#278 = CYLINDRICAL_SURFACE ( 'NONE', #227, 6.000000000000000888 ) ;
#279 = CLOSED_SHELL ( 'NONE', ( #78, #158, #239, #347, #230, #194, #110, #370, #88, #56, #212 ) ) ;
#280 = CARTESIAN_POINT ( 'NONE',  ( 0.000000000000000000, 0.000000000000000000, 7.000000000000000000 ) ) ;
#281 = CARTESIAN_POINT ( 'NONE',  ( 11.00000000000000000, 1.347111479062088405E-15, 0.000000000000000000 ) ) ;
#282 = CC_DESIGN_PERSON_AND_ORGANIZATION_ASSIGNMENT ( #198, #364, ( #153 ) ) ;
#283 = DIRECTION ( 'NONE',  ( 1.000000000000000000, 0.000000000000000000, 0.000000000000000000 ) ) ;
#284 = CIRCLE ( 'NONE', #301, 8.000000000000000000 ) ;
#285 = APPROVAL_STATUS ( 'not_yet_approved' ) ;
#286 = LOCAL_TIME ( 16, 19, 23.00000000000000000, #89 ) ;
#287 = DIRECTION ( 'NONE',  ( 1.000000000000000000, 0.000000000000000000, 0.000000000000000000 ) ) ;
#288 = SECURITY_CLASSIFICATION_LEVEL ( 'unclassified' ) ;
#289 = AXIS2_PLACEMENT_3D ( 'NONE', #176, #47, #52 ) ;
#290 = LOCAL_TIME ( 16, 19, 23.00000000000000000, #57 ) ;
#291 = CARTESIAN_POINT ( 'NONE',  ( -11.00000000000000000, 0.000000000000000000, 7.000000000000000000 ) ) ;
#292 = DIRECTION ( 'NONE',  ( -1.000000000000000000, 1.224646799147353207E-16, 0.000000000000000000 ) ) ;
#293 = FACE_OUTER_BOUND ( 'NONE', #108, .T. ) ;
#294 = TOROIDAL_SURFACE ( 'NONE', #140, 8.699999999999999289, 0.6999999999999999556 ) ;
#295 = FACE_OUTER_BOUND ( 'NONE', #73, .T. ) ;
#296 = ORIENTED_EDGE ( 'NONE', *, *, #209, .F. ) ;
#297 = EDGE_CURVE ( 'NONE', #196, #356, #4, .T. ) ;
#298 = DIRECTION ( 'NONE',  ( 0.000000000000000000, 0.000000000000000000, 1.000000000000000000 ) ) ;
#299 = ORIENTED_EDGE ( 'NONE', *, *, #322, .F. ) ;
#300 = APPLICATION_PROTOCOL_DEFINITION ( 'international standard', 'config_control_design', 1994, #97 ) ;
#301 = AXIS2_PLACEMENT_3D ( 'NONE', #86, #314, #287 ) ;
#302 = ORIENTED_EDGE ( 'NONE', *, *, #178, .T. ) ;
#303 = CIRCLE ( 'NONE', #334, 6.000000000000000888 ) ;
#304 = PERSON_AND_ORGANIZATION ( #312, #320 ) ;
#305 = VERTEX_POINT ( 'NONE', #355 ) ;
#306 = DATE_AND_TIME ( #336, #151 ) ;
#307 = CARTESIAN_POINT ( 'NONE',  ( -8.699999999999999289, 1.065442715258197248E-15, 6.999999999999992006 ) ) ;
#308 = DIRECTION ( 'NONE',  ( 0.000000000000000000, 0.000000000000000000, 1.000000000000000000 ) ) ;
#309 = CIRCLE ( 'NONE', #24, 8.699999999999999289 ) ;
#310 = DESIGN_CONTEXT ( 'detailed design', #328, 'design' ) ;
#311 = DIRECTION ( 'NONE',  ( 1.000000000000000000, 0.000000000000000000, -0.000000000000000000 ) ) ;
#312 = PERSON ( 'NEURÈENÝ', 'NEURÈENÝ', 'NEURÈENÝ', ('NEURÈENÝ'), ('NEURÈENÝ'), ('NEURÈENÝ') ) ;
#313 = EDGE_CURVE ( 'NONE', #105, #274, #353, .T. ) ;
#314 = DIRECTION ( 'NONE',  ( 0.000000000000000000, 0.000000000000000000, 1.000000000000000000 ) ) ;
#315 = CIRCLE ( 'NONE', #67, 6.000000000000000888 ) ;
#316 = CC_DESIGN_PERSON_AND_ORGANIZATION_ASSIGNMENT ( #342, #85, ( #376 ) ) ;
#317 = PERSON_AND_ORGANIZATION ( #312, #320 ) ;
#318 = VECTOR ( 'NONE', #231, 1000.000000000000000 ) ;
#319 = PLANE ( 'NONE',  #374 ) ;
#320 = ORGANIZATION ( 'NEURÈENÝ', 'NEURÈENÝ', '' ) ;
#321 = LINE ( 'NONE', #126, #340 ) ;
#322 = EDGE_CURVE ( 'NONE', #40, #220, #228, .T. ) ;
#323 = FACE_OUTER_BOUND ( 'NONE', #2, .T. ) ;
#324 = CARTESIAN_POINT ( 'NONE',  ( 11.00000000000000000, 1.347111479062088405E-15, 7.000000000000000000 ) ) ;
#325 = EDGE_LOOP ( 'NONE', ( #127, #133, #38, #130 ) ) ;
#326 = EDGE_CURVE ( 'NONE', #248, #160, #187, .T. ) ;
#327 = DIRECTION ( 'NONE',  ( 0.000000000000000000, 0.000000000000000000, 1.000000000000000000 ) ) ;
#328 = APPLICATION_CONTEXT ( 'configuration controlled 3d designs of mechanical parts and assemblies' ) ;
#329 = ORIENTED_EDGE ( 'NONE', *, *, #102, .T. ) ;
#330 = DIRECTION ( 'NONE',  ( 1.000000000000000000, 0.000000000000000000, 0.000000000000000000 ) ) ;
#331 = ORIENTED_EDGE ( 'NONE', *, *, #322, .T. ) ;
#332 = TOROIDAL_SURFACE ( 'NONE', #91, 8.699999999999999289, 0.6999999999999999556 ) ;
#333 = ORIENTED_EDGE ( 'NONE', *, *, #28, .F. ) ;
#334 = AXIS2_PLACEMENT_3D ( 'NONE', #219, #94, #218 ) ;
#335 = ORIENTED_EDGE ( 'NONE', *, *, #41, .T. ) ;
#336 = CALENDAR_DATE ( 2022, 8, 7 ) ;
#337 = CARTESIAN_POINT ( 'NONE',  ( 0.000000000000000000, 0.000000000000000000, 0.000000000000000000 ) ) ;
#338 = CARTESIAN_POINT ( 'NONE',  ( 0.000000000000000000, 0.000000000000000000, 282.0000000000000000 ) ) ;
#339 = CC_DESIGN_DATE_AND_TIME_ASSIGNMENT ( #15, #49, ( #153 ) ) ;
#340 = VECTOR ( 'NONE', #159, 1000.000000000000000 ) ;
#341 = CARTESIAN_POINT ( 'NONE',  ( 8.000000000000000000, 9.797174393178825657E-16, 282.0000000000000000 ) ) ;
#342 = PERSON_AND_ORGANIZATION ( #312, #320 ) ;
#343 = COORDINATED_UNIVERSAL_TIME_OFFSET ( 1, 0, .AHEAD. ) ;
#344 = AXIS2_PLACEMENT_3D ( 'NONE', #337, #175, #283 ) ;
#345 = VECTOR ( 'NONE', #51, 1000.000000000000000 ) ;
#346 = AXIS2_PLACEMENT_3D ( 'NONE', #267, #61, #156 ) ;
#347 = ADVANCED_FACE ( 'NONE', ( #77 ), #80, .T. ) ;
#348 = PERSON_AND_ORGANIZATION ( #312, #320 ) ;
#349 = LINE ( 'NONE', #235, #351 ) ;
#350 = EDGE_CURVE ( 'NONE', #274, #105, #309, .T. ) ;
#351 = VECTOR ( 'NONE', #368, 1000.000000000000000 ) ;
#352 = CARTESIAN_POINT ( 'NONE',  ( 0.000000000000000000, 0.000000000000000000, 7.000000000000000000 ) ) ;
#353 = CIRCLE ( 'NONE', #124, 8.699999999999999289 ) ;
#354 = DIRECTION ( 'NONE',  ( 1.000000000000000000, 0.000000000000000000, 0.000000000000000000 ) ) ;
#355 = CARTESIAN_POINT ( 'NONE',  ( 6.000000000000000888, 7.347880794884120722E-16, 282.0000000000000000 ) ) ;
#356 = VERTEX_POINT ( 'NONE', #144 ) ;
#357 = DIRECTION ( 'NONE',  ( -0.000000000000000000, -0.000000000000000000, -1.000000000000000000 ) ) ;
#358 = ORIENTED_EDGE ( 'NONE', *, *, #20, .T. ) ;
#359 = CIRCLE ( 'NONE', #234, 0.6999999999999992895 ) ;
#360 = CARTESIAN_POINT ( 'NONE',  ( 0.000000000000000000, 0.000000000000000000, 7.000000000000000000 ) ) ;
#361 = ORIENTED_EDGE ( 'NONE', *, *, #200, .T. ) ;
#362 = CYLINDRICAL_SURFACE ( 'NONE', #18, 8.000000000000000000 ) ;
#363 = ORIENTED_EDGE ( 'NONE', *, *, #297, .F. ) ;
#364 = PERSON_AND_ORGANIZATION_ROLE ( 'creator' ) ;
#365 = EDGE_LOOP ( 'NONE', ( #31, #190, #329, #43 ) ) ;
#366 = AXIS2_PLACEMENT_3D ( 'NONE', #168, #172, #330 ) ;
#367 = APPROVAL_ROLE ( '' ) ;
#368 = DIRECTION ( 'NONE',  ( -0.000000000000000000, -0.000000000000000000, -1.000000000000000000 ) ) ;
#369 = DIRECTION ( 'NONE',  ( -0.000000000000000000, -0.000000000000000000, -1.000000000000000000 ) ) ;
#370 = ADVANCED_FACE ( 'NONE', ( #112 ), #362, .T. ) ;
#371 = DIRECTION ( 'NONE',  ( 0.000000000000000000, 0.000000000000000000, 1.000000000000000000 ) ) ;
#372 = APPROVAL_ROLE ( '' ) ;
#373 = CARTESIAN_POINT ( 'NONE',  ( 0.000000000000000000, 0.000000000000000000, 282.0000000000000000 ) ) ;
#374 = AXIS2_PLACEMENT_3D ( 'NONE', #360, #154, #59 ) ;
#375 = PERSON_AND_ORGANIZATION_ROLE ( 'creator' ) ;
#376 = SECURITY_CLASSIFICATION ( '', '', #288 ) ;
#377 = CARTESIAN_POINT ( 'NONE',  ( -8.000000000000000000, 0.000000000000000000, 7.699999999999985079 ) ) ;
#378 = DATE_AND_TIME ( #53, #290 ) ;
#379 = EDGE_CURVE ( 'NONE', #160, #248, #83, .T. ) ;
#380 = EDGE_LOOP ( 'NONE', ( #299, #214, #263, #229 ) ) ;
#381 = AXIS2_PLACEMENT_3D ( 'NONE', #243, #8, #95 ) ;
ENDSEC;
END-ISO-10303-21;
