ISO-10303-21;
HEADER;
FILE_DESCRIPTION (( 'STEP AP203' ),
    '1' );
FILE_NAME ('2619.STEP',
    '2022-07-08T15:29:28',
    ( '' ),
    ( '' ),
    'SwSTEP 2.0',
    'SolidWorks 2019',
    '' );
FILE_SCHEMA (( 'CONFIG_CONTROL_DESIGN' ));
ENDSEC;

DATA;
#1 = CYLINDRICAL_SURFACE ( 'NONE', #380, 4.000000000000000000 ) ;
#2 = APPLICATION_CONTEXT ( 'configuration controlled 3d designs of mechanical parts and assemblies' ) ;
#3 = LINE ( 'NONE', #176, #284 ) ;
#4 = CIRCLE ( 'NONE', #128, 0.5000000000000004441 ) ;
#5 = CARTESIAN_POINT ( 'NONE',  ( -2.000000000000000000, 0.000000000000000000, 755.0000000000000000 ) ) ;
#6 = AXIS2_PLACEMENT_3D ( 'NONE', #180, #65, #122 ) ;
#7 = EDGE_CURVE ( 'NONE', #225, #227, #87, .T. ) ;
#8 = CARTESIAN_POINT ( 'NONE',  ( 0.000000000000000000, 0.000000000000000000, 755.0000000000000000 ) ) ;
#9 = EDGE_CURVE ( 'NONE', #252, #237, #13, .T. ) ;
#10 = CARTESIAN_POINT ( 'NONE',  ( 0.000000000000000000, 0.000000000000000000, 5.000000000000000000 ) ) ;
#11 = CARTESIAN_POINT ( 'NONE',  ( 2.000000000000000000, 2.449293598294706414E-16, 755.0000000000000000 ) ) ;
#12 = EDGE_CURVE ( 'NONE', #307, #18, #379, .T. ) ;
#13 = CIRCLE ( 'NONE', #266, 0.5000000000000004441 ) ;
#14 = FACE_OUTER_BOUND ( 'NONE', #137, .T. ) ;
#15 = ORIENTED_EDGE ( 'NONE', *, *, #22, .F. ) ;
#16 = DIRECTION ( 'NONE',  ( 0.000000000000000000, 0.000000000000000000, -1.000000000000000000 ) ) ;
#17 = EDGE_LOOP ( 'NONE', ( #15, #347, #100, #276 ) ) ;
#18 = VERTEX_POINT ( 'NONE', #55 ) ;
#19 = SECURITY_CLASSIFICATION ( '', '', #32 ) ;
#20 = APPROVAL_STATUS ( 'not_yet_approved' ) ;
#21 = DIRECTION ( 'NONE',  ( 1.000000000000000000, 0.000000000000000000, 0.000000000000000000 ) ) ;
#22 = EDGE_CURVE ( 'NONE', #252, #227, #224, .T. ) ;
#23 = DIRECTION ( 'NONE',  ( 0.000000000000000000, 0.000000000000000000, 1.000000000000000000 ) ) ;
#24 = ORIENTED_EDGE ( 'NONE', *, *, #345, .F. ) ;
#25 = APPROVAL_DATE_TIME ( #142, #208 ) ;
#26 = VERTEX_POINT ( 'NONE', #375 ) ;
#27 = AXIS2_PLACEMENT_3D ( 'NONE', #378, #116, #21 ) ;
#28 = APPROVAL_PERSON_ORGANIZATION ( #109, #208, #249 ) ;
#29 = PERSON_AND_ORGANIZATION_ROLE ( 'creator' ) ;
#30 = ORIENTED_EDGE ( 'NONE', *, *, #315, .F. ) ;
#31 = EDGE_CURVE ( 'NONE', #237, #363, #160, .T. ) ;
#32 = SECURITY_CLASSIFICATION_LEVEL ( 'unclassified' ) ;
#33 = CARTESIAN_POINT ( 'NONE',  ( 4.000000000000000000, 4.898587196589412829E-16, 755.0000000000000000 ) ) ;
#34 = LINE ( 'NONE', #126, #177 ) ;
#35 = CIRCLE ( 'NONE', #339, 2.000000000000000000 ) ;
#36 = CARTESIAN_POINT ( 'NONE',  ( -7.000000000000000000, 0.000000000000000000, 0.000000000000000000 ) ) ;
#37 = CC_DESIGN_PERSON_AND_ORGANIZATION_ASSIGNMENT ( #196, #221, ( #322 ) ) ;
#38 = CYLINDRICAL_SURFACE ( 'NONE', #185, 2.000000000000000000 ) ;
#39 = DIRECTION ( 'NONE',  ( 0.000000000000000000, 0.000000000000000000, 1.000000000000000000 ) ) ;
#40 = CARTESIAN_POINT ( 'NONE',  ( 4.000000000000000000, 4.898587196589412829E-16, 755.0000000000000000 ) ) ;
#41 = AXIS2_PLACEMENT_3D ( 'NONE', #241, #99, #43 ) ;
#42 = EDGE_CURVE ( 'NONE', #118, #248, #190, .T. ) ;
#43 = DIRECTION ( 'NONE',  ( 1.000000000000000000, 0.000000000000000000, 0.000000000000000000 ) ) ;
#44 = FACE_BOUND ( 'NONE', #85, .T. ) ;
#45 = ORIENTED_EDGE ( 'NONE', *, *, #354, .F. ) ;
#46 = FACE_OUTER_BOUND ( 'NONE', #222, .T. ) ;
#47 = ORIENTED_EDGE ( 'NONE', *, *, #102, .T. ) ;
#48 = FACE_OUTER_BOUND ( 'NONE', #143, .T. ) ;
#49 = ORIENTED_EDGE ( 'NONE', *, *, #247, .T. ) ;
#50 = ORIENTED_EDGE ( 'NONE', *, *, #61, .T. ) ;
#51 = CC_DESIGN_PERSON_AND_ORGANIZATION_ASSIGNMENT ( #140, #29, ( #162 ) ) ;
#52 = CARTESIAN_POINT ( 'NONE',  ( 0.000000000000000000, 0.000000000000000000, 0.000000000000000000 ) ) ;
#53 = ORIENTED_EDGE ( 'NONE', *, *, #7, .F. ) ;
#54 = COORDINATED_UNIVERSAL_TIME_OFFSET ( 1, 0, .AHEAD. ) ;
#55 = CARTESIAN_POINT ( 'NONE',  ( -2.000000000000000000, 0.000000000000000000, 755.0000000000000000 ) ) ;
#56 = CARTESIAN_POINT ( 'NONE',  ( 4.500000000000000888, 0.000000000000000000, 5.499999999999949374 ) ) ;
#57 = CC_DESIGN_SECURITY_CLASSIFICATION ( #19, ( #162 ) ) ;
#58 = COORDINATED_UNIVERSAL_TIME_OFFSET ( 1, 0, .AHEAD. ) ;
#59 = EDGE_LOOP ( 'NONE', ( #301, #175 ) ) ;
#60 = ORIENTED_EDGE ( 'NONE', *, *, #157, .T. ) ;
#61 = EDGE_CURVE ( 'NONE', #227, #363, #4, .T. ) ;
#62 = DIRECTION ( 'NONE',  ( 0.000000000000000000, 0.000000000000000000, -1.000000000000000000 ) ) ;
#63 = AXIS2_PLACEMENT_3D ( 'NONE', #151, #209, #97 ) ;
#64 = AXIS2_PLACEMENT_3D ( 'NONE', #270, #364, #272 ) ;
#65 = DIRECTION ( 'NONE',  ( 0.000000000000000000, 0.000000000000000000, 1.000000000000000000 ) ) ;
#66 = ADVANCED_FACE ( 'NONE', ( #81 ), #359, .T. ) ;
#67 = FACE_OUTER_BOUND ( 'NONE', #213, .T. ) ;
#68 = EDGE_CURVE ( 'NONE', #26, #331, #35, .T. ) ;
#69 = CARTESIAN_POINT ( 'NONE',  ( -4.500000000000000888, 5.510910596163088569E-16, 4.999999999999975131 ) ) ;
#70 = CARTESIAN_POINT ( 'NONE',  ( 0.000000000000000000, 0.000000000000000000, 5.000000000000000000 ) ) ;
#71 = AXIS2_PLACEMENT_3D ( 'NONE', #76, #189, #214 ) ;
#72 = DIRECTION ( 'NONE',  ( -0.000000000000000000, -0.000000000000000000, -1.000000000000000000 ) ) ;
#73 = FACE_OUTER_BOUND ( 'NONE', #335, .T. ) ;
#74 = ORIENTED_EDGE ( 'NONE', *, *, #315, .T. ) ;
#75 = AXIS2_PLACEMENT_3D ( 'NONE', #360, #274, #159 ) ;
#76 = CARTESIAN_POINT ( 'NONE',  ( 0.000000000000000000, 0.000000000000000000, 5.499999999999949374 ) ) ;
#77 = ORIENTED_EDGE ( 'NONE', *, *, #42, .F. ) ;
#78 = APPROVAL_ROLE ( '' ) ;
#79 = EDGE_LOOP ( 'NONE', ( #281, #89, #329, #30 ) ) ;
#80 = APPLICATION_PROTOCOL_DEFINITION ( 'international standard', 'config_control_design', 1994, #2 ) ;
#81 = FACE_OUTER_BOUND ( 'NONE', #311, .T. ) ;
#82 = EDGE_CURVE ( 'NONE', #307, #331, #34, .T. ) ;
#83 = AXIS2_PLACEMENT_3D ( 'NONE', #182, #161, #302 ) ;
#84 = DIRECTION ( 'NONE',  ( 1.000000000000000000, 0.000000000000000000, 0.000000000000000000 ) ) ;
#85 = EDGE_LOOP ( 'NONE', ( #24, #250 ) ) ;
#86 = CALENDAR_DATE ( 2022, 8, 7 ) ;
#87 = LINE ( 'NONE', #33, #203 ) ;
#88 = PERSON_AND_ORGANIZATION_ROLE ( 'creator' ) ;
#89 = ORIENTED_EDGE ( 'NONE', *, *, #7, .T. ) ;
#90 = AXIS2_PLACEMENT_3D ( 'NONE', #10, #216, #334 ) ;
#91 = ADVANCED_FACE ( 'NONE', ( #358, #67 ), #96, .T. ) ;
#92 = ORIENTED_EDGE ( 'NONE', *, *, #298, .F. ) ;
#93 = DIRECTION ( 'NONE',  ( 1.000000000000000000, 0.000000000000000000, -0.000000000000000000 ) ) ;
#94 = CARTESIAN_POINT ( 'NONE',  ( -7.000000000000000000, 0.000000000000000000, 5.000000000000000000 ) ) ;
#95 = AXIS2_PLACEMENT_3D ( 'NONE', #265, #233, #93 ) ;
#96 = PLANE ( 'NONE',  #95 ) ;
#97 = DIRECTION ( 'NONE',  ( 1.000000000000000000, 0.000000000000000000, 0.000000000000000000 ) ) ;
#98 = FACE_OUTER_BOUND ( 'NONE', #367, .T. ) ;
#99 = DIRECTION ( 'NONE',  ( 0.000000000000000000, 0.000000000000000000, 1.000000000000000000 ) ) ;
#100 = ORIENTED_EDGE ( 'NONE', *, *, #330, .F. ) ;
#101 = DIRECTION ( 'NONE',  ( -1.000000000000000000, 0.000000000000000000, 0.000000000000000000 ) ) ;
#102 = EDGE_CURVE ( 'NONE', #18, #26, #179, .T. ) ;
#103 = CARTESIAN_POINT ( 'NONE',  ( 0.000000000000000000, 0.000000000000000000, 5.499999999999949374 ) ) ;
#104 = DIRECTION ( 'NONE',  ( -0.000000000000000000, -0.000000000000000000, -1.000000000000000000 ) ) ;
#105 = AXIS2_PLACEMENT_3D ( 'NONE', #169, #256, #259 ) ;
#106 = ORIENTED_EDGE ( 'NONE', *, *, #298, .T. ) ;
#107 = DIRECTION ( 'NONE',  ( -1.000000000000000000, 0.000000000000000000, 0.000000000000000000 ) ) ;
#108 = CC_DESIGN_PERSON_AND_ORGANIZATION_ASSIGNMENT ( #341, #373, ( #19 ) ) ;
#109 = PERSON_AND_ORGANIZATION ( #257, #187 ) ;
#110 = DIRECTION ( 'NONE',  ( 0.000000000000000000, -1.000000000000000000, 0.000000000000000000 ) ) ;
#111 = DATE_TIME_ROLE ( 'classification_date' ) ;
#112 = ORIENTED_EDGE ( 'NONE', *, *, #319, .T. ) ;
#113 = CC_DESIGN_APPROVAL ( #208, ( #162 ) ) ;
#114 = ORIENTED_EDGE ( 'NONE', *, *, #82, .F. ) ;
#115 = APPROVAL_STATUS ( 'not_yet_approved' ) ;
#116 = DIRECTION ( 'NONE',  ( -0.000000000000000000, -0.000000000000000000, -1.000000000000000000 ) ) ;
#117 = SHAPE_DEFINITION_REPRESENTATION ( #200, #289 ) ;
#118 = VERTEX_POINT ( 'NONE', #94 ) ;
#119 = AXIS2_PLACEMENT_3D ( 'NONE', #299, #129, #236 ) ;
#120 = EDGE_CURVE ( 'NONE', #248, #118, #356, .T. ) ;
#121 = DIRECTION ( 'NONE',  ( -1.000000000000000000, 0.000000000000000000, 0.000000000000000000 ) ) ;
#122 = DIRECTION ( 'NONE',  ( 1.000000000000000000, 0.000000000000000000, 0.000000000000000000 ) ) ;
#123 = CARTESIAN_POINT ( 'NONE',  ( 0.000000000000000000, 0.000000000000000000, 0.000000000000000000 ) ) ;
#124 = AXIS2_PLACEMENT_3D ( 'NONE', #261, #293, #156 ) ;
#125 = AXIS2_PLACEMENT_3D ( 'NONE', #243, #16, #107 ) ;
#126 = CARTESIAN_POINT ( 'NONE',  ( 2.000000000000000000, 2.449293598294706414E-16, 755.0000000000000000 ) ) ;
#127 = DIRECTION ( 'NONE',  ( 0.000000000000000000, 0.000000000000000000, -1.000000000000000000 ) ) ;
#128 = AXIS2_PLACEMENT_3D ( 'NONE', #56, #110, #338 ) ;
#129 = DIRECTION ( 'NONE',  ( 0.000000000000000000, 0.000000000000000000, 1.000000000000000000 ) ) ;
#130 = LINE ( 'NONE', #328, #333 ) ;
#131 = ORIENTED_EDGE ( 'NONE', *, *, #102, .F. ) ;
#132 = ADVANCED_FACE ( 'NONE', ( #98 ), #38, .F. ) ;
#133 = DIRECTION ( 'NONE',  ( 0.000000000000000000, 0.000000000000000000, 1.000000000000000000 ) ) ;
#134 = AXIS2_PLACEMENT_3D ( 'NONE', #285, #287, #193 ) ;
#135 = VERTEX_POINT ( 'NONE', #36 ) ;
#136 =( GEOMETRIC_REPRESENTATION_CONTEXT ( 3 ) GLOBAL_UNCERTAINTY_ASSIGNED_CONTEXT ( ( #263 ) ) GLOBAL_UNIT_ASSIGNED_CONTEXT ( ( #336, #255, #165 ) ) REPRESENTATION_CONTEXT ( 'NONE', 'WORKASPACE' ) );
#137 = EDGE_LOOP ( 'NONE', ( #141, #77, #244, #273 ) ) ;
#138 = APPROVAL_STATUS ( 'not_yet_approved' ) ;
#139 = ORIENTED_EDGE ( 'NONE', *, *, #120, .F. ) ;
#140 = PERSON_AND_ORGANIZATION ( #257, #187 ) ;
#141 = ORIENTED_EDGE ( 'NONE', *, *, #247, .F. ) ;
#142 = DATE_AND_TIME ( #223, #267 ) ;
#143 = EDGE_LOOP ( 'NONE', ( #184, #188 ) ) ;
#144 = EDGE_CURVE ( 'NONE', #118, #135, #3, .T. ) ;
#145 = CALENDAR_DATE ( 2022, 8, 7 ) ;
#146 = ORIENTED_EDGE ( 'NONE', *, *, #22, .T. ) ;
#147 = CARTESIAN_POINT ( 'NONE',  ( 7.000000000000000000, 8.572527594031473190E-16, 5.000000000000000000 ) ) ;
#148 = CLOSED_SHELL ( 'NONE', ( #303, #201, #206, #245, #300, #91, #369, #66, #264, #376, #132 ) ) ;
#149 = AXIS2_PLACEMENT_3D ( 'NONE', #183, #239, #163 ) ;
#150 = FACE_OUTER_BOUND ( 'NONE', #79, .T. ) ;
#151 = CARTESIAN_POINT ( 'NONE',  ( 0.000000000000000000, 0.000000000000000000, 5.000000000000000000 ) ) ;
#152 = CC_DESIGN_PERSON_AND_ORGANIZATION_ASSIGNMENT ( #310, #228, ( #162 ) ) ;
#153 = APPLICATION_CONTEXT ( 'configuration controlled 3d designs of mechanical parts and assemblies' ) ;
#154 = CIRCLE ( 'NONE', #124, 4.000000000000000000 ) ;
#155 = CIRCLE ( 'NONE', #149, 7.000000000000000000 ) ;
#156 = DIRECTION ( 'NONE',  ( 1.000000000000000000, 0.000000000000000000, 0.000000000000000000 ) ) ;
#157 = EDGE_CURVE ( 'NONE', #225, #230, #154, .T. ) ;
#158 = FACE_BOUND ( 'NONE', #59, .T. ) ;
#159 = DIRECTION ( 'NONE',  ( 1.000000000000000000, 0.000000000000000000, 0.000000000000000000 ) ) ;
#160 = CIRCLE ( 'NONE', #27, 4.500000000000000888 ) ;
#161 = DIRECTION ( 'NONE',  ( -0.000000000000000000, -0.000000000000000000, -1.000000000000000000 ) ) ;
#162 = PRODUCT_DEFINITION_FORMATION_WITH_SPECIFIED_SOURCE ( 'LIBOVOLNÝ', '', #322, .NOT_KNOWN. ) ;
#163 = DIRECTION ( 'NONE',  ( 1.000000000000000000, 0.000000000000000000, 0.000000000000000000 ) ) ;
#164 = CARTESIAN_POINT ( 'NONE',  ( 7.000000000000000000, 8.572527594031473190E-16, 0.000000000000000000 ) ) ;
#165 =( NAMED_UNIT ( * ) SI_UNIT ( $, .STERADIAN. ) SOLID_ANGLE_UNIT ( ) );
#166 = APPROVAL_DATE_TIME ( #173, #242 ) ;
#167 = ORIENTED_EDGE ( 'NONE', *, *, #330, .T. ) ;
#168 = DATE_TIME_ROLE ( 'creation_date' ) ;
#169 = CARTESIAN_POINT ( 'NONE',  ( 0.000000000000000000, 0.000000000000000000, 5.499999999999949374 ) ) ;
#170 = PRODUCT_RELATED_PRODUCT_CATEGORY ( 'detail', '', ( #322 ) ) ;
#171 = COORDINATED_UNIVERSAL_TIME_OFFSET ( 1, 0, .AHEAD. ) ;
#172 = ORIENTED_EDGE ( 'NONE', *, *, #9, .F. ) ;
#173 = DATE_AND_TIME ( #279, #271 ) ;
#174 = ORIENTED_EDGE ( 'NONE', *, *, #120, .T. ) ;
#175 = ORIENTED_EDGE ( 'NONE', *, *, #319, .F. ) ;
#176 = CARTESIAN_POINT ( 'NONE',  ( -7.000000000000000000, 0.000000000000000000, 5.000000000000000000 ) ) ;
#177 = VECTOR ( 'NONE', #62, 1000.000000000000000 ) ;
#178 = CC_DESIGN_PERSON_AND_ORGANIZATION_ASSIGNMENT ( #308, #88, ( #348 ) ) ;
#179 = LINE ( 'NONE', #5, #313 ) ;
#180 = CARTESIAN_POINT ( 'NONE',  ( 0.000000000000000000, 0.000000000000000000, 0.000000000000000000 ) ) ;
#181 = AXIS2_PLACEMENT_3D ( 'NONE', #52, #23, #84 ) ;
#182 = CARTESIAN_POINT ( 'NONE',  ( 0.000000000000000000, 0.000000000000000000, 0.000000000000000000 ) ) ;
#183 = CARTESIAN_POINT ( 'NONE',  ( 0.000000000000000000, 0.000000000000000000, 0.000000000000000000 ) ) ;
#184 = ORIENTED_EDGE ( 'NONE', *, *, #254, .F. ) ;
#185 = AXIS2_PLACEMENT_3D ( 'NONE', #199, #205, #121 ) ;
#186 = CYLINDRICAL_SURFACE ( 'NONE', #368, 7.000000000000000000 ) ;
#187 = ORGANIZATION ( 'NEURÈENÝ', 'NEURÈENÝ', '' ) ;
#188 = ORIENTED_EDGE ( 'NONE', *, *, #240, .F. ) ;
#189 = DIRECTION ( 'NONE',  ( 0.000000000000000000, 0.000000000000000000, 1.000000000000000000 ) ) ;
#190 = CIRCLE ( 'NONE', #332, 7.000000000000000000 ) ;
#191 = ORIENTED_EDGE ( 'NONE', *, *, #345, .T. ) ;
#192 = CIRCLE ( 'NONE', #83, 2.000000000000000000 ) ;
#193 = DIRECTION ( 'NONE',  ( 1.000000000000000000, 0.000000000000000000, 0.000000000000000000 ) ) ;
#194 = PERSON_AND_ORGANIZATION ( #257, #187 ) ;
#195 = ORIENTED_EDGE ( 'NONE', *, *, #31, .F. ) ;
#196 = PERSON_AND_ORGANIZATION ( #257, #187 ) ;
#197 = DIRECTION ( 'NONE',  ( -0.000000000000000000, -0.000000000000000000, -1.000000000000000000 ) ) ;
#198 = EDGE_LOOP ( 'NONE', ( #172, #45, #50, #195 ) ) ;
#199 = CARTESIAN_POINT ( 'NONE',  ( 0.000000000000000000, 0.000000000000000000, 755.0000000000000000 ) ) ;
#200 = PRODUCT_DEFINITION_SHAPE ( 'NONE', 'NONE',  #348 ) ;
#201 = ADVANCED_FACE ( 'NONE', ( #320 ), #204, .F. ) ;
#202 = CARTESIAN_POINT ( 'NONE',  ( 0.000000000000000000, 0.000000000000000000, 755.0000000000000000 ) ) ;
#203 = VECTOR ( 'NONE', #197, 1000.000000000000000 ) ;
#204 = TOROIDAL_SURFACE ( 'NONE', #305, 4.500000000000000888, 0.5000000000000000000 ) ;
#205 = DIRECTION ( 'NONE',  ( 0.000000000000000000, 0.000000000000000000, -1.000000000000000000 ) ) ;
#206 = ADVANCED_FACE ( 'NONE', ( #150 ), #1, .T. ) ;
#207 = DIRECTION ( 'NONE',  ( 1.000000000000000000, 0.000000000000000000, 0.000000000000000000 ) ) ;
#208 = APPROVAL ( #115, 'NEURÈENÝ' ) ;
#209 = DIRECTION ( 'NONE',  ( 0.000000000000000000, 0.000000000000000000, 1.000000000000000000 ) ) ;
#210 = CIRCLE ( 'NONE', #41, 2.000000000000000000 ) ;
#211 = DIRECTION ( 'NONE',  ( 1.000000000000000000, 0.000000000000000000, 0.000000000000000000 ) ) ;
#212 = ORIENTED_EDGE ( 'NONE', *, *, #31, .T. ) ;
#213 = EDGE_LOOP ( 'NONE', ( #365, #174 ) ) ;
#214 = DIRECTION ( 'NONE',  ( 1.000000000000000000, 0.000000000000000000, 0.000000000000000000 ) ) ;
#215 = LOCAL_TIME ( 17, 29, 28.00000000000000000, #54 ) ;
#216 = DIRECTION ( 'NONE',  ( -0.000000000000000000, -0.000000000000000000, -1.000000000000000000 ) ) ;
#217 = LOCAL_TIME ( 17, 29, 28.00000000000000000, #280 ) ;
#218 = ORIENTED_EDGE ( 'NONE', *, *, #68, .T. ) ;
#219 = CARTESIAN_POINT ( 'NONE',  ( 2.000000000000000000, 2.449293598294706414E-16, 0.000000000000000000 ) ) ;
#220 = ORIENTED_EDGE ( 'NONE', *, *, #82, .T. ) ;
#221 = PERSON_AND_ORGANIZATION_ROLE ( 'design_owner' ) ;
#222 = EDGE_LOOP ( 'NONE', ( #191, #220, #112, #131 ) ) ;
#223 = CALENDAR_DATE ( 2022, 8, 7 ) ;
#224 = CIRCLE ( 'NONE', #105, 4.000000000000000000 ) ;
#225 = VERTEX_POINT ( 'NONE', #40 ) ;
#226 = CIRCLE ( 'NONE', #90, 4.500000000000000888 ) ;
#227 = VERTEX_POINT ( 'NONE', #355 ) ;
#228 = PERSON_AND_ORGANIZATION_ROLE ( 'design_supplier' ) ;
#229 = DIRECTION ( 'NONE',  ( 0.000000000000000000, 0.000000000000000000, 1.000000000000000000 ) ) ;
#230 = VERTEX_POINT ( 'NONE', #325 ) ;
#231 = VECTOR ( 'NONE', #260, 1000.000000000000000 ) ;
#232 = CARTESIAN_POINT ( 'NONE',  ( -4.000000000000000000, 0.000000000000000000, 5.499999999999949374 ) ) ;
#233 = DIRECTION ( 'NONE',  ( 0.000000000000000000, 0.000000000000000000, 1.000000000000000000 ) ) ;
#234 = DIRECTION ( 'NONE',  ( -0.000000000000000000, -0.000000000000000000, -1.000000000000000000 ) ) ;
#235 = DIRECTION ( 'NONE',  ( -1.000000000000000000, 0.000000000000000000, 0.000000000000000000 ) ) ;
#236 = DIRECTION ( 'NONE',  ( 1.000000000000000000, 0.000000000000000000, -0.000000000000000000 ) ) ;
#237 = VERTEX_POINT ( 'NONE', #69 ) ;
#238 = LOCAL_TIME ( 17, 29, 28.00000000000000000, #258 ) ;
#239 = DIRECTION ( 'NONE',  ( 0.000000000000000000, 0.000000000000000000, 1.000000000000000000 ) ) ;
#240 = EDGE_CURVE ( 'NONE', #372, #135, #314, .T. ) ;
#241 = CARTESIAN_POINT ( 'NONE',  ( 0.000000000000000000, 0.000000000000000000, 755.0000000000000000 ) ) ;
#242 = APPROVAL ( #20, 'NEURÈENÝ' ) ;
#243 = CARTESIAN_POINT ( 'NONE',  ( 0.000000000000000000, 0.000000000000000000, 755.0000000000000000 ) ) ;
#244 = ORIENTED_EDGE ( 'NONE', *, *, #144, .T. ) ;
#245 = ADVANCED_FACE ( 'NONE', ( #294 ), #268, .T. ) ;
#246 = CARTESIAN_POINT ( 'NONE',  ( 4.500000000000000888, 0.000000000000000000, 4.999999999999975131 ) ) ;
#247 = EDGE_CURVE ( 'NONE', #248, #372, #353, .T. ) ;
#248 = VERTEX_POINT ( 'NONE', #381 ) ;
#249 = APPROVAL_ROLE ( '' ) ;
#250 = ORIENTED_EDGE ( 'NONE', *, *, #12, .F. ) ;
#251 = AXIS2_PLACEMENT_3D ( 'NONE', #8, #323, #352 ) ;
#252 = VERTEX_POINT ( 'NONE', #232 ) ;
#253 = CC_DESIGN_APPROVAL ( #324, ( #19 ) ) ;
#254 = EDGE_CURVE ( 'NONE', #135, #372, #155, .T. ) ;
#255 =( NAMED_UNIT ( * ) PLANE_ANGLE_UNIT ( ) SI_UNIT ( $, .RADIAN. ) );
#256 = DIRECTION ( 'NONE',  ( 0.000000000000000000, 0.000000000000000000, 1.000000000000000000 ) ) ;
#257 = PERSON ( 'NEURÈENÝ', 'NEURÈENÝ', 'NEURÈENÝ', ('NEURÈENÝ'), ('NEURÈENÝ'), ('NEURÈENÝ') ) ;
#258 = COORDINATED_UNIVERSAL_TIME_OFFSET ( 1, 0, .AHEAD. ) ;
#259 = DIRECTION ( 'NONE',  ( 1.000000000000000000, 0.000000000000000000, 0.000000000000000000 ) ) ;
#260 = DIRECTION ( 'NONE',  ( -0.000000000000000000, -0.000000000000000000, -1.000000000000000000 ) ) ;
#261 = CARTESIAN_POINT ( 'NONE',  ( 0.000000000000000000, 0.000000000000000000, 755.0000000000000000 ) ) ;
#262 = DIRECTION ( 'NONE',  ( -0.000000000000000000, -0.000000000000000000, -1.000000000000000000 ) ) ;
#263 = UNCERTAINTY_MEASURE_WITH_UNIT (LENGTH_MEASURE( 1.000000000000000082E-05 ), #336, 'distance_accuracy_value', 'NONE');
#264 = ADVANCED_FACE ( 'NONE', ( #44, #73 ), #362, .T. ) ;
#265 = CARTESIAN_POINT ( 'NONE',  ( 0.000000000000000000, 0.000000000000000000, 5.000000000000000000 ) ) ;
#266 = AXIS2_PLACEMENT_3D ( 'NONE', #317, #316, #342 ) ;
#267 = LOCAL_TIME ( 17, 29, 28.00000000000000000, #58 ) ;
#268 = CYLINDRICAL_SURFACE ( 'NONE', #349, 7.000000000000000000 ) ;
#269 = PLANE ( 'NONE',  #64 ) ;
#270 = CARTESIAN_POINT ( 'NONE',  ( 0.000000000000000000, 0.000000000000000000, 0.000000000000000000 ) ) ;
#271 = LOCAL_TIME ( 17, 29, 28.00000000000000000, #171 ) ;
#272 = DIRECTION ( 'NONE',  ( 1.000000000000000000, 0.000000000000000000, -0.000000000000000000 ) ) ;
#273 = ORIENTED_EDGE ( 'NONE', *, *, #254, .T. ) ;
#274 = DIRECTION ( 'NONE',  ( 0.000000000000000000, 0.000000000000000000, 1.000000000000000000 ) ) ;
#275 = CARTESIAN_POINT ( 'NONE',  ( 0.000000000000000000, 0.000000000000000000, 5.000000000000000000 ) ) ;
#276 = ORIENTED_EDGE ( 'NONE', *, *, #61, .F. ) ;
#277 = CC_DESIGN_DATE_AND_TIME_ASSIGNMENT ( #312, #168, ( #348 ) ) ;
#278 = CIRCLE ( 'NONE', #71, 4.000000000000000000 ) ;
#279 = CALENDAR_DATE ( 2022, 8, 7 ) ;
#280 = COORDINATED_UNIVERSAL_TIME_OFFSET ( 1, 0, .AHEAD. ) ;
#281 = ORIENTED_EDGE ( 'NONE', *, *, #157, .F. ) ;
#282 = CARTESIAN_POINT ( 'NONE',  ( 0.000000000000000000, 0.000000000000000000, 5.000000000000000000 ) ) ;
#283 = CALENDAR_DATE ( 2022, 8, 7 ) ;
#284 = VECTOR ( 'NONE', #234, 1000.000000000000000 ) ;
#285 = CARTESIAN_POINT ( 'NONE',  ( 0.000000000000000000, 0.000000000000000000, 755.0000000000000000 ) ) ;
#286 = APPLICATION_PROTOCOL_DEFINITION ( 'international standard', 'config_control_design', 1994, #153 ) ;
#287 = DIRECTION ( 'NONE',  ( 0.000000000000000000, 0.000000000000000000, 1.000000000000000000 ) ) ;
#288 = DIRECTION ( 'NONE',  ( -0.000000000000000000, -0.000000000000000000, -1.000000000000000000 ) ) ;
#289 = ADVANCED_BREP_SHAPE_REPRESENTATION ( '2619', ( #296, #181 ), #136 ) ;
#290 = DIRECTION ( 'NONE',  ( -0.000000000000000000, -0.000000000000000000, -1.000000000000000000 ) ) ;
#291 = DESIGN_CONTEXT ( 'detailed design', #153, 'design' ) ;
#292 = DIRECTION ( 'NONE',  ( 1.000000000000000000, 0.000000000000000000, 0.000000000000000000 ) ) ;
#293 = DIRECTION ( 'NONE',  ( 0.000000000000000000, 0.000000000000000000, 1.000000000000000000 ) ) ;
#294 = FACE_OUTER_BOUND ( 'NONE', #309, .T. ) ;
#295 = CC_DESIGN_APPROVAL ( #242, ( #348 ) ) ;
#296 = MANIFOLD_SOLID_BREP ( 'Odebrat vysunutím3', #148 ) ;
#297 = FACE_OUTER_BOUND ( 'NONE', #198, .T. ) ;
#298 = EDGE_CURVE ( 'NONE', #230, #225, #361, .T. ) ;
#299 = CARTESIAN_POINT ( 'NONE',  ( 0.000000000000000000, 0.000000000000000000, 755.0000000000000000 ) ) ;
#300 = ADVANCED_FACE ( 'NONE', ( #14 ), #186, .T. ) ;
#301 = ORIENTED_EDGE ( 'NONE', *, *, #68, .F. ) ;
#302 = DIRECTION ( 'NONE',  ( 1.000000000000000000, 0.000000000000000000, 0.000000000000000000 ) ) ;
#303 = ADVANCED_FACE ( 'NONE', ( #46 ), #366, .F. ) ;
#304 = ORIENTED_EDGE ( 'NONE', *, *, #12, .T. ) ;
#305 = AXIS2_PLACEMENT_3D ( 'NONE', #326, #39, #207 ) ;
#306 = PERSON_AND_ORGANIZATION ( #257, #187 ) ;
#307 = VERTEX_POINT ( 'NONE', #11 ) ;
#308 = PERSON_AND_ORGANIZATION ( #257, #187 ) ;
#309 = EDGE_LOOP ( 'NONE', ( #139, #49, #374, #344 ) ) ;
#310 = PERSON_AND_ORGANIZATION ( #257, #187 ) ;
#311 = EDGE_LOOP ( 'NONE', ( #53, #92, #74, #146 ) ) ;
#312 = DATE_AND_TIME ( #283, #215 ) ;
#313 = VECTOR ( 'NONE', #127, 1000.000000000000000 ) ;
#314 = CIRCLE ( 'NONE', #6, 7.000000000000000000 ) ;
#315 = EDGE_CURVE ( 'NONE', #230, #252, #130, .T. ) ;
#316 = DIRECTION ( 'NONE',  ( 1.224646799147353207E-16, 1.000000000000000000, -0.000000000000000000 ) ) ;
#317 = CARTESIAN_POINT ( 'NONE',  ( -4.500000000000000888, 5.510910596163089556E-16, 5.499999999999949374 ) ) ;
#318 = DIRECTION ( 'NONE',  ( -1.000000000000000000, 0.000000000000000000, 0.000000000000000000 ) ) ;
#319 = EDGE_CURVE ( 'NONE', #331, #26, #192, .T. ) ;
#320 = FACE_OUTER_BOUND ( 'NONE', #17, .T. ) ;
#321 = TOROIDAL_SURFACE ( 'NONE', #357, 4.500000000000000888, 0.5000000000000000000 ) ;
#322 = PRODUCT ( '2619', '2619', '', ( #343 ) ) ;
#323 = DIRECTION ( 'NONE',  ( -0.000000000000000000, -0.000000000000000000, -1.000000000000000000 ) ) ;
#324 = APPROVAL ( #138, 'NEURÈENÝ' ) ;
#325 = CARTESIAN_POINT ( 'NONE',  ( -4.000000000000000000, 0.000000000000000000, 755.0000000000000000 ) ) ;
#326 = CARTESIAN_POINT ( 'NONE',  ( 0.000000000000000000, 0.000000000000000000, 5.499999999999949374 ) ) ;
#327 = APPROVAL_PERSON_ORGANIZATION ( #194, #324, #78 ) ;
#328 = CARTESIAN_POINT ( 'NONE',  ( -4.000000000000000000, 0.000000000000000000, 755.0000000000000000 ) ) ;
#329 = ORIENTED_EDGE ( 'NONE', *, *, #354, .T. ) ;
#330 = EDGE_CURVE ( 'NONE', #363, #237, #226, .T. ) ;
#331 = VERTEX_POINT ( 'NONE', #219 ) ;
#332 = AXIS2_PLACEMENT_3D ( 'NONE', #282, #229, #370 ) ;
#333 = VECTOR ( 'NONE', #104, 1000.000000000000000 ) ;
#334 = DIRECTION ( 'NONE',  ( 1.000000000000000000, 0.000000000000000000, 0.000000000000000000 ) ) ;
#335 = EDGE_LOOP ( 'NONE', ( #106, #60 ) ) ;
#336 =( LENGTH_UNIT ( ) NAMED_UNIT ( * ) SI_UNIT ( .MILLI., .METRE. ) );
#337 = APPROVAL_ROLE ( '' ) ;
#338 = DIRECTION ( 'NONE',  ( 0.000000000000000000, 0.000000000000000000, -1.000000000000000000 ) ) ;
#339 = AXIS2_PLACEMENT_3D ( 'NONE', #123, #290, #292 ) ;
#340 = APPROVAL_PERSON_ORGANIZATION ( #306, #242, #337 ) ;
#341 = PERSON_AND_ORGANIZATION ( #257, #187 ) ;
#342 = DIRECTION ( 'NONE',  ( -1.000000000000000000, 1.224646799147351482E-16, 0.000000000000000000 ) ) ;
#343 = MECHANICAL_CONTEXT ( 'NONE', #2, 'mechanical' ) ;
#344 = ORIENTED_EDGE ( 'NONE', *, *, #144, .F. ) ;
#345 = EDGE_CURVE ( 'NONE', #18, #307, #210, .T. ) ;
#346 = DATE_AND_TIME ( #86, #217 ) ;
#347 = ORIENTED_EDGE ( 'NONE', *, *, #9, .T. ) ;
#348 = PRODUCT_DEFINITION ( 'NEZNÁMÝ', '', #162, #291 ) ;
#349 = AXIS2_PLACEMENT_3D ( 'NONE', #70, #288, #318 ) ;
#350 = EDGE_LOOP ( 'NONE', ( #167, #212 ) ) ;
#351 = CC_DESIGN_DATE_AND_TIME_ASSIGNMENT ( #346, #111, ( #19 ) ) ;
#352 = DIRECTION ( 'NONE',  ( -1.000000000000000000, 0.000000000000000000, 0.000000000000000000 ) ) ;
#353 = LINE ( 'NONE', #147, #231 ) ;
#354 = EDGE_CURVE ( 'NONE', #227, #252, #278, .T. ) ;
#355 = CARTESIAN_POINT ( 'NONE',  ( 4.000000000000000000, 4.898587196589412829E-16, 5.499999999999949374 ) ) ;
#356 = CIRCLE ( 'NONE', #63, 7.000000000000000000 ) ;
#357 = AXIS2_PLACEMENT_3D ( 'NONE', #103, #133, #211 ) ;
#358 = FACE_BOUND ( 'NONE', #350, .T. ) ;
#359 = CYLINDRICAL_SURFACE ( 'NONE', #251, 4.000000000000000000 ) ;
#360 = CARTESIAN_POINT ( 'NONE',  ( 0.000000000000000000, 0.000000000000000000, 755.0000000000000000 ) ) ;
#361 = CIRCLE ( 'NONE', #75, 4.000000000000000000 ) ;
#362 = PLANE ( 'NONE',  #119 ) ;
#363 = VERTEX_POINT ( 'NONE', #246 ) ;
#364 = DIRECTION ( 'NONE',  ( 0.000000000000000000, 0.000000000000000000, 1.000000000000000000 ) ) ;
#365 = ORIENTED_EDGE ( 'NONE', *, *, #42, .T. ) ;
#366 = CYLINDRICAL_SURFACE ( 'NONE', #125, 2.000000000000000000 ) ;
#367 = EDGE_LOOP ( 'NONE', ( #114, #304, #47, #218 ) ) ;
#368 = AXIS2_PLACEMENT_3D ( 'NONE', #275, #72, #101 ) ;
#369 = ADVANCED_FACE ( 'NONE', ( #158, #48 ), #269, .F. ) ;
#370 = DIRECTION ( 'NONE',  ( 1.000000000000000000, 0.000000000000000000, 0.000000000000000000 ) ) ;
#371 = APPROVAL_DATE_TIME ( #377, #324 ) ;
#372 = VERTEX_POINT ( 'NONE', #164 ) ;
#373 = PERSON_AND_ORGANIZATION_ROLE ( 'classification_officer' ) ;
#374 = ORIENTED_EDGE ( 'NONE', *, *, #240, .T. ) ;
#375 = CARTESIAN_POINT ( 'NONE',  ( -2.000000000000000000, 0.000000000000000000, 0.000000000000000000 ) ) ;
#376 = ADVANCED_FACE ( 'NONE', ( #297 ), #321, .F. ) ;
#377 = DATE_AND_TIME ( #145, #238 ) ;
#378 = CARTESIAN_POINT ( 'NONE',  ( 0.000000000000000000, 0.000000000000000000, 5.000000000000000000 ) ) ;
#379 = CIRCLE ( 'NONE', #134, 2.000000000000000000 ) ;
#380 = AXIS2_PLACEMENT_3D ( 'NONE', #202, #262, #235 ) ;
#381 = CARTESIAN_POINT ( 'NONE',  ( 7.000000000000000000, 8.572527594031473190E-16, 5.000000000000000000 ) ) ;
ENDSEC;
END-ISO-10303-21;
