ISO-10303-21;
HEADER;
FILE_DESCRIPTION (( 'STEP AP203' ),
    '1' );
FILE_NAME ('329e.STEP',
    '2022-07-08T15:16:44',
    ( '' ),
    ( '' ),
    'SwSTEP 2.0',
    'SolidWorks 2019',
    '' );
FILE_SCHEMA (( 'CONFIG_CONTROL_DESIGN' ));
ENDSEC;

DATA;
#1 = VERTEX_POINT ( 'NONE', #257 ) ;
#2 = CARTESIAN_POINT ( 'NONE',  ( -5.000000000000000000, 0.000000000000000000, 205.0000000000000284 ) ) ;
#3 = ORIENTED_EDGE ( 'NONE', *, *, #299, .F. ) ;
#4 = FACE_BOUND ( 'NONE', #364, .T. ) ;
#5 = AXIS2_PLACEMENT_3D ( 'NONE', #351, #265, #84 ) ;
#6 = AXIS2_PLACEMENT_3D ( 'NONE', #157, #32, #361 ) ;
#7 = VERTEX_POINT ( 'NONE', #253 ) ;
#8 = FACE_OUTER_BOUND ( 'NONE', #298, .T. ) ;
#9 = CARTESIAN_POINT ( 'NONE',  ( 0.000000000000000000, 0.000000000000000000, 5.000000000000000000 ) ) ;
#10 = LINE ( 'NONE', #59, #235 ) ;
#11 = ORIENTED_EDGE ( 'NONE', *, *, #243, .T. ) ;
#12 = CIRCLE ( 'NONE', #372, 2.500000000000000000 ) ;
#13 = EDGE_CURVE ( 'NONE', #71, #7, #307, .T. ) ;
#14 = APPLICATION_PROTOCOL_DEFINITION ( 'international standard', 'config_control_design', 1994, #283 ) ;
#15 = CYLINDRICAL_SURFACE ( 'NONE', #65, 5.000000000000000000 ) ;
#16 = DIRECTION ( 'NONE',  ( 0.000000000000000000, 0.000000000000000000, 1.000000000000000000 ) ) ;
#17 = PERSON_AND_ORGANIZATION ( #63, #144 ) ;
#18 = DIRECTION ( 'NONE',  ( 0.000000000000000000, 0.000000000000000000, 1.000000000000000000 ) ) ;
#19 = VECTOR ( 'NONE', #185, 1000.000000000000000 ) ;
#20 = PERSON_AND_ORGANIZATION ( #63, #144 ) ;
#21 = FACE_BOUND ( 'NONE', #324, .T. ) ;
#22 = APPROVAL ( #106, 'NEURÈENÝ' ) ;
#23 = CARTESIAN_POINT ( 'NONE',  ( 5.500000000000000000, 0.000000000000000000, 5.500000000000005329 ) ) ;
#24 = AXIS2_PLACEMENT_3D ( 'NONE', #347, #18, #221 ) ;
#25 = DIRECTION ( 'NONE',  ( 0.000000000000000000, 0.000000000000000000, -1.000000000000000000 ) ) ;
#26 = AXIS2_PLACEMENT_3D ( 'NONE', #145, #236, #204 ) ;
#27 = PRODUCT_RELATED_PRODUCT_CATEGORY ( 'detail', '', ( #54 ) ) ;
#28 = DIRECTION ( 'NONE',  ( 0.000000000000000000, 0.000000000000000000, 1.000000000000000000 ) ) ;
#29 = DIRECTION ( 'NONE',  ( 0.000000000000000000, 0.000000000000000000, 1.000000000000000000 ) ) ;
#30 = CC_DESIGN_APPROVAL ( #339, ( #227 ) ) ;
#31 = EDGE_CURVE ( 'NONE', #71, #107, #149, .T. ) ;
#32 = DIRECTION ( 'NONE',  ( 0.000000000000000000, 0.000000000000000000, -1.000000000000000000 ) ) ;
#33 = ORIENTED_EDGE ( 'NONE', *, *, #31, .F. ) ;
#34 = PLANE ( 'NONE',  #208 ) ;
#35 = ORIENTED_EDGE ( 'NONE', *, *, #233, .T. ) ;
#36 = ADVANCED_FACE ( 'NONE', ( #255 ), #73, .T. ) ;
#37 = DIRECTION ( 'NONE',  ( -0.000000000000000000, -0.000000000000000000, -1.000000000000000000 ) ) ;
#38 = AXIS2_PLACEMENT_3D ( 'NONE', #270, #241, #147 ) ;
#39 = VERTEX_POINT ( 'NONE', #165 ) ;
#40 = DIRECTION ( 'NONE',  ( 0.000000000000000000, 0.000000000000000000, 1.000000000000000000 ) ) ;
#41 = CARTESIAN_POINT ( 'NONE',  ( 0.000000000000000000, 0.000000000000000000, 205.0000000000000284 ) ) ;
#42 = AXIS2_PLACEMENT_3D ( 'NONE', #277, #230, #160 ) ;
#43 = CIRCLE ( 'NONE', #26, 5.500000000000000000 ) ;
#44 = EDGE_CURVE ( 'NONE', #123, #245, #115, .T. ) ;
#45 = APPROVAL_STATUS ( 'not_yet_approved' ) ;
#46 = DIRECTION ( 'NONE',  ( 0.000000000000000000, -1.000000000000000000, 0.000000000000000000 ) ) ;
#47 = DATE_TIME_ROLE ( 'classification_date' ) ;
#48 = CALENDAR_DATE ( 2022, 8, 7 ) ;
#49 = ADVANCED_FACE ( 'NONE', ( #21, #276 ), #229, .T. ) ;
#50 = AXIS2_PLACEMENT_3D ( 'NONE', #138, #379, #286 ) ;
#51 = CARTESIAN_POINT ( 'NONE',  ( 5.000000000000000000, 6.123233995736766282E-16, 5.500000000000005329 ) ) ;
#52 = CC_DESIGN_DATE_AND_TIME_ASSIGNMENT ( #159, #47, ( #116 ) ) ;
#53 = DIRECTION ( 'NONE',  ( 1.000000000000000000, 0.000000000000000000, 0.000000000000000000 ) ) ;
#54 = PRODUCT ( '329e', '329e', '', ( #338 ) ) ;
#55 = ORIENTED_EDGE ( 'NONE', *, *, #359, .F. ) ;
#56 = PLANE ( 'NONE',  #50 ) ;
#57 = EDGE_CURVE ( 'NONE', #242, #39, #315, .T. ) ;
#58 = CC_DESIGN_SECURITY_CLASSIFICATION ( #116, ( #266 ) ) ;
#59 = CARTESIAN_POINT ( 'NONE',  ( 2.500000000000000000, 3.061616997868383141E-16, 205.0000000000000284 ) ) ;
#60 = ORIENTED_EDGE ( 'NONE', *, *, #207, .T. ) ;
#61 = FACE_OUTER_BOUND ( 'NONE', #179, .T. ) ;
#62 = EDGE_LOOP ( 'NONE', ( #3, #321, #282, #290 ) ) ;
#63 = PERSON ( 'NEURÈENÝ', 'NEURÈENÝ', 'NEURÈENÝ', ('NEURÈENÝ'), ('NEURÈENÝ'), ('NEURÈENÝ') ) ;
#64 = CYLINDRICAL_SURFACE ( 'NONE', #272, 8.000000000000000000 ) ;
#65 = AXIS2_PLACEMENT_3D ( 'NONE', #259, #285, #313 ) ;
#66 = ORIENTED_EDGE ( 'NONE', *, *, #292, .T. ) ;
#67 = DIRECTION ( 'NONE',  ( 0.000000000000000000, 0.000000000000000000, 1.000000000000000000 ) ) ;
#68 = AXIS2_PLACEMENT_3D ( 'NONE', #263, #264, #168 ) ;
#69 = ORIENTED_EDGE ( 'NONE', *, *, #348, .T. ) ;
#70 = DIRECTION ( 'NONE',  ( -0.000000000000000000, -0.000000000000000000, -1.000000000000000000 ) ) ;
#71 = VERTEX_POINT ( 'NONE', #51 ) ;
#72 = PERSON_AND_ORGANIZATION_ROLE ( 'design_supplier' ) ;
#73 = CYLINDRICAL_SURFACE ( 'NONE', #94, 8.000000000000000000 ) ;
#74 = DATE_TIME_ROLE ( 'creation_date' ) ;
#75 = CARTESIAN_POINT ( 'NONE',  ( -8.000000000000000000, 0.000000000000000000, 5.000000000000000000 ) ) ;
#76 = AXIS2_PLACEMENT_3D ( 'NONE', #288, #28, #377 ) ;
#77 = PERSON_AND_ORGANIZATION ( #63, #144 ) ;
#78 = FACE_OUTER_BOUND ( 'NONE', #271, .T. ) ;
#79 = PERSON_AND_ORGANIZATION_ROLE ( 'design_owner' ) ;
#80 = DIRECTION ( 'NONE',  ( -0.000000000000000000, -0.000000000000000000, -1.000000000000000000 ) ) ;
#81 = DATE_AND_TIME ( #275, #240 ) ;
#82 = DIRECTION ( 'NONE',  ( 1.224646799147353207E-16, 1.000000000000000000, -0.000000000000000000 ) ) ;
#83 = VECTOR ( 'NONE', #209, 1000.000000000000000 ) ;
#84 = DIRECTION ( 'NONE',  ( 1.000000000000000000, 0.000000000000000000, 0.000000000000000000 ) ) ;
#85 = EDGE_CURVE ( 'NONE', #7, #153, #200, .T. ) ;
#86 = CARTESIAN_POINT ( 'NONE',  ( -2.500000000000000000, 0.000000000000000000, 205.0000000000000284 ) ) ;
#87 = FACE_OUTER_BOUND ( 'NONE', #362, .T. ) ;
#88 = AXIS2_PLACEMENT_3D ( 'NONE', #306, #269, #214 ) ;
#89 = DIRECTION ( 'NONE',  ( 1.000000000000000000, 0.000000000000000000, 0.000000000000000000 ) ) ;
#90 = ORIENTED_EDGE ( 'NONE', *, *, #44, .F. ) ;
#91 = SHAPE_DEFINITION_REPRESENTATION ( #201, #212 ) ;
#92 = DIRECTION ( 'NONE',  ( 1.000000000000000000, 0.000000000000000000, 0.000000000000000000 ) ) ;
#93 = EDGE_LOOP ( 'NONE', ( #186, #337, #287, #360 ) ) ;
#94 = AXIS2_PLACEMENT_3D ( 'NONE', #344, #80, #371 ) ;
#95 = LINE ( 'NONE', #334, #96 ) ;
#96 = VECTOR ( 'NONE', #70, 1000.000000000000000 ) ;
#97 = LINE ( 'NONE', #2, #19 ) ;
#98 = ORIENTED_EDGE ( 'NONE', *, *, #134, .T. ) ;
#99 = CC_DESIGN_PERSON_AND_ORGANIZATION_ASSIGNMENT ( #77, #314, ( #116 ) ) ;
#100 = FACE_OUTER_BOUND ( 'NONE', #215, .T. ) ;
#101 = DIRECTION ( 'NONE',  ( 1.000000000000000000, 0.000000000000000000, 0.000000000000000000 ) ) ;
#102 = ORIENTED_EDGE ( 'NONE', *, *, #292, .F. ) ;
#103 = LOCAL_TIME ( 17, 16, 44.00000000000000000, #312 ) ;
#104 = VERTEX_POINT ( 'NONE', #342 ) ;
#105 = ADVANCED_FACE ( 'NONE', ( #78 ), #15, .T. ) ;
#106 = APPROVAL_STATUS ( 'not_yet_approved' ) ;
#107 = VERTEX_POINT ( 'NONE', #135 ) ;
#108 = COORDINATED_UNIVERSAL_TIME_OFFSET ( 1, 0, .AHEAD. ) ;
#109 = CALENDAR_DATE ( 2022, 8, 7 ) ;
#110 = CARTESIAN_POINT ( 'NONE',  ( 0.000000000000000000, 0.000000000000000000, 0.000000000000000000 ) ) ;
#111 = AXIS2_PLACEMENT_3D ( 'NONE', #350, #355, #92 ) ;
#112 = EDGE_CURVE ( 'NONE', #39, #1, #180, .T. ) ;
#113 = PERSON_AND_ORGANIZATION ( #63, #144 ) ;
#114 = CARTESIAN_POINT ( 'NONE',  ( 0.000000000000000000, 0.000000000000000000, 0.000000000000000000 ) ) ;
#115 = CIRCLE ( 'NONE', #190, 2.500000000000000000 ) ;
#116 = SECURITY_CLASSIFICATION ( '', '', #258 ) ;
#117 = EDGE_CURVE ( 'NONE', #202, #328, #142, .T. ) ;
#118 = CARTESIAN_POINT ( 'NONE',  ( 0.000000000000000000, 0.000000000000000000, 0.000000000000000000 ) ) ;
#119 = CARTESIAN_POINT ( 'NONE',  ( 0.000000000000000000, 0.000000000000000000, 205.0000000000000284 ) ) ;
#120 = ORIENTED_EDGE ( 'NONE', *, *, #237, .T. ) ;
#121 = ADVANCED_FACE ( 'NONE', ( #353 ), #232, .F. ) ;
#122 = AXIS2_PLACEMENT_3D ( 'NONE', #126, #238, #329 ) ;
#123 = VERTEX_POINT ( 'NONE', #167 ) ;
#124 = AXIS2_PLACEMENT_3D ( 'NONE', #137, #82, #225 ) ;
#125 = CC_DESIGN_PERSON_AND_ORGANIZATION_ASSIGNMENT ( #309, #223, ( #266 ) ) ;
#126 = CARTESIAN_POINT ( 'NONE',  ( 0.000000000000000000, 0.000000000000000000, 0.000000000000000000 ) ) ;
#127 = DIRECTION ( 'NONE',  ( 0.000000000000000000, 0.000000000000000000, 1.000000000000000000 ) ) ;
#128 = ORIENTED_EDGE ( 'NONE', *, *, #311, .F. ) ;
#129 = FACE_OUTER_BOUND ( 'NONE', #62, .T. ) ;
#130 = ORIENTED_EDGE ( 'NONE', *, *, #172, .T. ) ;
#131 = APPROVAL_ROLE ( '' ) ;
#132 = CIRCLE ( 'NONE', #248, 8.000000000000000000 ) ;
#133 =( LENGTH_UNIT ( ) NAMED_UNIT ( * ) SI_UNIT ( .MILLI., .METRE. ) );
#134 = EDGE_CURVE ( 'NONE', #247, #376, #366, .T. ) ;
#135 = CARTESIAN_POINT ( 'NONE',  ( 5.500000000000000000, 0.000000000000000000, 5.000000000000002665 ) ) ;
#136 = VECTOR ( 'NONE', #325, 1000.000000000000000 ) ;
#137 = CARTESIAN_POINT ( 'NONE',  ( -5.500000000000000000, 6.735557395310442023E-16, 5.500000000000005329 ) ) ;
#138 = CARTESIAN_POINT ( 'NONE',  ( 0.000000000000000000, 0.000000000000000000, 0.000000000000000000 ) ) ;
#139 = APPROVAL_PERSON_ORGANIZATION ( #373, #339, #370 ) ;
#140 = DIRECTION ( 'NONE',  ( 1.000000000000000000, 0.000000000000000000, 0.000000000000000000 ) ) ;
#141 = ADVANCED_FACE ( 'NONE', ( #380 ), #222, .F. ) ;
#142 = CIRCLE ( 'NONE', #346, 2.500000000000000000 ) ;
#143 = DIRECTION ( 'NONE',  ( -1.000000000000000000, 0.000000000000000000, 0.000000000000000000 ) ) ;
#144 = ORGANIZATION ( 'NEURÈENÝ', 'NEURÈENÝ', '' ) ;
#145 = CARTESIAN_POINT ( 'NONE',  ( 0.000000000000000000, 0.000000000000000000, 5.000000000000000000 ) ) ;
#146 = ORIENTED_EDGE ( 'NONE', *, *, #112, .F. ) ;
#147 = DIRECTION ( 'NONE',  ( 1.000000000000000000, 0.000000000000000000, 0.000000000000000000 ) ) ;
#148 = ORIENTED_EDGE ( 'NONE', *, *, #207, .F. ) ;
#149 = CIRCLE ( 'NONE', #254, 0.5000000000000004441 ) ;
#150 = CARTESIAN_POINT ( 'NONE',  ( 2.500000000000000000, 3.061616997868383141E-16, 205.0000000000000284 ) ) ;
#151 = AXIS2_PLACEMENT_3D ( 'NONE', #374, #198, #291 ) ;
#152 = MANIFOLD_SOLID_BREP ( 'Odebrat vysunutím3', #331 ) ;
#153 = VERTEX_POINT ( 'NONE', #349 ) ;
#154 = UNCERTAINTY_MEASURE_WITH_UNIT (LENGTH_MEASURE( 1.000000000000000082E-05 ), #133, 'distance_accuracy_value', 'NONE');
#155 = ORIENTED_EDGE ( 'NONE', *, *, #112, .T. ) ;
#156 = DIRECTION ( 'NONE',  ( 1.000000000000000000, 0.000000000000000000, -0.000000000000000000 ) ) ;
#157 = CARTESIAN_POINT ( 'NONE',  ( 0.000000000000000000, 0.000000000000000000, 205.0000000000000284 ) ) ;
#158 = ORIENTED_EDGE ( 'NONE', *, *, #197, .T. ) ;
#159 = DATE_AND_TIME ( #48, #175 ) ;
#160 = DIRECTION ( 'NONE',  ( 1.000000000000000000, 0.000000000000000000, 0.000000000000000000 ) ) ;
#161 = CC_DESIGN_DATE_AND_TIME_ASSIGNMENT ( #284, #74, ( #227 ) ) ;
#162 = APPROVAL_ROLE ( '' ) ;
#163 = AXIS2_PLACEMENT_3D ( 'NONE', #114, #16, #226 ) ;
#164 =( NAMED_UNIT ( * ) SI_UNIT ( $, .STERADIAN. ) SOLID_ANGLE_UNIT ( ) );
#165 = CARTESIAN_POINT ( 'NONE',  ( -8.000000000000000000, 0.000000000000000000, 0.000000000000000000 ) ) ;
#166 = CC_DESIGN_PERSON_AND_ORGANIZATION_ASSIGNMENT ( #341, #72, ( #266 ) ) ;
#167 = CARTESIAN_POINT ( 'NONE',  ( -2.500000000000000000, 0.000000000000000000, 0.000000000000000000 ) ) ;
#168 = DIRECTION ( 'NONE',  ( 1.000000000000000000, 0.000000000000000000, 0.000000000000000000 ) ) ;
#169 = AXIS2_PLACEMENT_3D ( 'NONE', #119, #25, #143 ) ;
#170 = ORIENTED_EDGE ( 'NONE', *, *, #57, .F. ) ;
#171 = CC_DESIGN_APPROVAL ( #22, ( #266 ) ) ;
#172 = EDGE_CURVE ( 'NONE', #107, #153, #43, .T. ) ;
#173 = DIRECTION ( 'NONE',  ( 1.000000000000000000, 0.000000000000000000, 0.000000000000000000 ) ) ;
#174 = ORIENTED_EDGE ( 'NONE', *, *, #251, .F. ) ;
#175 = LOCAL_TIME ( 17, 16, 44.00000000000000000, #308 ) ;
#176 = EDGE_LOOP ( 'NONE', ( #60, #234 ) ) ;
#177 = ADVANCED_FACE ( 'NONE', ( #323, #87 ), #56, .F. ) ;
#178 = DIRECTION ( 'NONE',  ( 1.000000000000000000, 0.000000000000000000, 0.000000000000000000 ) ) ;
#179 = EDGE_LOOP ( 'NONE', ( #98, #120 ) ) ;
#180 = CIRCLE ( 'NONE', #151, 8.000000000000000000 ) ;
#181 = CARTESIAN_POINT ( 'NONE',  ( 0.000000000000000000, 0.000000000000000000, 5.000000000000000000 ) ) ;
#182 = EDGE_LOOP ( 'NONE', ( #303, #295, #239, #33 ) ) ;
#183 = CIRCLE ( 'NONE', #68, 5.500000000000000000 ) ;
#184 = ADVANCED_FACE ( 'NONE', ( #375 ), #304, .F. ) ;
#185 = DIRECTION ( 'NONE',  ( -0.000000000000000000, -0.000000000000000000, -1.000000000000000000 ) ) ;
#186 = ORIENTED_EDGE ( 'NONE', *, *, #85, .F. ) ;
#187 = APPLICATION_CONTEXT ( 'configuration controlled 3d designs of mechanical parts and assemblies' ) ;
#188 = CARTESIAN_POINT ( 'NONE',  ( -2.500000000000000000, 0.000000000000000000, 205.0000000000000284 ) ) ;
#189 = EDGE_LOOP ( 'NONE', ( #274, #335, #367, #205 ) ) ;
#190 = AXIS2_PLACEMENT_3D ( 'NONE', #110, #195, #310 ) ;
#191 = DIRECTION ( 'NONE',  ( 0.000000000000000000, 0.000000000000000000, -1.000000000000000000 ) ) ;
#192 = CC_DESIGN_PERSON_AND_ORGANIZATION_ASSIGNMENT ( #20, #194, ( #227 ) ) ;
#193 = DATE_AND_TIME ( #218, #103 ) ;
#194 = PERSON_AND_ORGANIZATION_ROLE ( 'creator' ) ;
#195 = DIRECTION ( 'NONE',  ( -0.000000000000000000, -0.000000000000000000, -1.000000000000000000 ) ) ;
#196 = APPROVAL_DATE_TIME ( #81, #368 ) ;
#197 = EDGE_CURVE ( 'NONE', #1, #39, #224, .T. ) ;
#198 = DIRECTION ( 'NONE',  ( 0.000000000000000000, 0.000000000000000000, 1.000000000000000000 ) ) ;
#199 = CARTESIAN_POINT ( 'NONE',  ( 0.000000000000000000, 0.000000000000000000, 5.000000000000000000 ) ) ;
#200 = CIRCLE ( 'NONE', #124, 0.5000000000000004441 ) ;
#201 = PRODUCT_DEFINITION_SHAPE ( 'NONE', 'NONE',  #227 ) ;
#202 = VERTEX_POINT ( 'NONE', #86 ) ;
#203 = AXIS2_PLACEMENT_3D ( 'NONE', #9, #127, #178 ) ;
#204 = DIRECTION ( 'NONE',  ( 1.000000000000000000, 0.000000000000000000, 0.000000000000000000 ) ) ;
#205 = ORIENTED_EDGE ( 'NONE', *, *, #279, .F. ) ;
#206 = LINE ( 'NONE', #358, #83 ) ;
#207 = EDGE_CURVE ( 'NONE', #242, #104, #132, .T. ) ;
#208 = AXIS2_PLACEMENT_3D ( 'NONE', #244, #67, #156 ) ;
#209 = DIRECTION ( 'NONE',  ( -0.000000000000000000, -0.000000000000000000, -1.000000000000000000 ) ) ;
#210 = ORIENTED_EDGE ( 'NONE', *, *, #13, .T. ) ;
#211 = CYLINDRICAL_SURFACE ( 'NONE', #88, 5.000000000000000000 ) ;
#212 = ADVANCED_BREP_SHAPE_REPRESENTATION ( '329e', ( #152, #163 ), #333 ) ;
#213 = CC_DESIGN_PERSON_AND_ORGANIZATION_ASSIGNMENT ( #280, #79, ( #54 ) ) ;
#214 = DIRECTION ( 'NONE',  ( -1.000000000000000000, 0.000000000000000000, 0.000000000000000000 ) ) ;
#215 = EDGE_LOOP ( 'NONE', ( #219, #11, #210, #102 ) ) ;
#216 = LOCAL_TIME ( 17, 16, 44.00000000000000000, #249 ) ;
#217 = CARTESIAN_POINT ( 'NONE',  ( 2.500000000000000000, 3.061616997868383141E-16, 0.000000000000000000 ) ) ;
#218 = CALENDAR_DATE ( 2022, 8, 7 ) ;
#219 = ORIENTED_EDGE ( 'NONE', *, *, #237, .F. ) ;
#220 = CALENDAR_DATE ( 2022, 8, 7 ) ;
#221 = DIRECTION ( 'NONE',  ( 1.000000000000000000, 0.000000000000000000, -0.000000000000000000 ) ) ;
#222 = TOROIDAL_SURFACE ( 'NONE', #111, 5.500000000000000000, 0.5000000000000000000 ) ;
#223 = PERSON_AND_ORGANIZATION_ROLE ( 'creator' ) ;
#224 = CIRCLE ( 'NONE', #381, 8.000000000000000000 ) ;
#225 = DIRECTION ( 'NONE',  ( -1.000000000000000000, 1.224646799147351482E-16, 0.000000000000000000 ) ) ;
#226 = DIRECTION ( 'NONE',  ( 1.000000000000000000, 0.000000000000000000, 0.000000000000000000 ) ) ;
#227 = PRODUCT_DEFINITION ( 'NEZNÁMÝ', '', #266, #268 ) ;
#228 = APPROVAL_DATE_TIME ( #193, #22 ) ;
#229 = PLANE ( 'NONE',  #24 ) ;
#230 = DIRECTION ( 'NONE',  ( 0.000000000000000000, 0.000000000000000000, 1.000000000000000000 ) ) ;
#231 = APPROVAL_PERSON_ORGANIZATION ( #17, #368, #162 ) ;
#232 = CYLINDRICAL_SURFACE ( 'NONE', #169, 2.500000000000000000 ) ;
#233 = EDGE_CURVE ( 'NONE', #153, #107, #183, .T. ) ;
#234 = ORIENTED_EDGE ( 'NONE', *, *, #326, .T. ) ;
#235 = VECTOR ( 'NONE', #297, 1000.000000000000000 ) ;
#236 = DIRECTION ( 'NONE',  ( -0.000000000000000000, -0.000000000000000000, -1.000000000000000000 ) ) ;
#237 = EDGE_CURVE ( 'NONE', #376, #247, #296, .T. ) ;
#238 = DIRECTION ( 'NONE',  ( -0.000000000000000000, -0.000000000000000000, -1.000000000000000000 ) ) ;
#239 = ORIENTED_EDGE ( 'NONE', *, *, #172, .F. ) ;
#240 = LOCAL_TIME ( 17, 16, 44.00000000000000000, #345 ) ;
#241 = DIRECTION ( 'NONE',  ( 0.000000000000000000, 0.000000000000000000, 1.000000000000000000 ) ) ;
#242 = VERTEX_POINT ( 'NONE', #273 ) ;
#243 = EDGE_CURVE ( 'NONE', #376, #71, #206, .T. ) ;
#244 = CARTESIAN_POINT ( 'NONE',  ( 0.000000000000000000, 0.000000000000000000, 205.0000000000000284 ) ) ;
#245 = VERTEX_POINT ( 'NONE', #217 ) ;
#246 = DIRECTION ( 'NONE',  ( -1.000000000000000000, 0.000000000000000000, 0.000000000000000000 ) ) ;
#247 = VERTEX_POINT ( 'NONE', #300 ) ;
#248 = AXIS2_PLACEMENT_3D ( 'NONE', #199, #319, #53 ) ;
#249 = COORDINATED_UNIVERSAL_TIME_OFFSET ( 1, 0, .AHEAD. ) ;
#250 = ORIENTED_EDGE ( 'NONE', *, *, #197, .F. ) ;
#251 = EDGE_CURVE ( 'NONE', #104, #1, #95, .T. ) ;
#252 = DATE_AND_TIME ( #109, #320 ) ;
#253 = CARTESIAN_POINT ( 'NONE',  ( -5.000000000000000000, 0.000000000000000000, 5.500000000000005329 ) ) ;
#254 = AXIS2_PLACEMENT_3D ( 'NONE', #23, #46, #191 ) ;
#255 = FACE_OUTER_BOUND ( 'NONE', #305, .T. ) ;
#256 = CIRCLE ( 'NONE', #122, 2.500000000000000000 ) ;
#257 = CARTESIAN_POINT ( 'NONE',  ( 8.000000000000000000, 9.797174393178825657E-16, 0.000000000000000000 ) ) ;
#258 = SECURITY_CLASSIFICATION_LEVEL ( 'unclassified' ) ;
#259 = CARTESIAN_POINT ( 'NONE',  ( 0.000000000000000000, 0.000000000000000000, 205.0000000000000284 ) ) ;
#260 = ADVANCED_FACE ( 'NONE', ( #4, #61 ), #34, .T. ) ;
#261 = CC_DESIGN_APPROVAL ( #368, ( #116 ) ) ;
#262 = ORIENTED_EDGE ( 'NONE', *, *, #326, .F. ) ;
#263 = CARTESIAN_POINT ( 'NONE',  ( 0.000000000000000000, 0.000000000000000000, 5.000000000000000000 ) ) ;
#264 = DIRECTION ( 'NONE',  ( -0.000000000000000000, -0.000000000000000000, -1.000000000000000000 ) ) ;
#265 = DIRECTION ( 'NONE',  ( 0.000000000000000000, 0.000000000000000000, 1.000000000000000000 ) ) ;
#266 = PRODUCT_DEFINITION_FORMATION_WITH_SPECIFIED_SOURCE ( 'LIBOVOLNÝ', '', #54, .NOT_KNOWN. ) ;
#267 = DIRECTION ( 'NONE',  ( 0.000000000000000000, 0.000000000000000000, 1.000000000000000000 ) ) ;
#268 = DESIGN_CONTEXT ( 'detailed design', #283, 'design' ) ;
#269 = DIRECTION ( 'NONE',  ( -0.000000000000000000, -0.000000000000000000, -1.000000000000000000 ) ) ;
#270 = CARTESIAN_POINT ( 'NONE',  ( 0.000000000000000000, 0.000000000000000000, 5.500000000000005329 ) ) ;
#271 = EDGE_LOOP ( 'NONE', ( #332, #301, #66, #69 ) ) ;
#272 = AXIS2_PLACEMENT_3D ( 'NONE', #181, #37, #246 ) ;
#273 = CARTESIAN_POINT ( 'NONE',  ( -8.000000000000000000, 0.000000000000000000, 5.000000000000000000 ) ) ;
#274 = ORIENTED_EDGE ( 'NONE', *, *, #117, .T. ) ;
#275 = CALENDAR_DATE ( 2022, 8, 7 ) ;
#276 = FACE_OUTER_BOUND ( 'NONE', #176, .T. ) ;
#277 = CARTESIAN_POINT ( 'NONE',  ( 0.000000000000000000, 0.000000000000000000, 5.500000000000005329 ) ) ;
#278 = APPROVAL_STATUS ( 'not_yet_approved' ) ;
#279 = EDGE_CURVE ( 'NONE', #202, #123, #363, .T. ) ;
#280 = PERSON_AND_ORGANIZATION ( #63, #144 ) ;
#281 = CIRCLE ( 'NONE', #203, 8.000000000000000000 ) ;
#282 = ORIENTED_EDGE ( 'NONE', *, *, #279, .T. ) ;
#283 = APPLICATION_CONTEXT ( 'configuration controlled 3d designs of mechanical parts and assemblies' ) ;
#284 = DATE_AND_TIME ( #220, #216 ) ;
#285 = DIRECTION ( 'NONE',  ( -0.000000000000000000, -0.000000000000000000, -1.000000000000000000 ) ) ;
#286 = DIRECTION ( 'NONE',  ( 1.000000000000000000, 0.000000000000000000, -0.000000000000000000 ) ) ;
#287 = ORIENTED_EDGE ( 'NONE', *, *, #31, .T. ) ;
#288 = CARTESIAN_POINT ( 'NONE',  ( 0.000000000000000000, 0.000000000000000000, 205.0000000000000284 ) ) ;
#289 = APPROVAL_PERSON_ORGANIZATION ( #113, #22, #131 ) ;
#290 = ORIENTED_EDGE ( 'NONE', *, *, #44, .T. ) ;
#291 = DIRECTION ( 'NONE',  ( 1.000000000000000000, 0.000000000000000000, 0.000000000000000000 ) ) ;
#292 = EDGE_CURVE ( 'NONE', #247, #7, #97, .T. ) ;
#293 = CARTESIAN_POINT ( 'NONE',  ( 0.000000000000000000, 0.000000000000000000, 5.500000000000005329 ) ) ;
#294 = AXIS2_PLACEMENT_3D ( 'NONE', #293, #267, #173 ) ;
#295 = ORIENTED_EDGE ( 'NONE', *, *, #85, .T. ) ;
#296 = CIRCLE ( 'NONE', #76, 5.000000000000000000 ) ;
#297 = DIRECTION ( 'NONE',  ( 0.000000000000000000, 0.000000000000000000, -1.000000000000000000 ) ) ;
#298 = EDGE_LOOP ( 'NONE', ( #174, #148, #365, #155 ) ) ;
#299 = EDGE_CURVE ( 'NONE', #328, #245, #10, .T. ) ;
#300 = CARTESIAN_POINT ( 'NONE',  ( -5.000000000000000000, 0.000000000000000000, 205.0000000000000284 ) ) ;
#301 = ORIENTED_EDGE ( 'NONE', *, *, #134, .F. ) ;
#302 = VECTOR ( 'NONE', #369, 1000.000000000000000 ) ;
#303 = ORIENTED_EDGE ( 'NONE', *, *, #348, .F. ) ;
#304 = TOROIDAL_SURFACE ( 'NONE', #294, 5.500000000000000000, 0.5000000000000000000 ) ;
#305 = EDGE_LOOP ( 'NONE', ( #262, #357, #158, #170 ) ) ;
#306 = CARTESIAN_POINT ( 'NONE',  ( 0.000000000000000000, 0.000000000000000000, 205.0000000000000284 ) ) ;
#307 = CIRCLE ( 'NONE', #42, 5.000000000000000000 ) ;
#308 = COORDINATED_UNIVERSAL_TIME_OFFSET ( 1, 0, .AHEAD. ) ;
#309 = PERSON_AND_ORGANIZATION ( #63, #144 ) ;
#310 = DIRECTION ( 'NONE',  ( 1.000000000000000000, 0.000000000000000000, 0.000000000000000000 ) ) ;
#311 = EDGE_CURVE ( 'NONE', #328, #202, #12, .T. ) ;
#312 = COORDINATED_UNIVERSAL_TIME_OFFSET ( 1, 0, .AHEAD. ) ;
#313 = DIRECTION ( 'NONE',  ( -1.000000000000000000, 0.000000000000000000, 0.000000000000000000 ) ) ;
#314 = PERSON_AND_ORGANIZATION_ROLE ( 'classification_officer' ) ;
#315 = LINE ( 'NONE', #75, #302 ) ;
#316 = APPLICATION_PROTOCOL_DEFINITION ( 'international standard', 'config_control_design', 1994, #187 ) ;
#317 = CARTESIAN_POINT ( 'NONE',  ( 0.000000000000000000, 0.000000000000000000, 205.0000000000000284 ) ) ;
#318 = ADVANCED_FACE ( 'NONE', ( #129 ), #327, .F. ) ;
#319 = DIRECTION ( 'NONE',  ( 0.000000000000000000, 0.000000000000000000, 1.000000000000000000 ) ) ;
#320 = LOCAL_TIME ( 17, 16, 44.00000000000000000, #108 ) ;
#321 = ORIENTED_EDGE ( 'NONE', *, *, #311, .T. ) ;
#322 = DIRECTION ( 'NONE',  ( 0.000000000000000000, 0.000000000000000000, 1.000000000000000000 ) ) ;
#323 = FACE_BOUND ( 'NONE', #330, .T. ) ;
#324 = EDGE_LOOP ( 'NONE', ( #130, #35 ) ) ;
#325 = DIRECTION ( 'NONE',  ( 0.000000000000000000, 0.000000000000000000, -1.000000000000000000 ) ) ;
#326 = EDGE_CURVE ( 'NONE', #104, #242, #281, .T. ) ;
#327 = CYLINDRICAL_SURFACE ( 'NONE', #6, 2.500000000000000000 ) ;
#328 = VERTEX_POINT ( 'NONE', #150 ) ;
#329 = DIRECTION ( 'NONE',  ( 1.000000000000000000, 0.000000000000000000, 0.000000000000000000 ) ) ;
#330 = EDGE_LOOP ( 'NONE', ( #90, #55 ) ) ;
#331 = CLOSED_SHELL ( 'NONE', ( #121, #141, #352, #36, #378, #49, #177, #105, #260, #184, #318 ) ) ;
#332 = ORIENTED_EDGE ( 'NONE', *, *, #243, .F. ) ;
#333 =( GEOMETRIC_REPRESENTATION_CONTEXT ( 3 ) GLOBAL_UNCERTAINTY_ASSIGNED_CONTEXT ( ( #154 ) ) GLOBAL_UNIT_ASSIGNED_CONTEXT ( ( #133, #336, #164 ) ) REPRESENTATION_CONTEXT ( 'NONE', 'WORKASPACE' ) );
#334 = CARTESIAN_POINT ( 'NONE',  ( 8.000000000000000000, 9.797174393178825657E-16, 5.000000000000000000 ) ) ;
#335 = ORIENTED_EDGE ( 'NONE', *, *, #299, .T. ) ;
#336 =( NAMED_UNIT ( * ) PLANE_ANGLE_UNIT ( ) SI_UNIT ( $, .RADIAN. ) );
#337 = ORIENTED_EDGE ( 'NONE', *, *, #13, .F. ) ;
#338 = MECHANICAL_CONTEXT ( 'NONE', #187, 'mechanical' ) ;
#339 = APPROVAL ( #278, 'NEURÈENÝ' ) ;
#340 = CIRCLE ( 'NONE', #38, 5.000000000000000000 ) ;
#341 = PERSON_AND_ORGANIZATION ( #63, #144 ) ;
#342 = CARTESIAN_POINT ( 'NONE',  ( 8.000000000000000000, 9.797174393178825657E-16, 5.000000000000000000 ) ) ;
#343 = APPROVAL_DATE_TIME ( #252, #339 ) ;
#344 = CARTESIAN_POINT ( 'NONE',  ( 0.000000000000000000, 0.000000000000000000, 5.000000000000000000 ) ) ;
#345 = COORDINATED_UNIVERSAL_TIME_OFFSET ( 1, 0, .AHEAD. ) ;
#346 = AXIS2_PLACEMENT_3D ( 'NONE', #317, #322, #89 ) ;
#347 = CARTESIAN_POINT ( 'NONE',  ( 0.000000000000000000, 0.000000000000000000, 5.000000000000000000 ) ) ;
#348 = EDGE_CURVE ( 'NONE', #7, #71, #340, .T. ) ;
#349 = CARTESIAN_POINT ( 'NONE',  ( -5.500000000000000000, 6.735557395310442023E-16, 5.000000000000002665 ) ) ;
#350 = CARTESIAN_POINT ( 'NONE',  ( 0.000000000000000000, 0.000000000000000000, 5.500000000000005329 ) ) ;
#351 = CARTESIAN_POINT ( 'NONE',  ( 0.000000000000000000, 0.000000000000000000, 205.0000000000000284 ) ) ;
#352 = ADVANCED_FACE ( 'NONE', ( #100 ), #211, .T. ) ;
#353 = FACE_OUTER_BOUND ( 'NONE', #189, .T. ) ;
#354 = ORIENTED_EDGE ( 'NONE', *, *, #117, .F. ) ;
#355 = DIRECTION ( 'NONE',  ( 0.000000000000000000, 0.000000000000000000, 1.000000000000000000 ) ) ;
#356 = CARTESIAN_POINT ( 'NONE',  ( 5.000000000000000000, 6.123233995736766282E-16, 205.0000000000000284 ) ) ;
#357 = ORIENTED_EDGE ( 'NONE', *, *, #251, .T. ) ;
#358 = CARTESIAN_POINT ( 'NONE',  ( 5.000000000000000000, 6.123233995736766282E-16, 205.0000000000000284 ) ) ;
#359 = EDGE_CURVE ( 'NONE', #245, #123, #256, .T. ) ;
#360 = ORIENTED_EDGE ( 'NONE', *, *, #233, .F. ) ;
#361 = DIRECTION ( 'NONE',  ( -1.000000000000000000, 0.000000000000000000, 0.000000000000000000 ) ) ;
#362 = EDGE_LOOP ( 'NONE', ( #146, #250 ) ) ;
#363 = LINE ( 'NONE', #188, #136 ) ;
#364 = EDGE_LOOP ( 'NONE', ( #354, #128 ) ) ;
#365 = ORIENTED_EDGE ( 'NONE', *, *, #57, .T. ) ;
#366 = CIRCLE ( 'NONE', #5, 5.000000000000000000 ) ;
#367 = ORIENTED_EDGE ( 'NONE', *, *, #359, .T. ) ;
#368 = APPROVAL ( #45, 'NEURÈENÝ' ) ;
#369 = DIRECTION ( 'NONE',  ( -0.000000000000000000, -0.000000000000000000, -1.000000000000000000 ) ) ;
#370 = APPROVAL_ROLE ( '' ) ;
#371 = DIRECTION ( 'NONE',  ( -1.000000000000000000, 0.000000000000000000, 0.000000000000000000 ) ) ;
#372 = AXIS2_PLACEMENT_3D ( 'NONE', #41, #40, #101 ) ;
#373 = PERSON_AND_ORGANIZATION ( #63, #144 ) ;
#374 = CARTESIAN_POINT ( 'NONE',  ( 0.000000000000000000, 0.000000000000000000, 0.000000000000000000 ) ) ;
#375 = FACE_OUTER_BOUND ( 'NONE', #93, .T. ) ;
#376 = VERTEX_POINT ( 'NONE', #356 ) ;
#377 = DIRECTION ( 'NONE',  ( 1.000000000000000000, 0.000000000000000000, 0.000000000000000000 ) ) ;
#378 = ADVANCED_FACE ( 'NONE', ( #8 ), #64, .T. ) ;
#379 = DIRECTION ( 'NONE',  ( 0.000000000000000000, 0.000000000000000000, 1.000000000000000000 ) ) ;
#380 = FACE_OUTER_BOUND ( 'NONE', #182, .T. ) ;
#381 = AXIS2_PLACEMENT_3D ( 'NONE', #118, #29, #140 ) ;
ENDSEC;
END-ISO-10303-21;
