ISO-10303-21;
HEADER;
FILE_DESCRIPTION (( 'STEP AP203' ),
    '1' );
FILE_NAME ('186a.STEP',
    '2022-07-08T15:55:20',
    ( '' ),
    ( '' ),
    'SwSTEP 2.0',
    'SolidWorks 2019',
    '' );
FILE_SCHEMA (( 'CONFIG_CONTROL_DESIGN' ));
ENDSEC;

DATA;
#1 = CARTESIAN_POINT ( 'NONE',  ( -1.000000000000000000, 0.000000000000000000, 0.000000000000000000 ) ) ;
#2 = EDGE_CURVE ( 'NONE', #194, #301, #135, .T. ) ;
#3 = ORIENTED_EDGE ( 'NONE', *, *, #282, .F. ) ;
#4 = CARTESIAN_POINT ( 'NONE',  ( 0.000000000000000000, 0.000000000000000000, 3.000000000000000000 ) ) ;
#5 = VERTEX_POINT ( 'NONE', #342 ) ;
#6 = CARTESIAN_POINT ( 'NONE',  ( 2.000000000000000000, 2.449293598294706414E-16, 153.0000000000000000 ) ) ;
#7 = ORIENTED_EDGE ( 'NONE', *, *, #282, .T. ) ;
#8 = ORGANIZATION ( 'NEURÈENÝ', 'NEURÈENÝ', '' ) ;
#9 = APPROVAL_ROLE ( '' ) ;
#10 = PERSON ( 'NEURÈENÝ', 'NEURÈENÝ', 'NEURÈENÝ', ('NEURÈENÝ'), ('NEURÈENÝ'), ('NEURÈENÝ') ) ;
#11 = ORIENTED_EDGE ( 'NONE', *, *, #122, .T. ) ;
#12 = DIRECTION ( 'NONE',  ( -1.000000000000000000, 1.224646799147353207E-16, 0.000000000000000000 ) ) ;
#13 = ORIENTED_EDGE ( 'NONE', *, *, #325, .T. ) ;
#14 = DATE_TIME_ROLE ( 'creation_date' ) ;
#15 = CARTESIAN_POINT ( 'NONE',  ( 0.000000000000000000, 0.000000000000000000, 0.000000000000000000 ) ) ;
#16 = APPROVAL_STATUS ( 'not_yet_approved' ) ;
#17 = EDGE_LOOP ( 'NONE', ( #75, #167, #271, #354 ) ) ;
#18 = DIRECTION ( 'NONE',  ( 0.000000000000000000, 0.000000000000000000, 1.000000000000000000 ) ) ;
#19 = DIRECTION ( 'NONE',  ( 1.000000000000000000, 0.000000000000000000, 0.000000000000000000 ) ) ;
#20 = PERSON_AND_ORGANIZATION ( #10, #8 ) ;
#21 = LINE ( 'NONE', #146, #164 ) ;
#22 = CIRCLE ( 'NONE', #62, 2.299999999999999822 ) ;
#23 = CC_DESIGN_DATE_AND_TIME_ASSIGNMENT ( #44, #14, ( #202 ) ) ;
#24 = CARTESIAN_POINT ( 'NONE',  ( 2.000000000000000000, 2.449293598294706414E-16, 153.0000000000000000 ) ) ;
#25 = UNCERTAINTY_MEASURE_WITH_UNIT (LENGTH_MEASURE( 1.000000000000000082E-05 ), #226, 'distance_accuracy_value', 'NONE');
#26 = PERSON_AND_ORGANIZATION_ROLE ( 'design_supplier' ) ;
#27 = PLANE ( 'NONE',  #258 ) ;
#28 = PRODUCT_DEFINITION_SHAPE ( 'NONE', 'NONE',  #202 ) ;
#29 = CALENDAR_DATE ( 2022, 8, 7 ) ;
#30 = CARTESIAN_POINT ( 'NONE',  ( -2.299999999999999822, 2.816687638038912056E-16, 3.299999999999997158 ) ) ;
#31 = CIRCLE ( 'NONE', #319, 2.000000000000000000 ) ;
#33 = VECTOR ( 'NONE', #312, 1000.000000000000000 ) ;
#32 = FACE_OUTER_BOUND ( 'NONE', #257, .T. ) ;
#34 = EDGE_CURVE ( 'NONE', #38, #296, #377, .T. ) ;
#35 = EDGE_CURVE ( 'NONE', #194, #5, #234, .T. ) ;
#36 = ORIENTED_EDGE ( 'NONE', *, *, #273, .T. ) ;
#37 = DIRECTION ( 'NONE',  ( 0.000000000000000000, 0.000000000000000000, 1.000000000000000000 ) ) ;
#38 = VERTEX_POINT ( 'NONE', #253 ) ;
#39 = PERSON_AND_ORGANIZATION ( #10, #8 ) ;
#40 = LOCAL_TIME ( 17, 55, 20.00000000000000000, #306 ) ;
#41 = VECTOR ( 'NONE', #292, 1000.000000000000000 ) ;
#42 = DIRECTION ( 'NONE',  ( 1.000000000000000000, 0.000000000000000000, 0.000000000000000000 ) ) ;
#43 = VERTEX_POINT ( 'NONE', #108 ) ;
#44 = DATE_AND_TIME ( #250, #40 ) ;
#45 = ORIENTED_EDGE ( 'NONE', *, *, #273, .F. ) ;
#46 = DIRECTION ( 'NONE',  ( -0.000000000000000000, -0.000000000000000000, -1.000000000000000000 ) ) ;
#47 = EDGE_CURVE ( 'NONE', #170, #296, #86, .T. ) ;
#48 = ORIENTED_EDGE ( 'NONE', *, *, #2, .T. ) ;
#49 = SECURITY_CLASSIFICATION ( '', '', #290 ) ;
#50 = DIRECTION ( 'NONE',  ( -0.000000000000000000, -0.000000000000000000, -1.000000000000000000 ) ) ;
#51 = ADVANCED_FACE ( 'NONE', ( #286 ), #55, .F. ) ;
#52 = APPROVAL_ROLE ( '' ) ;
#53 = AXIS2_PLACEMENT_3D ( 'NONE', #283, #178, #19 ) ;
#54 = CARTESIAN_POINT ( 'NONE',  ( -2.000000000000000000, 0.000000000000000000, 3.299999999999997158 ) ) ;
#55 = CYLINDRICAL_SURFACE ( 'NONE', #143, 1.000000000000000000 ) ;
#56 = PERSON_AND_ORGANIZATION ( #10, #8 ) ;
#57 = CARTESIAN_POINT ( 'NONE',  ( -4.000000000000000000, 0.000000000000000000, 3.000000000000000000 ) ) ;
#58 = CYLINDRICAL_SURFACE ( 'NONE', #357, 1.000000000000000000 ) ;
#59 = VECTOR ( 'NONE', #337, 1000.000000000000000 ) ;
#60 = DIRECTION ( 'NONE',  ( 1.000000000000000000, 0.000000000000000000, 0.000000000000000000 ) ) ;
#61 = EDGE_CURVE ( 'NONE', #301, #194, #349, .T. ) ;
#62 = AXIS2_PLACEMENT_3D ( 'NONE', #4, #316, #60 ) ;
#63 = CC_DESIGN_SECURITY_CLASSIFICATION ( #49, ( #340 ) ) ;
#64 = APPROVAL_PERSON_ORGANIZATION ( #196, #157, #344 ) ;
#65 = AXIS2_PLACEMENT_3D ( 'NONE', #15, #227, #149 ) ;
#66 = CC_DESIGN_APPROVAL ( #93, ( #49 ) ) ;
#67 = AXIS2_PLACEMENT_3D ( 'NONE', #191, #308, #107 ) ;
#68 = VERTEX_POINT ( 'NONE', #376 ) ;
#69 = DIRECTION ( 'NONE',  ( 0.000000000000000000, 0.000000000000000000, 1.000000000000000000 ) ) ;
#70 = EDGE_LOOP ( 'NONE', ( #326, #3 ) ) ;
#71 = AXIS2_PLACEMENT_3D ( 'NONE', #80, #114, #284 ) ;
#72 = ORIENTED_EDGE ( 'NONE', *, *, #365, .T. ) ;
#73 = DATE_AND_TIME ( #330, #310 ) ;
#74 =( GEOMETRIC_REPRESENTATION_CONTEXT ( 3 ) GLOBAL_UNCERTAINTY_ASSIGNED_CONTEXT ( ( #25 ) ) GLOBAL_UNIT_ASSIGNED_CONTEXT ( ( #226, #247, #109 ) ) REPRESENTATION_CONTEXT ( 'NONE', 'WORKASPACE' ) );
#75 = ORIENTED_EDGE ( 'NONE', *, *, #365, .F. ) ;
#76 = ADVANCED_FACE ( 'NONE', ( #309, #311 ), #205, .F. ) ;
#77 = ADVANCED_FACE ( 'NONE', ( #281 ), #314, .T. ) ;
#78 = APPROVAL_DATE_TIME ( #73, #374 ) ;
#79 = VERTEX_POINT ( 'NONE', #176 ) ;
#80 = CARTESIAN_POINT ( 'NONE',  ( 0.000000000000000000, 0.000000000000000000, 0.000000000000000000 ) ) ;
#81 = CARTESIAN_POINT ( 'NONE',  ( 0.000000000000000000, 0.000000000000000000, 3.000000000000000000 ) ) ;
#82 = DIRECTION ( 'NONE',  ( -1.000000000000000000, 0.000000000000000000, 0.000000000000000000 ) ) ;
#83 = AXIS2_PLACEMENT_3D ( 'NONE', #183, #126, #219 ) ;
#84 = AXIS2_PLACEMENT_3D ( 'NONE', #207, #288, #261 ) ;
#85 = PERSON_AND_ORGANIZATION_ROLE ( 'creator' ) ;
#86 = LINE ( 'NONE', #57, #267 ) ;
#87 = CALENDAR_DATE ( 2022, 8, 7 ) ;
#88 = ORIENTED_EDGE ( 'NONE', *, *, #61, .T. ) ;
#89 = DIRECTION ( 'NONE',  ( -1.000000000000000000, 0.000000000000000000, 0.000000000000000000 ) ) ;
#90 = FACE_OUTER_BOUND ( 'NONE', #333, .T. ) ;
#91 = CC_DESIGN_PERSON_AND_ORGANIZATION_ASSIGNMENT ( #193, #171, ( #202 ) ) ;
#92 = DIRECTION ( 'NONE',  ( 0.000000000000000000, -1.000000000000000000, 0.000000000000000000 ) ) ;
#93 = APPROVAL ( #152, 'NEURÈENÝ' ) ;
#94 = CYLINDRICAL_SURFACE ( 'NONE', #128, 4.000000000000000000 ) ;
#95 = EDGE_LOOP ( 'NONE', ( #356, #48, #104, #364 ) ) ;
#96 = ADVANCED_FACE ( 'NONE', ( #315 ), #116, .T. ) ;
#97 = CARTESIAN_POINT ( 'NONE',  ( 0.000000000000000000, 0.000000000000000000, 3.299999999999997158 ) ) ;
#98 = AXIS2_PLACEMENT_3D ( 'NONE', #224, #252, #332 ) ;
#99 = EDGE_LOOP ( 'NONE', ( #127, #13, #331, #220 ) ) ;
#100 = PRODUCT_RELATED_PRODUCT_CATEGORY ( 'detail', '', ( #335 ) ) ;
#101 = DIRECTION ( 'NONE',  ( 0.000000000000000000, 0.000000000000000000, -1.000000000000000000 ) ) ;
#102 = ORIENTED_EDGE ( 'NONE', *, *, #155, .F. ) ;
#103 = DIRECTION ( 'NONE',  ( 1.000000000000000000, 0.000000000000000000, 0.000000000000000000 ) ) ;
#104 = ORIENTED_EDGE ( 'NONE', *, *, #289, .T. ) ;
#105 = DIRECTION ( 'NONE',  ( 0.000000000000000000, 0.000000000000000000, 1.000000000000000000 ) ) ;
#106 = ORIENTED_EDGE ( 'NONE', *, *, #35, .T. ) ;
#107 = DIRECTION ( 'NONE',  ( -1.000000000000000000, 0.000000000000000000, 0.000000000000000000 ) ) ;
#108 = CARTESIAN_POINT ( 'NONE',  ( 2.000000000000000000, 2.449293598294706414E-16, 3.299999999999997158 ) ) ;
#109 =( NAMED_UNIT ( * ) SI_UNIT ( $, .STERADIAN. ) SOLID_ANGLE_UNIT ( ) );
#110 = DIRECTION ( 'NONE',  ( 0.000000000000000000, 0.000000000000000000, 1.000000000000000000 ) ) ;
#111 = MECHANICAL_CONTEXT ( 'NONE', #163, 'mechanical' ) ;
#112 = DIRECTION ( 'NONE',  ( 1.000000000000000000, 0.000000000000000000, 0.000000000000000000 ) ) ;
#113 = CIRCLE ( 'NONE', #98, 1.000000000000000000 ) ;
#114 = DIRECTION ( 'NONE',  ( 0.000000000000000000, 0.000000000000000000, 1.000000000000000000 ) ) ;
#115 = APPROVAL_DATE_TIME ( #145, #93 ) ;
#116 = CYLINDRICAL_SURFACE ( 'NONE', #238, 2.000000000000000000 ) ;
#117 = DATE_AND_TIME ( #317, #200 ) ;
#118 = CARTESIAN_POINT ( 'NONE',  ( -1.000000000000000000, 0.000000000000000000, 153.0000000000000000 ) ) ;
#119 = APPROVAL_PERSON_ORGANIZATION ( #39, #374, #9 ) ;
#120 = FACE_OUTER_BOUND ( 'NONE', #99, .T. ) ;
#121 = CC_DESIGN_PERSON_AND_ORGANIZATION_ASSIGNMENT ( #378, #26, ( #340 ) ) ;
#122 = EDGE_CURVE ( 'NONE', #296, #38, #159, .T. ) ;
#123 = CARTESIAN_POINT ( 'NONE',  ( 0.000000000000000000, 0.000000000000000000, 153.0000000000000000 ) ) ;
#124 = ADVANCED_FACE ( 'NONE', ( #174 ), #221, .F. ) ;
#125 = EDGE_LOOP ( 'NONE', ( #372, #307, #165, #11 ) ) ;
#126 = DIRECTION ( 'NONE',  ( 0.000000000000000000, 0.000000000000000000, 1.000000000000000000 ) ) ;
#127 = ORIENTED_EDGE ( 'NONE', *, *, #351, .F. ) ;
#129 = DIRECTION ( 'NONE',  ( 0.000000000000000000, 0.000000000000000000, -1.000000000000000000 ) ) ;
#128 = AXIS2_PLACEMENT_3D ( 'NONE', #245, #213, #358 ) ;
#130 = CC_DESIGN_APPROVAL ( #374, ( #202 ) ) ;
#131 = ORIENTED_EDGE ( 'NONE', *, *, #195, .T. ) ;
#132 = DIRECTION ( 'NONE',  ( 0.000000000000000000, 0.000000000000000000, 1.000000000000000000 ) ) ;
#133 = EDGE_CURVE ( 'NONE', #243, #43, #254, .T. ) ;
#134 = ORIENTED_EDGE ( 'NONE', *, *, #2, .F. ) ;
#135 = CIRCLE ( 'NONE', #180, 1.000000000000000000 ) ;
#136 = APPLICATION_PROTOCOL_DEFINITION ( 'international standard', 'config_control_design', 1994, #163 ) ;
#137 = VERTEX_POINT ( 'NONE', #54 ) ;
#138 = PERSON_AND_ORGANIZATION_ROLE ( 'design_owner' ) ;
#139 = DIRECTION ( 'NONE',  ( 1.000000000000000000, 0.000000000000000000, 0.000000000000000000 ) ) ;
#140 = CYLINDRICAL_SURFACE ( 'NONE', #67, 2.000000000000000000 ) ;
#141 = CARTESIAN_POINT ( 'NONE',  ( 0.000000000000000000, 0.000000000000000000, 153.0000000000000000 ) ) ;
#142 = DIRECTION ( 'NONE',  ( 1.000000000000000000, 0.000000000000000000, 0.000000000000000000 ) ) ;
#143 = AXIS2_PLACEMENT_3D ( 'NONE', #144, #172, #82 ) ;
#144 = CARTESIAN_POINT ( 'NONE',  ( 0.000000000000000000, 0.000000000000000000, 153.0000000000000000 ) ) ;
#145 = DATE_AND_TIME ( #29, #274 ) ;
#146 = CARTESIAN_POINT ( 'NONE',  ( -2.000000000000000000, 0.000000000000000000, 153.0000000000000000 ) ) ;
#147 = AXIS2_PLACEMENT_3D ( 'NONE', #231, #368, #42 ) ;
#148 = APPROVAL_DATE_TIME ( #204, #157 ) ;
#149 = DIRECTION ( 'NONE',  ( 1.000000000000000000, 0.000000000000000000, -0.000000000000000000 ) ) ;
#150 = CARTESIAN_POINT ( 'NONE',  ( -2.000000000000000000, 0.000000000000000000, 153.0000000000000000 ) ) ;
#151 = DIRECTION ( 'NONE',  ( -0.000000000000000000, -0.000000000000000000, -1.000000000000000000 ) ) ;
#152 = APPROVAL_STATUS ( 'not_yet_approved' ) ;
#153 = AXIS2_PLACEMENT_3D ( 'NONE', #353, #151, #297 ) ;
#154 = CARTESIAN_POINT ( 'NONE',  ( 2.299999999999999822, 0.000000000000000000, 2.999999999999998668 ) ) ;
#155 = EDGE_CURVE ( 'NONE', #218, #137, #21, .T. ) ;
#156 = PLANE ( 'NONE',  #84 ) ;
#157 = APPROVAL ( #16, 'NEURÈENÝ' ) ;
#158 = ORIENTED_EDGE ( 'NONE', *, *, #61, .F. ) ;
#159 = CIRCLE ( 'NONE', #71, 4.000000000000000000 ) ;
#160 = CARTESIAN_POINT ( 'NONE',  ( 4.000000000000000000, 4.898587196589412829E-16, 3.000000000000000000 ) ) ;
#161 = ORIENTED_EDGE ( 'NONE', *, *, #325, .F. ) ;
#162 = CIRCLE ( 'NONE', #272, 0.2999999999999999334 ) ;
#163 = APPLICATION_CONTEXT ( 'configuration controlled 3d designs of mechanical parts and assemblies' ) ;
#164 = VECTOR ( 'NONE', #209, 1000.000000000000000 ) ;
#165 = ORIENTED_EDGE ( 'NONE', *, *, #47, .T. ) ;
#166 = CARTESIAN_POINT ( 'NONE',  ( 0.000000000000000000, 0.000000000000000000, 3.000000000000000000 ) ) ;
#167 = ORIENTED_EDGE ( 'NONE', *, *, #169, .T. ) ;
#168 = ADVANCED_FACE ( 'NONE', ( #120 ), #262, .F. ) ;
#169 = EDGE_CURVE ( 'NONE', #68, #38, #266, .T. ) ;
#170 = VERTEX_POINT ( 'NONE', #263 ) ;
#171 = PERSON_AND_ORGANIZATION_ROLE ( 'creator' ) ;
#172 = DIRECTION ( 'NONE',  ( 0.000000000000000000, 0.000000000000000000, -1.000000000000000000 ) ) ;
#173 = CARTESIAN_POINT ( 'NONE',  ( 0.000000000000000000, 0.000000000000000000, 0.000000000000000000 ) ) ;
#174 = FACE_OUTER_BOUND ( 'NONE', #276, .T. ) ;
#175 = AXIS2_PLACEMENT_3D ( 'NONE', #206, #203, #89 ) ;
#176 = CARTESIAN_POINT ( 'NONE',  ( -2.299999999999999822, 2.816687638038912056E-16, 2.999999999999998668 ) ) ;
#177 = MANIFOLD_SOLID_BREP ( 'Odebrat vysunutím3', #228 ) ;
#178 = DIRECTION ( 'NONE',  ( 0.000000000000000000, 0.000000000000000000, 1.000000000000000000 ) ) ;
#179 = CARTESIAN_POINT ( 'NONE',  ( 1.000000000000000000, 1.224646799147353207E-16, 153.0000000000000000 ) ) ;
#180 = AXIS2_PLACEMENT_3D ( 'NONE', #197, #110, #139 ) ;
#181 = CARTESIAN_POINT ( 'NONE',  ( 0.000000000000000000, 0.000000000000000000, 153.0000000000000000 ) ) ;
#182 = COORDINATED_UNIVERSAL_TIME_OFFSET ( 1, 0, .AHEAD. ) ;
#183 = CARTESIAN_POINT ( 'NONE',  ( 0.000000000000000000, 0.000000000000000000, 153.0000000000000000 ) ) ;
#184 = AXIS2_PLACEMENT_3D ( 'NONE', #166, #132, #229 ) ;
#185 = APPROVAL_PERSON_ORGANIZATION ( #56, #93, #52 ) ;
#186 = DIRECTION ( 'NONE',  ( 1.000000000000000000, 0.000000000000000000, 0.000000000000000000 ) ) ;
#187 = ORIENTED_EDGE ( 'NONE', *, *, #285, .T. ) ;
#188 = DIRECTION ( 'NONE',  ( 1.000000000000000000, 0.000000000000000000, 0.000000000000000000 ) ) ;
#189 = EDGE_LOOP ( 'NONE', ( #88, #106, #7, #222 ) ) ;
#190 = ORIENTED_EDGE ( 'NONE', *, *, #217, .T. ) ;
#191 = CARTESIAN_POINT ( 'NONE',  ( 0.000000000000000000, 0.000000000000000000, 153.0000000000000000 ) ) ;
#192 = EDGE_LOOP ( 'NONE', ( #329, #305 ) ) ;
#193 = PERSON_AND_ORGANIZATION ( #10, #8 ) ;
#194 = VERTEX_POINT ( 'NONE', #179 ) ;
#195 = EDGE_CURVE ( 'NONE', #214, #79, #22, .T. ) ;
#196 = PERSON_AND_ORGANIZATION ( #10, #8 ) ;
#197 = CARTESIAN_POINT ( 'NONE',  ( 0.000000000000000000, 0.000000000000000000, 153.0000000000000000 ) ) ;
#198 = VECTOR ( 'NONE', #240, 1000.000000000000000 ) ;
#199 = EDGE_LOOP ( 'NONE', ( #131, #225 ) ) ;
#200 = LOCAL_TIME ( 17, 55, 20.00000000000000000, #339 ) ;
#201 = DATE_TIME_ROLE ( 'classification_date' ) ;
#202 = PRODUCT_DEFINITION ( 'NEZNÁMÝ', '', #340, #362 ) ;
#203 = DIRECTION ( 'NONE',  ( -0.000000000000000000, -0.000000000000000000, -1.000000000000000000 ) ) ;
#204 = DATE_AND_TIME ( #87, #323 ) ;
#205 = PLANE ( 'NONE',  #65 ) ;
#206 = CARTESIAN_POINT ( 'NONE',  ( 0.000000000000000000, 0.000000000000000000, 3.000000000000000000 ) ) ;
#207 = CARTESIAN_POINT ( 'NONE',  ( 0.000000000000000000, 0.000000000000000000, 3.000000000000000000 ) ) ;
#208 = PERSON_AND_ORGANIZATION ( #10, #8 ) ;
#209 = DIRECTION ( 'NONE',  ( -0.000000000000000000, -0.000000000000000000, -1.000000000000000000 ) ) ;
#210 = ADVANCED_BREP_SHAPE_REPRESENTATION ( '186a', ( #177, #373 ), #74 ) ;
#211 = EDGE_CURVE ( 'NONE', #43, #137, #31, .T. ) ;
#212 = AXIS2_PLACEMENT_3D ( 'NONE', #348, #92, #101 ) ;
#213 = DIRECTION ( 'NONE',  ( -0.000000000000000000, -0.000000000000000000, -1.000000000000000000 ) ) ;
#214 = VERTEX_POINT ( 'NONE', #154 ) ;
#215 = DIRECTION ( 'NONE',  ( 1.000000000000000000, 0.000000000000000000, -0.000000000000000000 ) ) ;
#216 = CIRCLE ( 'NONE', #184, 4.000000000000000000 ) ;
#217 = EDGE_CURVE ( 'NONE', #243, #218, #239, .T. ) ;
#218 = VERTEX_POINT ( 'NONE', #150 ) ;
#219 = DIRECTION ( 'NONE',  ( 1.000000000000000000, 0.000000000000000000, 0.000000000000000000 ) ) ;
#220 = ORIENTED_EDGE ( 'NONE', *, *, #285, .F. ) ;
#221 = TOROIDAL_SURFACE ( 'NONE', #53, 2.299999999999999822, 0.2999999999999999889 ) ;
#222 = ORIENTED_EDGE ( 'NONE', *, *, #289, .F. ) ;
#223 = ADVANCED_FACE ( 'NONE', ( #260 ), #58, .F. ) ;
#224 = CARTESIAN_POINT ( 'NONE',  ( 0.000000000000000000, 0.000000000000000000, 0.000000000000000000 ) ) ;
#225 = ORIENTED_EDGE ( 'NONE', *, *, #341, .T. ) ;
#226 =( LENGTH_UNIT ( ) NAMED_UNIT ( * ) SI_UNIT ( .MILLI., .METRE. ) );
#227 = DIRECTION ( 'NONE',  ( 0.000000000000000000, 0.000000000000000000, 1.000000000000000000 ) ) ;
#228 = CLOSED_SHELL ( 'NONE', ( #51, #168, #96, #294, #77, #320, #76, #328, #265, #124, #223 ) ) ;
#229 = DIRECTION ( 'NONE',  ( 1.000000000000000000, 0.000000000000000000, 0.000000000000000000 ) ) ;
#230 = DIRECTION ( 'NONE',  ( 0.000000000000000000, 0.000000000000000000, 1.000000000000000000 ) ) ;
#231 = CARTESIAN_POINT ( 'NONE',  ( 0.000000000000000000, 0.000000000000000000, 3.299999999999997158 ) ) ;
#232 = AXIS2_PLACEMENT_3D ( 'NONE', #97, #37, #186 ) ;
#233 = ORIENTED_EDGE ( 'NONE', *, *, #351, .T. ) ;
#234 = LINE ( 'NONE', #236, #59 ) ;
#235 = AXIS2_PLACEMENT_3D ( 'NONE', #141, #375, #112 ) ;
#236 = CARTESIAN_POINT ( 'NONE',  ( 1.000000000000000000, 1.224646799147353207E-16, 153.0000000000000000 ) ) ;
#237 = DIRECTION ( 'NONE',  ( -1.000000000000000000, 0.000000000000000000, 0.000000000000000000 ) ) ;
#238 = AXIS2_PLACEMENT_3D ( 'NONE', #369, #50, #336 ) ;
#239 = CIRCLE ( 'NONE', #83, 2.000000000000000000 ) ;
#240 = DIRECTION ( 'NONE',  ( -0.000000000000000000, -0.000000000000000000, -1.000000000000000000 ) ) ;
#241 = ORIENTED_EDGE ( 'NONE', *, *, #334, .T. ) ;
#242 = FACE_BOUND ( 'NONE', #299, .T. ) ;
#243 = VERTEX_POINT ( 'NONE', #6 ) ;
#244 = CC_DESIGN_PERSON_AND_ORGANIZATION_ASSIGNMENT ( #20, #313, ( #49 ) ) ;
#245 = CARTESIAN_POINT ( 'NONE',  ( 0.000000000000000000, 0.000000000000000000, 3.000000000000000000 ) ) ;
#246 = ORIENTED_EDGE ( 'NONE', *, *, #155, .T. ) ;
#247 =( NAMED_UNIT ( * ) PLANE_ANGLE_UNIT ( ) SI_UNIT ( $, .RADIAN. ) );
#248 = ORIENTED_EDGE ( 'NONE', *, *, #211, .T. ) ;
#249 = EDGE_LOOP ( 'NONE', ( #322, #269, #248, #102 ) ) ;
#250 = CALENDAR_DATE ( 2022, 8, 7 ) ;
#251 = CARTESIAN_POINT ( 'NONE',  ( 0.000000000000000000, 0.000000000000000000, 0.000000000000000000 ) ) ;
#252 = DIRECTION ( 'NONE',  ( -0.000000000000000000, -0.000000000000000000, -1.000000000000000000 ) ) ;
#253 = CARTESIAN_POINT ( 'NONE',  ( 4.000000000000000000, 4.898587196589412829E-16, 0.000000000000000000 ) ) ;
#254 = LINE ( 'NONE', #24, #33 ) ;
#255 = SHAPE_DEFINITION_REPRESENTATION ( #28, #210 ) ;
#256 = CC_DESIGN_APPROVAL ( #157, ( #340 ) ) ;
#257 = EDGE_LOOP ( 'NONE', ( #36, #190 ) ) ;
#258 = AXIS2_PLACEMENT_3D ( 'NONE', #123, #287, #215 ) ;
#259 = VERTEX_POINT ( 'NONE', #1 ) ;
#260 = FACE_OUTER_BOUND ( 'NONE', #95, .T. ) ;
#261 = DIRECTION ( 'NONE',  ( 1.000000000000000000, 0.000000000000000000, -0.000000000000000000 ) ) ;
#262 = TOROIDAL_SURFACE ( 'NONE', #232, 2.299999999999999822, 0.2999999999999999889 ) ;
#263 = CARTESIAN_POINT ( 'NONE',  ( -4.000000000000000000, 0.000000000000000000, 3.000000000000000000 ) ) ;
#264 = APPLICATION_CONTEXT ( 'configuration controlled 3d designs of mechanical parts and assemblies' ) ;
#265 = ADVANCED_FACE ( 'NONE', ( #242, #32 ), #27, .T. ) ;
#266 = LINE ( 'NONE', #160, #198 ) ;
#267 = VECTOR ( 'NONE', #278, 1000.000000000000000 ) ;
#268 = CC_DESIGN_PERSON_AND_ORGANIZATION_ASSIGNMENT ( #300, #138, ( #335 ) ) ;
#269 = ORIENTED_EDGE ( 'NONE', *, *, #133, .T. ) ;
#270 = FACE_OUTER_BOUND ( 'NONE', #17, .T. ) ;
#271 = ORIENTED_EDGE ( 'NONE', *, *, #34, .T. ) ;
#272 = AXIS2_PLACEMENT_3D ( 'NONE', #30, #366, #12 ) ;
#273 = EDGE_CURVE ( 'NONE', #218, #243, #381, .T. ) ;
#274 = LOCAL_TIME ( 17, 55, 20.00000000000000000, #380 ) ;
#275 = ORIENTED_EDGE ( 'NONE', *, *, #341, .F. ) ;
#276 = EDGE_LOOP ( 'NONE', ( #161, #345, #187, #275 ) ) ;
#277 = DIRECTION ( 'NONE',  ( 1.000000000000000000, 0.000000000000000000, 0.000000000000000000 ) ) ;
#278 = DIRECTION ( 'NONE',  ( -0.000000000000000000, -0.000000000000000000, -1.000000000000000000 ) ) ;
#279 = APPROVAL_STATUS ( 'not_yet_approved' ) ;
#280 = AXIS2_PLACEMENT_3D ( 'NONE', #324, #69, #318 ) ;
#281 = FACE_OUTER_BOUND ( 'NONE', #125, .T. ) ;
#282 = EDGE_CURVE ( 'NONE', #5, #259, #352, .T. ) ;
#283 = CARTESIAN_POINT ( 'NONE',  ( 0.000000000000000000, 0.000000000000000000, 3.299999999999997158 ) ) ;
#284 = DIRECTION ( 'NONE',  ( 1.000000000000000000, 0.000000000000000000, 0.000000000000000000 ) ) ;
#285 = EDGE_CURVE ( 'NONE', #43, #214, #291, .T. ) ;
#286 = FACE_OUTER_BOUND ( 'NONE', #189, .T. ) ;
#287 = DIRECTION ( 'NONE',  ( 0.000000000000000000, 0.000000000000000000, 1.000000000000000000 ) ) ;
#288 = DIRECTION ( 'NONE',  ( 0.000000000000000000, 0.000000000000000000, 1.000000000000000000 ) ) ;
#289 = EDGE_CURVE ( 'NONE', #301, #259, #379, .T. ) ;
#290 = SECURITY_CLASSIFICATION_LEVEL ( 'unclassified' ) ;
#291 = CIRCLE ( 'NONE', #212, 0.2999999999999999334 ) ;
#292 = DIRECTION ( 'NONE',  ( 0.000000000000000000, 0.000000000000000000, -1.000000000000000000 ) ) ;
#293 = AXIS2_PLACEMENT_3D ( 'NONE', #303, #46, #277 ) ;
#294 = ADVANCED_FACE ( 'NONE', ( #270 ), #94, .T. ) ;
#295 = DIRECTION ( 'NONE',  ( 0.000000000000000000, 0.000000000000000000, 1.000000000000000000 ) ) ;
#296 = VERTEX_POINT ( 'NONE', #321 ) ;
#297 = DIRECTION ( 'NONE',  ( 1.000000000000000000, 0.000000000000000000, 0.000000000000000000 ) ) ;
#298 = CC_DESIGN_DATE_AND_TIME_ASSIGNMENT ( #117, #201, ( #49 ) ) ;
#299 = EDGE_LOOP ( 'NONE', ( #158, #134 ) ) ;
#300 = PERSON_AND_ORGANIZATION ( #10, #8 ) ;
#301 = VERTEX_POINT ( 'NONE', #118 ) ;
#302 = CIRCLE ( 'NONE', #293, 2.299999999999999822 ) ;
#303 = CARTESIAN_POINT ( 'NONE',  ( 0.000000000000000000, 0.000000000000000000, 3.000000000000000000 ) ) ;
#304 = CIRCLE ( 'NONE', #338, 4.000000000000000000 ) ;
#305 = ORIENTED_EDGE ( 'NONE', *, *, #34, .F. ) ;
#306 = COORDINATED_UNIVERSAL_TIME_OFFSET ( 1, 0, .AHEAD. ) ;
#307 = ORIENTED_EDGE ( 'NONE', *, *, #334, .F. ) ;
#308 = DIRECTION ( 'NONE',  ( -0.000000000000000000, -0.000000000000000000, -1.000000000000000000 ) ) ;
#309 = FACE_BOUND ( 'NONE', #70, .T. ) ;
#310 = LOCAL_TIME ( 17, 55, 20.00000000000000000, #360 ) ;
#311 = FACE_OUTER_BOUND ( 'NONE', #192, .T. ) ;
#312 = DIRECTION ( 'NONE',  ( -0.000000000000000000, -0.000000000000000000, -1.000000000000000000 ) ) ;
#313 = PERSON_AND_ORGANIZATION_ROLE ( 'classification_officer' ) ;
#314 = CYLINDRICAL_SURFACE ( 'NONE', #175, 4.000000000000000000 ) ;
#315 = FACE_OUTER_BOUND ( 'NONE', #249, .T. ) ;
#316 = DIRECTION ( 'NONE',  ( -0.000000000000000000, -0.000000000000000000, -1.000000000000000000 ) ) ;
#317 = CALENDAR_DATE ( 2022, 8, 7 ) ;
#318 = DIRECTION ( 'NONE',  ( 1.000000000000000000, 0.000000000000000000, 0.000000000000000000 ) ) ;
#319 = AXIS2_PLACEMENT_3D ( 'NONE', #355, #295, #188 ) ;
#320 = ADVANCED_FACE ( 'NONE', ( #346, #90 ), #156, .T. ) ;
#321 = CARTESIAN_POINT ( 'NONE',  ( -4.000000000000000000, 0.000000000000000000, 0.000000000000000000 ) ) ;
#322 = ORIENTED_EDGE ( 'NONE', *, *, #217, .F. ) ;
#323 = LOCAL_TIME ( 17, 55, 20.00000000000000000, #182 ) ;
#324 = CARTESIAN_POINT ( 'NONE',  ( 0.000000000000000000, 0.000000000000000000, 153.0000000000000000 ) ) ;
#325 = EDGE_CURVE ( 'NONE', #137, #79, #162, .T. ) ;
#326 = ORIENTED_EDGE ( 'NONE', *, *, #347, .F. ) ;
#327 = CARTESIAN_POINT ( 'NONE',  ( -1.000000000000000000, 0.000000000000000000, 153.0000000000000000 ) ) ;
#328 = ADVANCED_FACE ( 'NONE', ( #371 ), #140, .T. ) ;
#329 = ORIENTED_EDGE ( 'NONE', *, *, #122, .F. ) ;
#330 = CALENDAR_DATE ( 2022, 8, 7 ) ;
#331 = ORIENTED_EDGE ( 'NONE', *, *, #195, .F. ) ;
#332 = DIRECTION ( 'NONE',  ( 1.000000000000000000, 0.000000000000000000, 0.000000000000000000 ) ) ;
#333 = EDGE_LOOP ( 'NONE', ( #241, #72 ) ) ;
#334 = EDGE_CURVE ( 'NONE', #170, #68, #304, .T. ) ;
#335 = PRODUCT ( '186a', '186a', '', ( #111 ) ) ;
#336 = DIRECTION ( 'NONE',  ( -1.000000000000000000, 0.000000000000000000, 0.000000000000000000 ) ) ;
#337 = DIRECTION ( 'NONE',  ( 0.000000000000000000, 0.000000000000000000, -1.000000000000000000 ) ) ;
#338 = AXIS2_PLACEMENT_3D ( 'NONE', #81, #105, #142 ) ;
#339 = COORDINATED_UNIVERSAL_TIME_OFFSET ( 1, 0, .AHEAD. ) ;
#340 = PRODUCT_DEFINITION_FORMATION_WITH_SPECIFIED_SOURCE ( 'LIBOVOLNÝ', '', #335, .NOT_KNOWN. ) ;
#341 = EDGE_CURVE ( 'NONE', #79, #214, #302, .T. ) ;
#342 = CARTESIAN_POINT ( 'NONE',  ( 1.000000000000000000, 1.224646799147353207E-16, 0.000000000000000000 ) ) ;
#343 = AXIS2_PLACEMENT_3D ( 'NONE', #251, #230, #367 ) ;
#344 = APPROVAL_ROLE ( '' ) ;
#345 = ORIENTED_EDGE ( 'NONE', *, *, #211, .F. ) ;
#346 = FACE_BOUND ( 'NONE', #199, .T. ) ;
#347 = EDGE_CURVE ( 'NONE', #259, #5, #113, .T. ) ;
#348 = CARTESIAN_POINT ( 'NONE',  ( 2.299999999999999822, 0.000000000000000000, 3.299999999999997158 ) ) ;
#349 = CIRCLE ( 'NONE', #235, 1.000000000000000000 ) ;
#350 = CIRCLE ( 'NONE', #147, 2.000000000000000000 ) ;
#351 = EDGE_CURVE ( 'NONE', #137, #43, #350, .T. ) ;
#352 = CIRCLE ( 'NONE', #153, 1.000000000000000000 ) ;
#353 = CARTESIAN_POINT ( 'NONE',  ( 0.000000000000000000, 0.000000000000000000, 0.000000000000000000 ) ) ;
#354 = ORIENTED_EDGE ( 'NONE', *, *, #47, .F. ) ;
#355 = CARTESIAN_POINT ( 'NONE',  ( 0.000000000000000000, 0.000000000000000000, 3.299999999999997158 ) ) ;
#356 = ORIENTED_EDGE ( 'NONE', *, *, #35, .F. ) ;
#357 = AXIS2_PLACEMENT_3D ( 'NONE', #181, #129, #237 ) ;
#358 = DIRECTION ( 'NONE',  ( -1.000000000000000000, 0.000000000000000000, 0.000000000000000000 ) ) ;
#359 = EDGE_LOOP ( 'NONE', ( #361, #45, #246, #233 ) ) ;
#360 = COORDINATED_UNIVERSAL_TIME_OFFSET ( 1, 0, .AHEAD. ) ;
#361 = ORIENTED_EDGE ( 'NONE', *, *, #133, .F. ) ;
#362 = DESIGN_CONTEXT ( 'detailed design', #264, 'design' ) ;
#363 = APPLICATION_PROTOCOL_DEFINITION ( 'international standard', 'config_control_design', 1994, #264 ) ;
#364 = ORIENTED_EDGE ( 'NONE', *, *, #347, .T. ) ;
#365 = EDGE_CURVE ( 'NONE', #68, #170, #216, .T. ) ;
#366 = DIRECTION ( 'NONE',  ( 1.224646799147353207E-16, 1.000000000000000000, -0.000000000000000000 ) ) ;
#367 = DIRECTION ( 'NONE',  ( 1.000000000000000000, 0.000000000000000000, 0.000000000000000000 ) ) ;
#368 = DIRECTION ( 'NONE',  ( 0.000000000000000000, 0.000000000000000000, 1.000000000000000000 ) ) ;
#369 = CARTESIAN_POINT ( 'NONE',  ( 0.000000000000000000, 0.000000000000000000, 153.0000000000000000 ) ) ;
#370 = CC_DESIGN_PERSON_AND_ORGANIZATION_ASSIGNMENT ( #208, #85, ( #340 ) ) ;
#371 = FACE_OUTER_BOUND ( 'NONE', #359, .T. ) ;
#372 = ORIENTED_EDGE ( 'NONE', *, *, #169, .F. ) ;
#373 = AXIS2_PLACEMENT_3D ( 'NONE', #173, #18, #103 ) ;
#374 = APPROVAL ( #279, 'NEURÈENÝ' ) ;
#375 = DIRECTION ( 'NONE',  ( 0.000000000000000000, 0.000000000000000000, 1.000000000000000000 ) ) ;
#376 = CARTESIAN_POINT ( 'NONE',  ( 4.000000000000000000, 4.898587196589412829E-16, 3.000000000000000000 ) ) ;
#377 = CIRCLE ( 'NONE', #343, 4.000000000000000000 ) ;
#378 = PERSON_AND_ORGANIZATION ( #10, #8 ) ;
#379 = LINE ( 'NONE', #327, #41 ) ;
#380 = COORDINATED_UNIVERSAL_TIME_OFFSET ( 1, 0, .AHEAD. ) ;
#381 = CIRCLE ( 'NONE', #280, 2.000000000000000000 ) ;
ENDSEC;
END-ISO-10303-21;
