ISO-10303-21;
HEADER;
FILE_DESCRIPTION (( 'STEP AP203' ),
    '1' );
FILE_NAME ('4b32.STEP',
    '2022-07-08T15:22:07',
    ( '' ),
    ( '' ),
    'SwSTEP 2.0',
    'SolidWorks 2019',
    '' );
FILE_SCHEMA (( 'CONFIG_CONTROL_DESIGN' ));
ENDSEC;

DATA;
#1 = ORIENTED_EDGE ( 'NONE', *, *, #375, .F. ) ;
#2 = APPLICATION_CONTEXT ( 'configuration controlled 3d designs of mechanical parts and assemblies' ) ;
#3 = CC_DESIGN_APPROVAL ( #102, ( #331 ) ) ;
#4 = APPLICATION_PROTOCOL_DEFINITION ( 'international standard', 'config_control_design', 1994, #2 ) ;
#5 = DIRECTION ( 'NONE',  ( 1.000000000000000000, 0.000000000000000000, -0.000000000000000000 ) ) ;
#6 = DATE_AND_TIME ( #266, #158 ) ;
#7 = ORIENTED_EDGE ( 'NONE', *, *, #115, .F. ) ;
#8 = CIRCLE ( 'NONE', #364, 2.250000000000000000 ) ;
#9 = ORIENTED_EDGE ( 'NONE', *, *, #22, .F. ) ;
#10 = CALENDAR_DATE ( 2022, 8, 7 ) ;
#11 = DIRECTION ( 'NONE',  ( 1.000000000000000000, 0.000000000000000000, 0.000000000000000000 ) ) ;
#12 = DIRECTION ( 'NONE',  ( 0.000000000000000000, 0.000000000000000000, 1.000000000000000000 ) ) ;
#13 = FACE_BOUND ( 'NONE', #205, .T. ) ;
#14 = DIRECTION ( 'NONE',  ( -1.000000000000000000, 0.000000000000000000, 0.000000000000000000 ) ) ;
#15 = EDGE_CURVE ( 'NONE', #284, #286, #318, .T. ) ;
#16 = VERTEX_POINT ( 'NONE', #243 ) ;
#17 = DIRECTION ( 'NONE',  ( -1.000000000000000000, 0.000000000000000000, 0.000000000000000000 ) ) ;
#18 = CC_DESIGN_DATE_AND_TIME_ASSIGNMENT ( #358, #153, ( #331 ) ) ;
#19 = ADVANCED_FACE ( 'NONE', ( #190 ), #271, .T. ) ;
#20 = CYLINDRICAL_SURFACE ( 'NONE', #189, 7.000000000000000000 ) ;
#21 = CC_DESIGN_APPROVAL ( #329, ( #317 ) ) ;
#22 = EDGE_CURVE ( 'NONE', #82, #16, #27, .T. ) ;
#23 = CARTESIAN_POINT ( 'NONE',  ( 0.000000000000000000, 0.000000000000000000, 5.499999999999949374 ) ) ;
#24 = CARTESIAN_POINT ( 'NONE',  ( 4.000000000000000000, 4.898587196589412829E-16, 705.0000000000000000 ) ) ;
#25 = VERTEX_POINT ( 'NONE', #241 ) ;
#26 = DIRECTION ( 'NONE',  ( 0.000000000000000000, 0.000000000000000000, -1.000000000000000000 ) ) ;
#27 = CIRCLE ( 'NONE', #343, 7.000000000000000000 ) ;
#28 = CIRCLE ( 'NONE', #320, 7.000000000000000000 ) ;
#29 = ORIENTED_EDGE ( 'NONE', *, *, #147, .T. ) ;
#30 = CARTESIAN_POINT ( 'NONE',  ( 0.000000000000000000, 0.000000000000000000, 0.000000000000000000 ) ) ;
#31 = ORIENTED_EDGE ( 'NONE', *, *, #308, .F. ) ;
#32 = APPROVAL_STATUS ( 'not_yet_approved' ) ;
#33 =( NAMED_UNIT ( * ) PLANE_ANGLE_UNIT ( ) SI_UNIT ( $, .RADIAN. ) );
#34 = CIRCLE ( 'NONE', #157, 0.5000000000000004441 ) ;
#35 = CIRCLE ( 'NONE', #219, 4.000000000000000000 ) ;
#36 = DATE_AND_TIME ( #351, #113 ) ;
#37 = ORIENTED_EDGE ( 'NONE', *, *, #244, .T. ) ;
#38 = TOROIDAL_SURFACE ( 'NONE', #369, 4.500000000000000888, 0.5000000000000000000 ) ;
#39 = AXIS2_PLACEMENT_3D ( 'NONE', #30, #195, #101 ) ;
#40 = CARTESIAN_POINT ( 'NONE',  ( -4.500000000000000888, 5.510910596163089556E-16, 5.499999999999949374 ) ) ;
#41 = CARTESIAN_POINT ( 'NONE',  ( 0.000000000000000000, 0.000000000000000000, 5.000000000000000000 ) ) ;
#42 = DATE_AND_TIME ( #10, #324 ) ;
#43 = DIRECTION ( 'NONE',  ( 1.000000000000000000, 0.000000000000000000, 0.000000000000000000 ) ) ;
#44 = DIRECTION ( 'NONE',  ( 0.000000000000000000, 0.000000000000000000, 1.000000000000000000 ) ) ;
#45 = CARTESIAN_POINT ( 'NONE',  ( 0.000000000000000000, 0.000000000000000000, 0.000000000000000000 ) ) ;
#46 = FACE_BOUND ( 'NONE', #197, .T. ) ;
#47 = AXIS2_PLACEMENT_3D ( 'NONE', #332, #159, #11 ) ;
#48 = CARTESIAN_POINT ( 'NONE',  ( 7.000000000000000000, 8.572527594031473190E-16, 0.000000000000000000 ) ) ;
#49 = DIRECTION ( 'NONE',  ( -0.000000000000000000, -0.000000000000000000, -1.000000000000000000 ) ) ;
#50 = CC_DESIGN_PERSON_AND_ORGANIZATION_ASSIGNMENT ( #148, #229, ( #231 ) ) ;
#51 = DIRECTION ( 'NONE',  ( 0.000000000000000000, 0.000000000000000000, 1.000000000000000000 ) ) ;
#52 = VERTEX_POINT ( 'NONE', #128 ) ;
#53 = DIRECTION ( 'NONE',  ( 0.000000000000000000, 0.000000000000000000, -1.000000000000000000 ) ) ;
#54 = AXIS2_PLACEMENT_3D ( 'NONE', #323, #176, #5 ) ;
#55 = ORIENTED_EDGE ( 'NONE', *, *, #217, .T. ) ;
#56 =( NAMED_UNIT ( * ) SI_UNIT ( $, .STERADIAN. ) SOLID_ANGLE_UNIT ( ) );
#57 = PERSON_AND_ORGANIZATION ( #307, #295 ) ;
#58 = EDGE_CURVE ( 'NONE', #82, #235, #100, .T. ) ;
#59 = MANIFOLD_SOLID_BREP ( 'Odebrat vysunutím3', #362 ) ;
#60 = CIRCLE ( 'NONE', #350, 4.500000000000000888 ) ;
#61 = CC_DESIGN_PERSON_AND_ORGANIZATION_ASSIGNMENT ( #57, #90, ( #141 ) ) ;
#62 = ORIENTED_EDGE ( 'NONE', *, *, #299, .F. ) ;
#63 = APPROVAL_DATE_TIME ( #178, #329 ) ;
#64 = ORIENTED_EDGE ( 'NONE', *, *, #147, .F. ) ;
#65 = CARTESIAN_POINT ( 'NONE',  ( 0.000000000000000000, 0.000000000000000000, 5.000000000000000000 ) ) ;
#66 = EDGE_CURVE ( 'NONE', #80, #354, #188, .T. ) ;
#67 = CYLINDRICAL_SURFACE ( 'NONE', #278, 7.000000000000000000 ) ;
#68 = CALENDAR_DATE ( 2022, 8, 7 ) ;
#69 = FACE_OUTER_BOUND ( 'NONE', #357, .T. ) ;
#70 = FACE_OUTER_BOUND ( 'NONE', #146, .T. ) ;
#71 = CC_DESIGN_SECURITY_CLASSIFICATION ( #331, ( #231 ) ) ;
#72 = CARTESIAN_POINT ( 'NONE',  ( -7.000000000000000000, 0.000000000000000000, 5.000000000000000000 ) ) ;
#73 = CARTESIAN_POINT ( 'NONE',  ( 0.000000000000000000, 0.000000000000000000, 0.000000000000000000 ) ) ;
#74 = FACE_OUTER_BOUND ( 'NONE', #380, .T. ) ;
#75 = ORIENTED_EDGE ( 'NONE', *, *, #179, .T. ) ;
#76 = CIRCLE ( 'NONE', #85, 4.500000000000000888 ) ;
#77 = PLANE ( 'NONE',  #39 ) ;
#78 = APPROVAL_PERSON_ORGANIZATION ( #349, #289, #326 ) ;
#79 = CARTESIAN_POINT ( 'NONE',  ( -4.000000000000000000, 0.000000000000000000, 705.0000000000000000 ) ) ;
#80 = VERTEX_POINT ( 'NONE', #211 ) ;
#81 = ADVANCED_FACE ( 'NONE', ( #13, #70 ), #301, .T. ) ;
#82 = VERTEX_POINT ( 'NONE', #247 ) ;
#83 = CARTESIAN_POINT ( 'NONE',  ( 0.000000000000000000, 0.000000000000000000, 5.000000000000000000 ) ) ;
#84 = ADVANCED_FACE ( 'NONE', ( #366 ), #334, .T. ) ;
#85 = AXIS2_PLACEMENT_3D ( 'NONE', #65, #216, #215 ) ;
#86 = APPROVAL_DATE_TIME ( #36, #289 ) ;
#87 = COORDINATED_UNIVERSAL_TIME_OFFSET ( 1, 0, .AHEAD. ) ;
#88 = CALENDAR_DATE ( 2022, 8, 7 ) ;
#89 = EDGE_LOOP ( 'NONE', ( #92, #257, #315, #346 ) ) ;
#90 = PERSON_AND_ORGANIZATION_ROLE ( 'design_owner' ) ;
#91 = ORIENTED_EDGE ( 'NONE', *, *, #220, .F. ) ;
#92 = ORIENTED_EDGE ( 'NONE', *, *, #179, .F. ) ;
#93 = DIRECTION ( 'NONE',  ( -0.000000000000000000, -0.000000000000000000, -1.000000000000000000 ) ) ;
#94 = TOROIDAL_SURFACE ( 'NONE', #310, 4.500000000000000888, 0.5000000000000000000 ) ;
#95 = FACE_OUTER_BOUND ( 'NONE', #89, .T. ) ;
#96 = ADVANCED_FACE ( 'NONE', ( #95 ), #38, .F. ) ;
#97 = CARTESIAN_POINT ( 'NONE',  ( 0.000000000000000000, 0.000000000000000000, 5.499999999999949374 ) ) ;
#98 = DIRECTION ( 'NONE',  ( 1.000000000000000000, 0.000000000000000000, 0.000000000000000000 ) ) ;
#99 = AXIS2_PLACEMENT_3D ( 'NONE', #374, #165, #224 ) ;
#100 = LINE ( 'NONE', #245, #112 ) ;
#101 = DIRECTION ( 'NONE',  ( 1.000000000000000000, 0.000000000000000000, -0.000000000000000000 ) ) ;
#102 = APPROVAL ( #360, 'NEURÈENÝ' ) ;
#103 = DIRECTION ( 'NONE',  ( 0.000000000000000000, -1.000000000000000000, 0.000000000000000000 ) ) ;
#104 = VECTOR ( 'NONE', #130, 1000.000000000000000 ) ;
#105 = AXIS2_PLACEMENT_3D ( 'NONE', #155, #44, #43 ) ;
#106 = DIRECTION ( 'NONE',  ( 0.000000000000000000, 0.000000000000000000, 1.000000000000000000 ) ) ;
#107 = VECTOR ( 'NONE', #196, 1000.000000000000000 ) ;
#108 = EDGE_LOOP ( 'NONE', ( #261, #270, #252, #91 ) ) ;
#109 = DIRECTION ( 'NONE',  ( 1.000000000000000000, 0.000000000000000000, 0.000000000000000000 ) ) ;
#110 = ORIENTED_EDGE ( 'NONE', *, *, #206, .F. ) ;
#111 = CARTESIAN_POINT ( 'NONE',  ( 0.000000000000000000, 0.000000000000000000, 705.0000000000000000 ) ) ;
#112 = VECTOR ( 'NONE', #303, 1000.000000000000000 ) ;
#113 = LOCAL_TIME ( 17, 22, 7.000000000000000000, #262 ) ;
#114 = DIRECTION ( 'NONE',  ( 1.000000000000000000, 0.000000000000000000, 0.000000000000000000 ) ) ;
#115 = EDGE_CURVE ( 'NONE', #25, #235, #194, .T. ) ;
#116 = ORIENTED_EDGE ( 'NONE', *, *, #313, .F. ) ;
#117 = DATE_TIME_ROLE ( 'creation_date' ) ;
#118 = ORIENTED_EDGE ( 'NONE', *, *, #233, .F. ) ;
#119 = EDGE_CURVE ( 'NONE', #208, #52, #76, .T. ) ;
#120 = EDGE_LOOP ( 'NONE', ( #7, #118 ) ) ;
#121 = CC_DESIGN_PERSON_AND_ORGANIZATION_ASSIGNMENT ( #300, #124, ( #231 ) ) ;
#122 = SHAPE_DEFINITION_REPRESENTATION ( #254, #248 ) ;
#123 = DIRECTION ( 'NONE',  ( 0.000000000000000000, 0.000000000000000000, 1.000000000000000000 ) ) ;
#124 = PERSON_AND_ORGANIZATION_ROLE ( 'design_supplier' ) ;
#125 = DIRECTION ( 'NONE',  ( 0.000000000000000000, 0.000000000000000000, 1.000000000000000000 ) ) ;
#126 = EDGE_CURVE ( 'NONE', #193, #348, #355, .T. ) ;
#127 = LOCAL_TIME ( 17, 22, 7.000000000000000000, #296 ) ;
#128 = CARTESIAN_POINT ( 'NONE',  ( 4.500000000000000888, 0.000000000000000000, 4.999999999999975131 ) ) ;
#129 = DIRECTION ( 'NONE',  ( -0.000000000000000000, -0.000000000000000000, -1.000000000000000000 ) ) ;
#130 = DIRECTION ( 'NONE',  ( -0.000000000000000000, -0.000000000000000000, -1.000000000000000000 ) ) ;
#131 = DIRECTION ( 'NONE',  ( 1.000000000000000000, 0.000000000000000000, 0.000000000000000000 ) ) ;
#132 = PRODUCT_RELATED_PRODUCT_CATEGORY ( 'detail', '', ( #141 ) ) ;
#133 = CARTESIAN_POINT ( 'NONE',  ( 0.000000000000000000, 0.000000000000000000, 5.000000000000000000 ) ) ;
#134 = ORIENTED_EDGE ( 'NONE', *, *, #119, .T. ) ;
#135 = FACE_OUTER_BOUND ( 'NONE', #180, .T. ) ;
#136 = ADVANCED_FACE ( 'NONE', ( #69 ), #67, .T. ) ;
#137 = ORIENTED_EDGE ( 'NONE', *, *, #15, .T. ) ;
#138 = DIRECTION ( 'NONE',  ( 0.000000000000000000, 0.000000000000000000, 1.000000000000000000 ) ) ;
#139 = ORIENTED_EDGE ( 'NONE', *, *, #126, .T. ) ;
#140 = CARTESIAN_POINT ( 'NONE',  ( 0.000000000000000000, 0.000000000000000000, 0.000000000000000000 ) ) ;
#141 = PRODUCT ( '4b32', '4b32', '', ( #173 ) ) ;
#142 = ORIENTED_EDGE ( 'NONE', *, *, #220, .T. ) ;
#143 = CARTESIAN_POINT ( 'NONE',  ( 2.250000000000000000, 2.755455298081544285E-16, 0.000000000000000000 ) ) ;
#144 = CARTESIAN_POINT ( 'NONE',  ( -4.000000000000000000, 0.000000000000000000, 705.0000000000000000 ) ) ;
#145 = COORDINATED_UNIVERSAL_TIME_OFFSET ( 1, 0, .AHEAD. ) ;
#146 = EDGE_LOOP ( 'NONE', ( #181, #149 ) ) ;
#147 = EDGE_CURVE ( 'NONE', #378, #293, #163, .T. ) ;
#148 = PERSON_AND_ORGANIZATION ( #307, #295 ) ;
#149 = ORIENTED_EDGE ( 'NONE', *, *, #22, .T. ) ;
#150 = AXIS2_PLACEMENT_3D ( 'NONE', #361, #186, #156 ) ;
#151 = AXIS2_PLACEMENT_3D ( 'NONE', #111, #138, #338 ) ;
#152 = EDGE_CURVE ( 'NONE', #16, #25, #185, .T. ) ;
#153 = DATE_TIME_ROLE ( 'classification_date' ) ;
#154 = CARTESIAN_POINT ( 'NONE',  ( 0.000000000000000000, 0.000000000000000000, 5.499999999999949374 ) ) ;
#155 = CARTESIAN_POINT ( 'NONE',  ( 0.000000000000000000, 0.000000000000000000, 0.000000000000000000 ) ) ;
#156 = DIRECTION ( 'NONE',  ( 1.000000000000000000, 0.000000000000000000, 0.000000000000000000 ) ) ;
#157 = AXIS2_PLACEMENT_3D ( 'NONE', #40, #253, #347 ) ;
#158 = LOCAL_TIME ( 17, 22, 7.000000000000000000, #145 ) ;
#159 = DIRECTION ( 'NONE',  ( 0.000000000000000000, 0.000000000000000000, 1.000000000000000000 ) ) ;
#160 = EDGE_LOOP ( 'NONE', ( #325, #75, #1, #373 ) ) ;
#161 = DIRECTION ( 'NONE',  ( -0.000000000000000000, -0.000000000000000000, -1.000000000000000000 ) ) ;
#162 = FACE_OUTER_BOUND ( 'NONE', #259, .T. ) ;
#163 = CIRCLE ( 'NONE', #263, 2.250000000000000000 ) ;
#164 = CIRCLE ( 'NONE', #151, 4.000000000000000000 ) ;
#165 = DIRECTION ( 'NONE',  ( 0.000000000000000000, 0.000000000000000000, 1.000000000000000000 ) ) ;
#166 = ORIENTED_EDGE ( 'NONE', *, *, #299, .T. ) ;
#167 = CARTESIAN_POINT ( 'NONE',  ( -4.500000000000000888, 5.510910596163088569E-16, 4.999999999999975131 ) ) ;
#168 = ORIENTED_EDGE ( 'NONE', *, *, #233, .T. ) ;
#169 = CARTESIAN_POINT ( 'NONE',  ( -2.250000000000000000, 0.000000000000000000, 705.0000000000000000 ) ) ;
#170 = ORIENTED_EDGE ( 'NONE', *, *, #58, .F. ) ;
#171 = CARTESIAN_POINT ( 'NONE',  ( 2.250000000000000000, 2.755455298081544285E-16, 705.0000000000000000 ) ) ;
#172 = ORIENTED_EDGE ( 'NONE', *, *, #152, .F. ) ;
#173 = MECHANICAL_CONTEXT ( 'NONE', #2, 'mechanical' ) ;
#174 = DIRECTION ( 'NONE',  ( 0.000000000000000000, 0.000000000000000000, -1.000000000000000000 ) ) ;
#175 = ADVANCED_FACE ( 'NONE', ( #370 ), #94, .F. ) ;
#176 = DIRECTION ( 'NONE',  ( 0.000000000000000000, 0.000000000000000000, 1.000000000000000000 ) ) ;
#177 = AXIS2_PLACEMENT_3D ( 'NONE', #221, #93, #17 ) ;
#178 = DATE_AND_TIME ( #88, #274 ) ;
#179 = EDGE_CURVE ( 'NONE', #354, #208, #34, .T. ) ;
#180 = EDGE_LOOP ( 'NONE', ( #170, #110, #228, #328 ) ) ;
#181 = ORIENTED_EDGE ( 'NONE', *, *, #206, .T. ) ;
#182 = DIRECTION ( 'NONE',  ( 1.000000000000000000, 0.000000000000000000, 0.000000000000000000 ) ) ;
#183 = VECTOR ( 'NONE', #49, 1000.000000000000000 ) ;
#184 = PERSON_AND_ORGANIZATION ( #307, #295 ) ;
#185 = LINE ( 'NONE', #72, #104 ) ;
#186 = DIRECTION ( 'NONE',  ( 0.000000000000000000, 0.000000000000000000, 1.000000000000000000 ) ) ;
#187 = DIRECTION ( 'NONE',  ( 0.000000000000000000, 0.000000000000000000, 1.000000000000000000 ) ) ;
#188 = CIRCLE ( 'NONE', #150, 4.000000000000000000 ) ;
#189 = AXIS2_PLACEMENT_3D ( 'NONE', #251, #285, #379 ) ;
#190 = FACE_OUTER_BOUND ( 'NONE', #108, .T. ) ;
#191 = FACE_OUTER_BOUND ( 'NONE', #281, .T. ) ;
#192 = CYLINDRICAL_SURFACE ( 'NONE', #290, 2.250000000000000000 ) ;
#193 = VERTEX_POINT ( 'NONE', #24 ) ;
#194 = CIRCLE ( 'NONE', #105, 7.000000000000000000 ) ;
#195 = DIRECTION ( 'NONE',  ( 0.000000000000000000, 0.000000000000000000, 1.000000000000000000 ) ) ;
#196 = DIRECTION ( 'NONE',  ( -0.000000000000000000, -0.000000000000000000, -1.000000000000000000 ) ) ;
#197 = EDGE_LOOP ( 'NONE', ( #327, #282 ) ) ;
#198 = LINE ( 'NONE', #280, #344 ) ;
#199 = ORIENTED_EDGE ( 'NONE', *, *, #240, .F. ) ;
#200 = EDGE_CURVE ( 'NONE', #80, #52, #203, .T. ) ;
#201 = CARTESIAN_POINT ( 'NONE',  ( 2.250000000000000000, 2.755455298081544285E-16, 705.0000000000000000 ) ) ;
#202 = DIRECTION ( 'NONE',  ( 0.000000000000000000, 0.000000000000000000, 1.000000000000000000 ) ) ;
#203 = CIRCLE ( 'NONE', #256, 0.5000000000000004441 ) ;
#204 = CIRCLE ( 'NONE', #249, 7.000000000000000000 ) ;
#205 = EDGE_LOOP ( 'NONE', ( #294, #134 ) ) ;
#206 = EDGE_CURVE ( 'NONE', #16, #82, #204, .T. ) ;
#207 = APPROVAL_STATUS ( 'not_yet_approved' ) ;
#208 = VERTEX_POINT ( 'NONE', #167 ) ;
#209 = APPROVAL_DATE_TIME ( #42, #102 ) ;
#210 = ORIENTED_EDGE ( 'NONE', *, *, #367, .T. ) ;
#211 = CARTESIAN_POINT ( 'NONE',  ( 4.000000000000000000, 4.898587196589412829E-16, 5.499999999999949374 ) ) ;
#212 = ADVANCED_FACE ( 'NONE', ( #135 ), #20, .T. ) ;
#213 = CIRCLE ( 'NONE', #99, 2.250000000000000000 ) ;
#214 = SECURITY_CLASSIFICATION_LEVEL ( 'unclassified' ) ;
#215 = DIRECTION ( 'NONE',  ( 1.000000000000000000, 0.000000000000000000, 0.000000000000000000 ) ) ;
#216 = DIRECTION ( 'NONE',  ( -0.000000000000000000, -0.000000000000000000, -1.000000000000000000 ) ) ;
#217 = EDGE_CURVE ( 'NONE', #354, #80, #35, .T. ) ;
#218 = DIRECTION ( 'NONE',  ( 0.000000000000000000, 0.000000000000000000, 1.000000000000000000 ) ) ;
#219 = AXIS2_PLACEMENT_3D ( 'NONE', #23, #106, #109 ) ;
#220 = EDGE_CURVE ( 'NONE', #348, #354, #226, .T. ) ;
#221 = CARTESIAN_POINT ( 'NONE',  ( 0.000000000000000000, 0.000000000000000000, 705.0000000000000000 ) ) ;
#222 = UNCERTAINTY_MEASURE_WITH_UNIT (LENGTH_MEASURE( 1.000000000000000082E-05 ), #234, 'distance_accuracy_value', 'NONE');
#223 = CARTESIAN_POINT ( 'NONE',  ( -2.250000000000000000, 0.000000000000000000, 0.000000000000000000 ) ) ;
#224 = DIRECTION ( 'NONE',  ( 1.000000000000000000, 0.000000000000000000, 0.000000000000000000 ) ) ;
#225 = APPROVAL_PERSON_ORGANIZATION ( #239, #102, #330 ) ;
#226 = LINE ( 'NONE', #79, #183 ) ;
#227 = CARTESIAN_POINT ( 'NONE',  ( 4.000000000000000000, 4.898587196589412829E-16, 705.0000000000000000 ) ) ;
#228 = ORIENTED_EDGE ( 'NONE', *, *, #152, .T. ) ;
#229 = PERSON_AND_ORGANIZATION_ROLE ( 'creator' ) ;
#230 = AXIS2_PLACEMENT_3D ( 'NONE', #368, #161, #305 ) ;
#231 = PRODUCT_DEFINITION_FORMATION_WITH_SPECIFIED_SOURCE ( 'LIBOVOLNÝ', '', #141, .NOT_KNOWN. ) ;
#232 = CARTESIAN_POINT ( 'NONE',  ( 0.000000000000000000, 0.000000000000000000, 0.000000000000000000 ) ) ;
#233 = EDGE_CURVE ( 'NONE', #235, #25, #28, .T. ) ;
#234 =( LENGTH_UNIT ( ) NAMED_UNIT ( * ) SI_UNIT ( .MILLI., .METRE. ) );
#235 = VERTEX_POINT ( 'NONE', #48 ) ;
#236 = AXIS2_PLACEMENT_3D ( 'NONE', #232, #202, #268 ) ;
#237 = ORIENTED_EDGE ( 'NONE', *, *, #313, .T. ) ;
#238 = EDGE_LOOP ( 'NONE', ( #199, #116, #142, #55 ) ) ;
#239 = PERSON_AND_ORGANIZATION ( #307, #295 ) ;
#240 = EDGE_CURVE ( 'NONE', #193, #80, #345, .T. ) ;
#241 = CARTESIAN_POINT ( 'NONE',  ( -7.000000000000000000, 0.000000000000000000, 0.000000000000000000 ) ) ;
#242 = DIRECTION ( 'NONE',  ( 1.000000000000000000, 0.000000000000000000, -0.000000000000000000 ) ) ;
#243 = CARTESIAN_POINT ( 'NONE',  ( -7.000000000000000000, 0.000000000000000000, 5.000000000000000000 ) ) ;
#244 = EDGE_CURVE ( 'NONE', #286, #284, #213, .T. ) ;
#245 = CARTESIAN_POINT ( 'NONE',  ( 7.000000000000000000, 8.572527594031473190E-16, 5.000000000000000000 ) ) ;
#246 = DESIGN_CONTEXT ( 'detailed design', #352, 'design' ) ;
#247 = CARTESIAN_POINT ( 'NONE',  ( 7.000000000000000000, 8.572527594031473190E-16, 5.000000000000000000 ) ) ;
#248 = ADVANCED_BREP_SHAPE_REPRESENTATION ( '4b32', ( #59, #236 ), #279 ) ;
#249 = AXIS2_PLACEMENT_3D ( 'NONE', #133, #51, #342 ) ;
#250 = FACE_BOUND ( 'NONE', #319, .T. ) ;
#251 = CARTESIAN_POINT ( 'NONE',  ( 0.000000000000000000, 0.000000000000000000, 5.000000000000000000 ) ) ;
#252 = ORIENTED_EDGE ( 'NONE', *, *, #66, .T. ) ;
#253 = DIRECTION ( 'NONE',  ( 1.224646799147353207E-16, 1.000000000000000000, -0.000000000000000000 ) ) ;
#254 = PRODUCT_DEFINITION_SHAPE ( 'NONE', 'NONE',  #317 ) ;
#255 = ADVANCED_FACE ( 'NONE', ( #250, #381 ), #77, .F. ) ;
#256 = AXIS2_PLACEMENT_3D ( 'NONE', #376, #103, #340 ) ;
#257 = ORIENTED_EDGE ( 'NONE', *, *, #66, .F. ) ;
#258 = DIRECTION ( 'NONE',  ( 0.000000000000000000, 0.000000000000000000, 1.000000000000000000 ) ) ;
#259 = EDGE_LOOP ( 'NONE', ( #237, #139 ) ) ;
#260 = DIRECTION ( 'NONE',  ( -1.000000000000000000, 0.000000000000000000, 0.000000000000000000 ) ) ;
#261 = ORIENTED_EDGE ( 'NONE', *, *, #126, .F. ) ;
#262 = COORDINATED_UNIVERSAL_TIME_OFFSET ( 1, 0, .AHEAD. ) ;
#263 = AXIS2_PLACEMENT_3D ( 'NONE', #45, #129, #337 ) ;
#264 = APPROVAL_PERSON_ORGANIZATION ( #353, #329, #322 ) ;
#265 = DIRECTION ( 'NONE',  ( -0.000000000000000000, -0.000000000000000000, -1.000000000000000000 ) ) ;
#266 = CALENDAR_DATE ( 2022, 8, 7 ) ;
#267 = ORIENTED_EDGE ( 'NONE', *, *, #58, .T. ) ;
#268 = DIRECTION ( 'NONE',  ( 1.000000000000000000, 0.000000000000000000, 0.000000000000000000 ) ) ;
#269 = VECTOR ( 'NONE', #174, 1000.000000000000000 ) ;
#270 = ORIENTED_EDGE ( 'NONE', *, *, #240, .T. ) ;
#271 = CYLINDRICAL_SURFACE ( 'NONE', #177, 4.000000000000000000 ) ;
#272 = CARTESIAN_POINT ( 'NONE',  ( 0.000000000000000000, 0.000000000000000000, 5.000000000000000000 ) ) ;
#273 = DIRECTION ( 'NONE',  ( 1.000000000000000000, 0.000000000000000000, 0.000000000000000000 ) ) ;
#274 = LOCAL_TIME ( 17, 22, 7.000000000000000000, #87 ) ;
#275 = CARTESIAN_POINT ( 'NONE',  ( 0.000000000000000000, 0.000000000000000000, 5.000000000000000000 ) ) ;
#276 = ADVANCED_FACE ( 'NONE', ( #74 ), #192, .F. ) ;
#277 = CARTESIAN_POINT ( 'NONE',  ( 0.000000000000000000, 0.000000000000000000, 705.0000000000000000 ) ) ;
#278 = AXIS2_PLACEMENT_3D ( 'NONE', #275, #336, #14 ) ;
#279 =( GEOMETRIC_REPRESENTATION_CONTEXT ( 3 ) GLOBAL_UNCERTAINTY_ASSIGNED_CONTEXT ( ( #222 ) ) GLOBAL_UNIT_ASSIGNED_CONTEXT ( ( #234, #33, #56 ) ) REPRESENTATION_CONTEXT ( 'NONE', 'WORKASPACE' ) );
#280 = CARTESIAN_POINT ( 'NONE',  ( -2.250000000000000000, 0.000000000000000000, 705.0000000000000000 ) ) ;
#281 = EDGE_LOOP ( 'NONE', ( #137, #210, #29, #31 ) ) ;
#282 = ORIENTED_EDGE ( 'NONE', *, *, #244, .F. ) ;
#283 = DIRECTION ( 'NONE',  ( -0.000000000000000000, -0.000000000000000000, -1.000000000000000000 ) ) ;
#284 = VERTEX_POINT ( 'NONE', #169 ) ;
#285 = DIRECTION ( 'NONE',  ( -0.000000000000000000, -0.000000000000000000, -1.000000000000000000 ) ) ;
#286 = VERTEX_POINT ( 'NONE', #171 ) ;
#287 = PERSON_AND_ORGANIZATION_ROLE ( 'creator' ) ;
#288 = APPLICATION_PROTOCOL_DEFINITION ( 'international standard', 'config_control_design', 1994, #352 ) ;
#289 = APPROVAL ( #207, 'NEURÈENÝ' ) ;
#290 = AXIS2_PLACEMENT_3D ( 'NONE', #372, #312, #314 ) ;
#291 = PLANE ( 'NONE',  #54 ) ;
#292 = PERSON_AND_ORGANIZATION ( #307, #295 ) ;
#293 = VERTEX_POINT ( 'NONE', #223 ) ;
#294 = ORIENTED_EDGE ( 'NONE', *, *, #375, .T. ) ;
#295 = ORGANIZATION ( 'NEURÈENÝ', 'NEURÈENÝ', '' ) ;
#296 = COORDINATED_UNIVERSAL_TIME_OFFSET ( 1, 0, .AHEAD. ) ;
#297 = DIRECTION ( 'NONE',  ( 1.000000000000000000, 0.000000000000000000, 0.000000000000000000 ) ) ;
#298 = CC_DESIGN_PERSON_AND_ORGANIZATION_ASSIGNMENT ( #292, #287, ( #317 ) ) ;
#299 = EDGE_CURVE ( 'NONE', #293, #378, #8, .T. ) ;
#300 = PERSON_AND_ORGANIZATION ( #307, #295 ) ;
#301 = PLANE ( 'NONE',  #377 ) ;
#302 = AXIS2_PLACEMENT_3D ( 'NONE', #277, #12, #98 ) ;
#303 = DIRECTION ( 'NONE',  ( -0.000000000000000000, -0.000000000000000000, -1.000000000000000000 ) ) ;
#304 = CC_DESIGN_APPROVAL ( #289, ( #231 ) ) ;
#305 = DIRECTION ( 'NONE',  ( -1.000000000000000000, 0.000000000000000000, 0.000000000000000000 ) ) ;
#306 = CARTESIAN_POINT ( 'NONE',  ( 0.000000000000000000, 0.000000000000000000, 705.0000000000000000 ) ) ;
#307 = PERSON ( 'NEURÈENÝ', 'NEURÈENÝ', 'NEURÈENÝ', ('NEURÈENÝ'), ('NEURÈENÝ'), ('NEURÈENÝ') ) ;
#308 = EDGE_CURVE ( 'NONE', #284, #293, #198, .T. ) ;
#309 = DIRECTION ( 'NONE',  ( 1.000000000000000000, 0.000000000000000000, 0.000000000000000000 ) ) ;
#310 = AXIS2_PLACEMENT_3D ( 'NONE', #154, #123, #297 ) ;
#311 = ORIENTED_EDGE ( 'NONE', *, *, #308, .T. ) ;
#312 = DIRECTION ( 'NONE',  ( 0.000000000000000000, 0.000000000000000000, -1.000000000000000000 ) ) ;
#313 = EDGE_CURVE ( 'NONE', #348, #193, #164, .T. ) ;
#314 = DIRECTION ( 'NONE',  ( -1.000000000000000000, 0.000000000000000000, 0.000000000000000000 ) ) ;
#315 = ORIENTED_EDGE ( 'NONE', *, *, #200, .T. ) ;
#316 = CYLINDRICAL_SURFACE ( 'NONE', #371, 2.250000000000000000 ) ;
#317 = PRODUCT_DEFINITION ( 'NEZNÁMÝ', '', #231, #246 ) ;
#318 = CIRCLE ( 'NONE', #302, 2.250000000000000000 ) ;
#319 = EDGE_LOOP ( 'NONE', ( #62, #64 ) ) ;
#320 = AXIS2_PLACEMENT_3D ( 'NONE', #73, #258, #131 ) ;
#321 = LINE ( 'NONE', #201, #269 ) ;
#322 = APPROVAL_ROLE ( '' ) ;
#323 = CARTESIAN_POINT ( 'NONE',  ( 0.000000000000000000, 0.000000000000000000, 705.0000000000000000 ) ) ;
#324 = LOCAL_TIME ( 17, 22, 7.000000000000000000, #363 ) ;
#325 = ORIENTED_EDGE ( 'NONE', *, *, #217, .F. ) ;
#326 = APPROVAL_ROLE ( '' ) ;
#327 = ORIENTED_EDGE ( 'NONE', *, *, #15, .F. ) ;
#328 = ORIENTED_EDGE ( 'NONE', *, *, #115, .T. ) ;
#329 = APPROVAL ( #32, 'NEURÈENÝ' ) ;
#330 = APPROVAL_ROLE ( '' ) ;
#331 = SECURITY_CLASSIFICATION ( '', '', #214 ) ;
#332 = CARTESIAN_POINT ( 'NONE',  ( 0.000000000000000000, 0.000000000000000000, 705.0000000000000000 ) ) ;
#333 = PERSON_AND_ORGANIZATION_ROLE ( 'classification_officer' ) ;
#334 = CYLINDRICAL_SURFACE ( 'NONE', #230, 4.000000000000000000 ) ;
#335 = ADVANCED_FACE ( 'NONE', ( #191 ), #316, .F. ) ;
#336 = DIRECTION ( 'NONE',  ( -0.000000000000000000, -0.000000000000000000, -1.000000000000000000 ) ) ;
#337 = DIRECTION ( 'NONE',  ( 1.000000000000000000, 0.000000000000000000, 0.000000000000000000 ) ) ;
#338 = DIRECTION ( 'NONE',  ( 1.000000000000000000, 0.000000000000000000, 0.000000000000000000 ) ) ;
#339 = CC_DESIGN_PERSON_AND_ORGANIZATION_ASSIGNMENT ( #184, #333, ( #331 ) ) ;
#340 = DIRECTION ( 'NONE',  ( 0.000000000000000000, 0.000000000000000000, -1.000000000000000000 ) ) ;
#341 = ADVANCED_FACE ( 'NONE', ( #46, #162 ), #291, .T. ) ;
#342 = DIRECTION ( 'NONE',  ( 1.000000000000000000, 0.000000000000000000, 0.000000000000000000 ) ) ;
#343 = AXIS2_PLACEMENT_3D ( 'NONE', #272, #218, #273 ) ;
#344 = VECTOR ( 'NONE', #26, 1000.000000000000000 ) ;
#345 = LINE ( 'NONE', #227, #107 ) ;
#346 = ORIENTED_EDGE ( 'NONE', *, *, #119, .F. ) ;
#347 = DIRECTION ( 'NONE',  ( -1.000000000000000000, 1.224646799147351482E-16, 0.000000000000000000 ) ) ;
#348 = VERTEX_POINT ( 'NONE', #144 ) ;
#349 = PERSON_AND_ORGANIZATION ( #307, #295 ) ;
#350 = AXIS2_PLACEMENT_3D ( 'NONE', #83, #265, #114 ) ;
#351 = CALENDAR_DATE ( 2022, 8, 7 ) ;
#352 = APPLICATION_CONTEXT ( 'configuration controlled 3d designs of mechanical parts and assemblies' ) ;
#353 = PERSON_AND_ORGANIZATION ( #307, #295 ) ;
#354 = VERTEX_POINT ( 'NONE', #356 ) ;
#355 = CIRCLE ( 'NONE', #47, 4.000000000000000000 ) ;
#356 = CARTESIAN_POINT ( 'NONE',  ( -4.000000000000000000, 0.000000000000000000, 5.499999999999949374 ) ) ;
#357 = EDGE_LOOP ( 'NONE', ( #9, #267, #168, #172 ) ) ;
#358 = DATE_AND_TIME ( #68, #127 ) ;
#359 = ORIENTED_EDGE ( 'NONE', *, *, #367, .F. ) ;
#360 = APPROVAL_STATUS ( 'not_yet_approved' ) ;
#361 = CARTESIAN_POINT ( 'NONE',  ( 0.000000000000000000, 0.000000000000000000, 5.499999999999949374 ) ) ;
#362 = CLOSED_SHELL ( 'NONE', ( #335, #175, #19, #136, #212, #81, #255, #84, #341, #96, #276 ) ) ;
#363 = COORDINATED_UNIVERSAL_TIME_OFFSET ( 1, 0, .AHEAD. ) ;
#364 = AXIS2_PLACEMENT_3D ( 'NONE', #140, #283, #309 ) ;
#365 = CC_DESIGN_DATE_AND_TIME_ASSIGNMENT ( #6, #117, ( #317 ) ) ;
#366 = FACE_OUTER_BOUND ( 'NONE', #238, .T. ) ;
#367 = EDGE_CURVE ( 'NONE', #286, #378, #321, .T. ) ;
#368 = CARTESIAN_POINT ( 'NONE',  ( 0.000000000000000000, 0.000000000000000000, 705.0000000000000000 ) ) ;
#369 = AXIS2_PLACEMENT_3D ( 'NONE', #97, #187, #182 ) ;
#370 = FACE_OUTER_BOUND ( 'NONE', #160, .T. ) ;
#371 = AXIS2_PLACEMENT_3D ( 'NONE', #306, #53, #260 ) ;
#372 = CARTESIAN_POINT ( 'NONE',  ( 0.000000000000000000, 0.000000000000000000, 705.0000000000000000 ) ) ;
#373 = ORIENTED_EDGE ( 'NONE', *, *, #200, .F. ) ;
#374 = CARTESIAN_POINT ( 'NONE',  ( 0.000000000000000000, 0.000000000000000000, 705.0000000000000000 ) ) ;
#375 = EDGE_CURVE ( 'NONE', #52, #208, #60, .T. ) ;
#376 = CARTESIAN_POINT ( 'NONE',  ( 4.500000000000000888, 0.000000000000000000, 5.499999999999949374 ) ) ;
#377 = AXIS2_PLACEMENT_3D ( 'NONE', #41, #125, #242 ) ;
#378 = VERTEX_POINT ( 'NONE', #143 ) ;
#379 = DIRECTION ( 'NONE',  ( -1.000000000000000000, 0.000000000000000000, 0.000000000000000000 ) ) ;
#380 = EDGE_LOOP ( 'NONE', ( #359, #37, #311, #166 ) ) ;
#381 = FACE_OUTER_BOUND ( 'NONE', #120, .T. ) ;
ENDSEC;
END-ISO-10303-21;
