ISO-10303-21;
HEADER;
FILE_DESCRIPTION (( 'STEP AP203' ),
    '1' );
FILE_NAME ('c426.STEP',
    '2022-07-08T15:53:36',
    ( '' ),
    ( '' ),
    'SwSTEP 2.0',
    'SolidWorks 2019',
    '' );
FILE_SCHEMA (( 'CONFIG_CONTROL_DESIGN' ));
ENDSEC;

DATA;
#1 = VERTEX_POINT ( 'NONE', #359 ) ;
#2 = UNCERTAINTY_MEASURE_WITH_UNIT (LENGTH_MEASURE( 1.000000000000000082E-05 ), #123, 'distance_accuracy_value', 'NONE');
#3 = CARTESIAN_POINT ( 'NONE',  ( 0.000000000000000000, 0.000000000000000000, 78.00000000000000000 ) ) ;
#4 = ORIENTED_EDGE ( 'NONE', *, *, #218, .F. ) ;
#5 = DIRECTION ( 'NONE',  ( -0.000000000000000000, -0.000000000000000000, -1.000000000000000000 ) ) ;
#6 = CARTESIAN_POINT ( 'NONE',  ( 2.500000000000000000, 3.061616997868383141E-16, 3.299999999999997158 ) ) ;
#7 = EDGE_CURVE ( 'NONE', #353, #351, #276, .T. ) ;
#8 = DIRECTION ( 'NONE',  ( 1.224646799147353207E-16, 1.000000000000000000, -0.000000000000000000 ) ) ;
#9 = DIRECTION ( 'NONE',  ( 0.000000000000000000, 0.000000000000000000, 1.000000000000000000 ) ) ;
#10 = CARTESIAN_POINT ( 'NONE',  ( 0.000000000000000000, 0.000000000000000000, 0.000000000000000000 ) ) ;
#11 = EDGE_LOOP ( 'NONE', ( #223, #168 ) ) ;
#12 = DATE_TIME_ROLE ( 'creation_date' ) ;
#13 = DIRECTION ( 'NONE',  ( -0.000000000000000000, -0.000000000000000000, -1.000000000000000000 ) ) ;
#14 = CALENDAR_DATE ( 2022, 8, 7 ) ;
#15 = DIRECTION ( 'NONE',  ( 1.000000000000000000, 0.000000000000000000, 0.000000000000000000 ) ) ;
#16 = PLANE ( 'NONE',  #180 ) ;
#17 = AXIS2_PLACEMENT_3D ( 'NONE', #314, #249, #377 ) ;
#18 = CC_DESIGN_PERSON_AND_ORGANIZATION_ASSIGNMENT ( #80, #303, ( #31 ) ) ;
#19 = CARTESIAN_POINT ( 'NONE',  ( 1.000000000000000000, 1.224646799147353207E-16, 0.000000000000000000 ) ) ;
#20 = DIRECTION ( 'NONE',  ( -1.000000000000000000, 0.000000000000000000, 0.000000000000000000 ) ) ;
#21 = ADVANCED_FACE ( 'NONE', ( #170, #235 ), #288, .T. ) ;
#22 = CARTESIAN_POINT ( 'NONE',  ( -5.000000000000000000, 0.000000000000000000, 3.000000000000000000 ) ) ;
#23 = VERTEX_POINT ( 'NONE', #6 ) ;
#24 = CIRCLE ( 'NONE', #380, 1.000000000000000000 ) ;
#25 = DIRECTION ( 'NONE',  ( 1.000000000000000000, 0.000000000000000000, 0.000000000000000000 ) ) ;
#26 = DIRECTION ( 'NONE',  ( 0.000000000000000000, 0.000000000000000000, 1.000000000000000000 ) ) ;
#27 = EDGE_CURVE ( 'NONE', #103, #142, #296, .T. ) ;
#28 = VECTOR ( 'NONE', #239, 1000.000000000000000 ) ;
#29 = VERTEX_POINT ( 'NONE', #362 ) ;
#30 = APPROVAL ( #369, 'NEURÈENÝ' ) ;
#31 = PRODUCT_DEFINITION_FORMATION_WITH_SPECIFIED_SOURCE ( 'LIBOVOLNÝ', '', #47, .NOT_KNOWN. ) ;
#32 = CARTESIAN_POINT ( 'NONE',  ( 0.000000000000000000, 0.000000000000000000, 78.00000000000000000 ) ) ;
#33 = FACE_OUTER_BOUND ( 'NONE', #36, .T. ) ;
#34 = CARTESIAN_POINT ( 'NONE',  ( 0.000000000000000000, 0.000000000000000000, 78.00000000000000000 ) ) ;
#35 = FACE_OUTER_BOUND ( 'NONE', #247, .T. ) ;
#36 = EDGE_LOOP ( 'NONE', ( #277, #4, #226, #105 ) ) ;
#37 = ORIENTED_EDGE ( 'NONE', *, *, #201, .F. ) ;
#38 = CARTESIAN_POINT ( 'NONE',  ( 0.000000000000000000, 0.000000000000000000, 3.299999999999997158 ) ) ;
#39 = APPROVAL_STATUS ( 'not_yet_approved' ) ;
#40 = LOCAL_TIME ( 17, 53, 36.00000000000000000, #184 ) ;
#41 = LINE ( 'NONE', #372, #258 ) ;
#42 = APPROVAL_STATUS ( 'not_yet_approved' ) ;
#43 = CIRCLE ( 'NONE', #109, 5.000000000000000000 ) ;
#44 = AXIS2_PLACEMENT_3D ( 'NONE', #224, #204, #175 ) ;
#45 = SECURITY_CLASSIFICATION_LEVEL ( 'unclassified' ) ;
#46 = DIRECTION ( 'NONE',  ( -0.000000000000000000, -0.000000000000000000, -1.000000000000000000 ) ) ;
#47 = PRODUCT ( 'c426', 'c426', '', ( #299 ) ) ;
#48 = ORIENTED_EDGE ( 'NONE', *, *, #272, .T. ) ;
#49 = ADVANCED_FACE ( 'NONE', ( #69 ), #208, .T. ) ;
#50 = CIRCLE ( 'NONE', #322, 5.000000000000000000 ) ;
#51 = CARTESIAN_POINT ( 'NONE',  ( 0.000000000000000000, 0.000000000000000000, 78.00000000000000000 ) ) ;
#52 = CIRCLE ( 'NONE', #17, 2.500000000000000000 ) ;
#53 = ADVANCED_FACE ( 'NONE', ( #274 ), #216, .F. ) ;
#54 = EDGE_LOOP ( 'NONE', ( #286, #194, #320, #190 ) ) ;
#55 = EDGE_CURVE ( 'NONE', #65, #23, #212, .T. ) ;
#56 = DIRECTION ( 'NONE',  ( -0.000000000000000000, -0.000000000000000000, -1.000000000000000000 ) ) ;
#57 = AXIS2_PLACEMENT_3D ( 'NONE', #243, #76, #300 ) ;
#58 = ORIENTED_EDGE ( 'NONE', *, *, #157, .F. ) ;
#59 = AXIS2_PLACEMENT_3D ( 'NONE', #313, #56, #339 ) ;
#60 = DIRECTION ( 'NONE',  ( -0.000000000000000000, -0.000000000000000000, -1.000000000000000000 ) ) ;
#61 = VERTEX_POINT ( 'NONE', #154 ) ;
#62 = ADVANCED_FACE ( 'NONE', ( #336, #334 ), #16, .T. ) ;
#63 = CARTESIAN_POINT ( 'NONE',  ( -1.000000000000000000, 0.000000000000000000, 78.00000000000000000 ) ) ;
#64 = ORIENTED_EDGE ( 'NONE', *, *, #125, .F. ) ;
#65 = VERTEX_POINT ( 'NONE', #81 ) ;
#66 = AXIS2_PLACEMENT_3D ( 'NONE', #214, #189, #160 ) ;
#67 = CIRCLE ( 'NONE', #44, 2.799999999999999822 ) ;
#68 = DIRECTION ( 'NONE',  ( 1.000000000000000000, 0.000000000000000000, 0.000000000000000000 ) ) ;
#69 = FACE_OUTER_BOUND ( 'NONE', #88, .T. ) ;
#70 = APPLICATION_PROTOCOL_DEFINITION ( 'international standard', 'config_control_design', 1994, #337 ) ;
#71 = DIRECTION ( 'NONE',  ( 1.000000000000000000, 0.000000000000000000, 0.000000000000000000 ) ) ;
#72 = APPROVAL ( #39, 'NEURÈENÝ' ) ;
#73 = CALENDAR_DATE ( 2022, 8, 7 ) ;
#74 = CARTESIAN_POINT ( 'NONE',  ( 2.500000000000000000, 3.061616997868383141E-16, 78.00000000000000000 ) ) ;
#75 = AXIS2_PLACEMENT_3D ( 'NONE', #51, #278, #121 ) ;
#76 = DIRECTION ( 'NONE',  ( 0.000000000000000000, -1.000000000000000000, 0.000000000000000000 ) ) ;
#77 = ADVANCED_FACE ( 'NONE', ( #338 ), #183, .T. ) ;
#78 = PERSON_AND_ORGANIZATION_ROLE ( 'creator' ) ;
#79 = CARTESIAN_POINT ( 'NONE',  ( 0.000000000000000000, 0.000000000000000000, 3.000000000000000000 ) ) ;
#80 = PERSON_AND_ORGANIZATION ( #307, #368 ) ;
#81 = CARTESIAN_POINT ( 'NONE',  ( 2.500000000000000000, 3.061616997868383141E-16, 78.00000000000000000 ) ) ;
#82 = CARTESIAN_POINT ( 'NONE',  ( 0.000000000000000000, 0.000000000000000000, 78.00000000000000000 ) ) ;
#83 = APPROVAL_PERSON_ORGANIZATION ( #242, #268, #328 ) ;
#84 = DIRECTION ( 'NONE',  ( -0.000000000000000000, -0.000000000000000000, -1.000000000000000000 ) ) ;
#85 = CC_DESIGN_PERSON_AND_ORGANIZATION_ASSIGNMENT ( #273, #179, ( #47 ) ) ;
#86 = CARTESIAN_POINT ( 'NONE',  ( 0.000000000000000000, 0.000000000000000000, 78.00000000000000000 ) ) ;
#87 = FACE_OUTER_BOUND ( 'NONE', #54, .T. ) ;
#88 = EDGE_LOOP ( 'NONE', ( #233, #378, #197, #166 ) ) ;
#89 =( GEOMETRIC_REPRESENTATION_CONTEXT ( 3 ) GLOBAL_UNCERTAINTY_ASSIGNED_CONTEXT ( ( #2 ) ) GLOBAL_UNIT_ASSIGNED_CONTEXT ( ( #123, #230, #352 ) ) REPRESENTATION_CONTEXT ( 'NONE', 'WORKASPACE' ) );
#90 = FACE_BOUND ( 'NONE', #11, .T. ) ;
#91 = ORIENTED_EDGE ( 'NONE', *, *, #346, .F. ) ;
#92 = ADVANCED_BREP_SHAPE_REPRESENTATION ( 'c426', ( #289, #232 ), #89 ) ;
#93 = CARTESIAN_POINT ( 'NONE',  ( 5.000000000000000000, 6.123233995736766282E-16, 3.000000000000000000 ) ) ;
#94 = EDGE_LOOP ( 'NONE', ( #205, #329 ) ) ;
#95 = ORIENTED_EDGE ( 'NONE', *, *, #172, .T. ) ;
#96 = EDGE_CURVE ( 'NONE', #61, #29, #50, .T. ) ;
#97 = CARTESIAN_POINT ( 'NONE',  ( 0.000000000000000000, 0.000000000000000000, 0.000000000000000000 ) ) ;
#98 = CARTESIAN_POINT ( 'NONE',  ( 0.000000000000000000, 0.000000000000000000, 78.00000000000000000 ) ) ;
#99 = EDGE_CURVE ( 'NONE', #351, #103, #134, .T. ) ;
#100 = DIRECTION ( 'NONE',  ( 0.000000000000000000, 0.000000000000000000, 1.000000000000000000 ) ) ;
#101 = DIRECTION ( 'NONE',  ( 0.000000000000000000, 0.000000000000000000, 1.000000000000000000 ) ) ;
#102 = LOCAL_TIME ( 17, 53, 36.00000000000000000, #130 ) ;
#103 = VERTEX_POINT ( 'NONE', #19 ) ;
#104 = PERSON_AND_ORGANIZATION ( #307, #368 ) ;
#105 = ORIENTED_EDGE ( 'NONE', *, *, #354, .F. ) ;
#106 = CALENDAR_DATE ( 2022, 8, 7 ) ;
#107 = EDGE_CURVE ( 'NONE', #23, #220, #229, .T. ) ;
#108 = CALENDAR_DATE ( 2022, 8, 7 ) ;
#109 = AXIS2_PLACEMENT_3D ( 'NONE', #116, #222, #25 ) ;
#110 = DIRECTION ( 'NONE',  ( -0.000000000000000000, -0.000000000000000000, -1.000000000000000000 ) ) ;
#111 = SHAPE_DEFINITION_REPRESENTATION ( #221, #92 ) ;
#112 = DIRECTION ( 'NONE',  ( 0.000000000000000000, 0.000000000000000000, -1.000000000000000000 ) ) ;
#113 = ORIENTED_EDGE ( 'NONE', *, *, #107, .F. ) ;
#114 = CARTESIAN_POINT ( 'NONE',  ( 0.000000000000000000, 0.000000000000000000, 3.299999999999997158 ) ) ;
#115 = PRODUCT_DEFINITION ( 'NEZNÁMÝ', '', #31, #318 ) ;
#116 = CARTESIAN_POINT ( 'NONE',  ( 0.000000000000000000, 0.000000000000000000, 3.000000000000000000 ) ) ;
#117 = CC_DESIGN_APPROVAL ( #30, ( #350 ) ) ;
#118 = VERTEX_POINT ( 'NONE', #136 ) ;
#119 = EDGE_CURVE ( 'NONE', #118, #227, #41, .T. ) ;
#120 = ORIENTED_EDGE ( 'NONE', *, *, #96, .F. ) ;
#121 = DIRECTION ( 'NONE',  ( 1.000000000000000000, 0.000000000000000000, 0.000000000000000000 ) ) ;
#122 = AXIS2_PLACEMENT_3D ( 'NONE', #32, #341, #253 ) ;
#123 =( LENGTH_UNIT ( ) NAMED_UNIT ( * ) SI_UNIT ( .MILLI., .METRE. ) );
#124 = CARTESIAN_POINT ( 'NONE',  ( 0.000000000000000000, 0.000000000000000000, 0.000000000000000000 ) ) ;
#125 = EDGE_CURVE ( 'NONE', #357, #1, #367, .T. ) ;
#126 = ORIENTED_EDGE ( 'NONE', *, *, #301, .T. ) ;
#127 = DIRECTION ( 'NONE',  ( -1.000000000000000000, 1.224646799147353207E-16, 0.000000000000000000 ) ) ;
#128 = EDGE_LOOP ( 'NONE', ( #120, #360, #291, #58 ) ) ;
#129 = PERSON_AND_ORGANIZATION ( #307, #368 ) ;
#130 = COORDINATED_UNIVERSAL_TIME_OFFSET ( 1, 0, .AHEAD. ) ;
#131 = PERSON_AND_ORGANIZATION ( #307, #368 ) ;
#132 = CC_DESIGN_APPROVAL ( #268, ( #115 ) ) ;
#133 = APPROVAL_DATE_TIME ( #365, #72 ) ;
#134 = LINE ( 'NONE', #364, #28 ) ;
#135 = EDGE_CURVE ( 'NONE', #220, #144, #269, .T. ) ;
#136 = CARTESIAN_POINT ( 'NONE',  ( -2.500000000000000000, 0.000000000000000000, 78.00000000000000000 ) ) ;
#137 = APPLICATION_CONTEXT ( 'configuration controlled 3d designs of mechanical parts and assemblies' ) ;
#138 = DIRECTION ( 'NONE',  ( 1.000000000000000000, 0.000000000000000000, -0.000000000000000000 ) ) ;
#139 = AXIS2_PLACEMENT_3D ( 'NONE', #259, #8, #127 ) ;
#140 = DIRECTION ( 'NONE',  ( 0.000000000000000000, 0.000000000000000000, 1.000000000000000000 ) ) ;
#141 = DIRECTION ( 'NONE',  ( 1.000000000000000000, 0.000000000000000000, 0.000000000000000000 ) ) ;
#142 = VERTEX_POINT ( 'NONE', #376 ) ;
#143 = CYLINDRICAL_SURFACE ( 'NONE', #59, 2.500000000000000000 ) ;
#144 = VERTEX_POINT ( 'NONE', #165 ) ;
#145 = DIRECTION ( 'NONE',  ( -1.000000000000000000, 0.000000000000000000, 0.000000000000000000 ) ) ;
#146 = EDGE_LOOP ( 'NONE', ( #293, #231 ) ) ;
#147 = DIRECTION ( 'NONE',  ( 1.000000000000000000, 0.000000000000000000, 0.000000000000000000 ) ) ;
#148 = DIRECTION ( 'NONE',  ( 0.000000000000000000, 0.000000000000000000, 1.000000000000000000 ) ) ;
#149 = ORIENTED_EDGE ( 'NONE', *, *, #201, .T. ) ;
#150 = DIRECTION ( 'NONE',  ( 0.000000000000000000, 0.000000000000000000, -1.000000000000000000 ) ) ;
#151 = EDGE_LOOP ( 'NONE', ( #260, #280, #327, #149 ) ) ;
#152 = AXIS2_PLACEMENT_3D ( 'NONE', #86, #191, #310 ) ;
#153 = COORDINATED_UNIVERSAL_TIME_OFFSET ( 1, 0, .AHEAD. ) ;
#154 = CARTESIAN_POINT ( 'NONE',  ( 5.000000000000000000, 6.123233995736766282E-16, 3.000000000000000000 ) ) ;
#155 = CC_DESIGN_PERSON_AND_ORGANIZATION_ASSIGNMENT ( #131, #363, ( #350 ) ) ;
#156 = AXIS2_PLACEMENT_3D ( 'NONE', #302, #13, #237 ) ;
#157 = EDGE_CURVE ( 'NONE', #29, #357, #282, .T. ) ;
#158 = AXIS2_PLACEMENT_3D ( 'NONE', #161, #374, #275 ) ;
#159 = COORDINATED_UNIVERSAL_TIME_OFFSET ( 1, 0, .AHEAD. ) ;
#160 = DIRECTION ( 'NONE',  ( 1.000000000000000000, 0.000000000000000000, 0.000000000000000000 ) ) ;
#161 = CARTESIAN_POINT ( 'NONE',  ( 0.000000000000000000, 0.000000000000000000, 3.000000000000000000 ) ) ;
#162 = ADVANCED_FACE ( 'NONE', ( #90, #196 ), #217, .F. ) ;
#163 = CARTESIAN_POINT ( 'NONE',  ( 0.000000000000000000, 0.000000000000000000, 78.00000000000000000 ) ) ;
#164 = ORIENTED_EDGE ( 'NONE', *, *, #218, .T. ) ;
#165 = CARTESIAN_POINT ( 'NONE',  ( -2.799999999999999822, 3.429011037612589276E-16, 2.999999999999998668 ) ) ;
#166 = ORIENTED_EDGE ( 'NONE', *, *, #125, .T. ) ;
#167 = CIRCLE ( 'NONE', #152, 1.000000000000000000 ) ;
#168 = ORIENTED_EDGE ( 'NONE', *, *, #27, .F. ) ;
#169 = CARTESIAN_POINT ( 'NONE',  ( 1.000000000000000000, 1.224646799147353207E-16, 78.00000000000000000 ) ) ;
#170 = FACE_BOUND ( 'NONE', #321, .T. ) ;
#171 = DIRECTION ( 'NONE',  ( 0.000000000000000000, 0.000000000000000000, 1.000000000000000000 ) ) ;
#172 = EDGE_CURVE ( 'NONE', #29, #61, #43, .T. ) ;
#173 = ORIENTED_EDGE ( 'NONE', *, *, #211, .F. ) ;
#174 = LOCAL_TIME ( 17, 53, 36.00000000000000000, #234 ) ;
#175 = DIRECTION ( 'NONE',  ( 1.000000000000000000, 0.000000000000000000, 0.000000000000000000 ) ) ;
#176 = CARTESIAN_POINT ( 'NONE',  ( 0.000000000000000000, 0.000000000000000000, 3.000000000000000000 ) ) ;
#177 = FACE_OUTER_BOUND ( 'NONE', #356, .T. ) ;
#178 = ORIENTED_EDGE ( 'NONE', *, *, #55, .T. ) ;
#179 = PERSON_AND_ORGANIZATION_ROLE ( 'design_owner' ) ;
#180 = AXIS2_PLACEMENT_3D ( 'NONE', #79, #244, #263 ) ;
#181 = DIRECTION ( 'NONE',  ( -1.000000000000000000, 0.000000000000000000, 0.000000000000000000 ) ) ;
#182 = TOROIDAL_SURFACE ( 'NONE', #342, 2.799999999999999822, 0.2999999999999999889 ) ;
#183 = CYLINDRICAL_SURFACE ( 'NONE', #156, 5.000000000000000000 ) ;
#184 = COORDINATED_UNIVERSAL_TIME_OFFSET ( 1, 0, .AHEAD. ) ;
#185 = CC_DESIGN_PERSON_AND_ORGANIZATION_ASSIGNMENT ( #335, #78, ( #31 ) ) ;
#186 = AXIS2_PLACEMENT_3D ( 'NONE', #82, #266, #20 ) ;
#187 = AXIS2_PLACEMENT_3D ( 'NONE', #317, #100, #68 ) ;
#188 = PERSON_AND_ORGANIZATION ( #307, #368 ) ;
#189 = DIRECTION ( 'NONE',  ( 0.000000000000000000, 0.000000000000000000, 1.000000000000000000 ) ) ;
#190 = ORIENTED_EDGE ( 'NONE', *, *, #287, .F. ) ;
#191 = DIRECTION ( 'NONE',  ( 0.000000000000000000, 0.000000000000000000, 1.000000000000000000 ) ) ;
#192 = CC_DESIGN_DATE_AND_TIME_ASSIGNMENT ( #238, #236, ( #350 ) ) ;
#193 = APPROVAL_PERSON_ORGANIZATION ( #188, #30, #333 ) ;
#194 = ORIENTED_EDGE ( 'NONE', *, *, #99, .T. ) ;
#195 = EDGE_CURVE ( 'NONE', #61, #1, #343, .T. ) ;
#196 = FACE_OUTER_BOUND ( 'NONE', #375, .T. ) ;
#197 = ORIENTED_EDGE ( 'NONE', *, *, #157, .T. ) ;
#198 = CIRCLE ( 'NONE', #139, 0.2999999999999999334 ) ;
#199 = CYLINDRICAL_SURFACE ( 'NONE', #251, 2.500000000000000000 ) ;
#200 = DIRECTION ( 'NONE',  ( 1.000000000000000000, 0.000000000000000000, 0.000000000000000000 ) ) ;
#201 = EDGE_CURVE ( 'NONE', #227, #23, #311, .T. ) ;
#202 = CARTESIAN_POINT ( 'NONE',  ( -5.000000000000000000, 0.000000000000000000, 0.000000000000000000 ) ) ;
#203 = ADVANCED_FACE ( 'NONE', ( #87 ), #252, .F. ) ;
#204 = DIRECTION ( 'NONE',  ( -0.000000000000000000, -0.000000000000000000, -1.000000000000000000 ) ) ;
#205 = ORIENTED_EDGE ( 'NONE', *, *, #254, .T. ) ;
#206 = AXIS2_PLACEMENT_3D ( 'NONE', #285, #26, #138 ) ;
#207 = CARTESIAN_POINT ( 'NONE',  ( -1.000000000000000000, 0.000000000000000000, 78.00000000000000000 ) ) ;
#208 = CYLINDRICAL_SURFACE ( 'NONE', #267, 5.000000000000000000 ) ;
#209 = DATE_AND_TIME ( #106, #358 ) ;
#210 = DIRECTION ( 'NONE',  ( 1.000000000000000000, 0.000000000000000000, 0.000000000000000000 ) ) ;
#211 = EDGE_CURVE ( 'NONE', #65, #118, #298, .T. ) ;
#212 = LINE ( 'NONE', #74, #349 ) ;
#213 = DATE_AND_TIME ( #14, #40 ) ;
#214 = CARTESIAN_POINT ( 'NONE',  ( 0.000000000000000000, 0.000000000000000000, 0.000000000000000000 ) ) ;
#215 = CIRCLE ( 'NONE', #187, 5.000000000000000000 ) ;
#216 = CYLINDRICAL_SURFACE ( 'NONE', #186, 1.000000000000000000 ) ;
#217 = PLANE ( 'NONE',  #206 ) ;
#218 = EDGE_CURVE ( 'NONE', #23, #227, #52, .T. ) ;
#219 = VECTOR ( 'NONE', #150, 1000.000000000000000 ) ;
#220 = VERTEX_POINT ( 'NONE', #309 ) ;
#221 = PRODUCT_DEFINITION_SHAPE ( 'NONE', 'NONE',  #115 ) ;
#222 = DIRECTION ( 'NONE',  ( 0.000000000000000000, 0.000000000000000000, 1.000000000000000000 ) ) ;
#223 = ORIENTED_EDGE ( 'NONE', *, *, #301, .F. ) ;
#224 = CARTESIAN_POINT ( 'NONE',  ( 0.000000000000000000, 0.000000000000000000, 3.000000000000000000 ) ) ;
#225 = ORIENTED_EDGE ( 'NONE', *, *, #119, .F. ) ;
#226 = ORIENTED_EDGE ( 'NONE', *, *, #107, .T. ) ;
#227 = VERTEX_POINT ( 'NONE', #340 ) ;
#228 = ORIENTED_EDGE ( 'NONE', *, *, #245, .T. ) ;
#229 = CIRCLE ( 'NONE', #57, 0.2999999999999999334 ) ;
#230 =( NAMED_UNIT ( * ) PLANE_ANGLE_UNIT ( ) SI_UNIT ( $, .RADIAN. ) );
#231 = ORIENTED_EDGE ( 'NONE', *, *, #354, .T. ) ;
#232 = AXIS2_PLACEMENT_3D ( 'NONE', #97, #171, #15 ) ;
#233 = ORIENTED_EDGE ( 'NONE', *, *, #195, .F. ) ;
#234 = COORDINATED_UNIVERSAL_TIME_OFFSET ( 1, 0, .AHEAD. ) ;
#235 = FACE_OUTER_BOUND ( 'NONE', #94, .T. ) ;
#236 = DATE_TIME_ROLE ( 'classification_date' ) ;
#237 = DIRECTION ( 'NONE',  ( -1.000000000000000000, 0.000000000000000000, 0.000000000000000000 ) ) ;
#238 = DATE_AND_TIME ( #361, #174 ) ;
#239 = DIRECTION ( 'NONE',  ( 0.000000000000000000, 0.000000000000000000, -1.000000000000000000 ) ) ;
#240 = ADVANCED_FACE ( 'NONE', ( #345 ), #143, .T. ) ;
#241 = TOROIDAL_SURFACE ( 'NONE', #261, 2.799999999999999822, 0.2999999999999999889 ) ;
#242 = PERSON_AND_ORGANIZATION ( #307, #368 ) ;
#243 = CARTESIAN_POINT ( 'NONE',  ( 2.799999999999999822, 0.000000000000000000, 3.299999999999997158 ) ) ;
#244 = DIRECTION ( 'NONE',  ( 0.000000000000000000, 0.000000000000000000, 1.000000000000000000 ) ) ;
#245 = EDGE_CURVE ( 'NONE', #351, #353, #167, .T. ) ;
#246 = APPROVAL_PERSON_ORGANIZATION ( #129, #72, #262 ) ;
#247 = EDGE_LOOP ( 'NONE', ( #173, #178, #164, #225 ) ) ;
#248 = DIRECTION ( 'NONE',  ( -0.000000000000000000, -0.000000000000000000, -1.000000000000000000 ) ) ;
#249 = DIRECTION ( 'NONE',  ( 0.000000000000000000, 0.000000000000000000, 1.000000000000000000 ) ) ;
#250 = AXIS2_PLACEMENT_3D ( 'NONE', #34, #148, #257 ) ;
#251 = AXIS2_PLACEMENT_3D ( 'NONE', #3, #60, #145 ) ;
#252 = CYLINDRICAL_SURFACE ( 'NONE', #306, 1.000000000000000000 ) ;
#253 = DIRECTION ( 'NONE',  ( 1.000000000000000000, 0.000000000000000000, 0.000000000000000000 ) ) ;
#254 = EDGE_CURVE ( 'NONE', #118, #65, #332, .T. ) ;
#255 = DIRECTION ( 'NONE',  ( 1.000000000000000000, 0.000000000000000000, 0.000000000000000000 ) ) ;
#256 = PRODUCT_RELATED_PRODUCT_CATEGORY ( 'detail', '', ( #47 ) ) ;
#257 = DIRECTION ( 'NONE',  ( 1.000000000000000000, 0.000000000000000000, -0.000000000000000000 ) ) ;
#258 = VECTOR ( 'NONE', #46, 1000.000000000000000 ) ;
#259 = CARTESIAN_POINT ( 'NONE',  ( -2.799999999999999822, 3.429011037612588783E-16, 3.299999999999997158 ) ) ;
#260 = ORIENTED_EDGE ( 'NONE', *, *, #55, .F. ) ;
#261 = AXIS2_PLACEMENT_3D ( 'NONE', #290, #9, #147 ) ;
#262 = APPROVAL_ROLE ( '' ) ;
#263 = DIRECTION ( 'NONE',  ( 1.000000000000000000, 0.000000000000000000, -0.000000000000000000 ) ) ;
#264 = EDGE_LOOP ( 'NONE', ( #315, #228, #283, #126 ) ) ;
#265 = PERSON_AND_ORGANIZATION_ROLE ( 'creator' ) ;
#266 = DIRECTION ( 'NONE',  ( 0.000000000000000000, 0.000000000000000000, -1.000000000000000000 ) ) ;
#267 = AXIS2_PLACEMENT_3D ( 'NONE', #176, #366, #181 ) ;
#268 = APPROVAL ( #42, 'NEURÈENÝ' ) ;
#269 = CIRCLE ( 'NONE', #158, 2.799999999999999822 ) ;
#270 = AXIS2_PLACEMENT_3D ( 'NONE', #114, #140, #141 ) ;
#271 = DIRECTION ( 'NONE',  ( 0.000000000000000000, 0.000000000000000000, 1.000000000000000000 ) ) ;
#272 = EDGE_CURVE ( 'NONE', #227, #144, #198, .T. ) ;
#273 = PERSON_AND_ORGANIZATION ( #307, #368 ) ;
#274 = FACE_OUTER_BOUND ( 'NONE', #264, .T. ) ;
#275 = DIRECTION ( 'NONE',  ( 1.000000000000000000, 0.000000000000000000, 0.000000000000000000 ) ) ;
#276 = CIRCLE ( 'NONE', #330, 1.000000000000000000 ) ;
#277 = ORIENTED_EDGE ( 'NONE', *, *, #272, .F. ) ;
#278 = DIRECTION ( 'NONE',  ( 0.000000000000000000, 0.000000000000000000, 1.000000000000000000 ) ) ;
#279 = ADVANCED_FACE ( 'NONE', ( #177 ), #182, .F. ) ;
#280 = ORIENTED_EDGE ( 'NONE', *, *, #254, .F. ) ;
#281 = CC_DESIGN_DATE_AND_TIME_ASSIGNMENT ( #213, #12, ( #115 ) ) ;
#282 = LINE ( 'NONE', #22, #379 ) ;
#283 = ORIENTED_EDGE ( 'NONE', *, *, #287, .T. ) ;
#284 = CC_DESIGN_SECURITY_CLASSIFICATION ( #350, ( #31 ) ) ;
#285 = CARTESIAN_POINT ( 'NONE',  ( 0.000000000000000000, 0.000000000000000000, 0.000000000000000000 ) ) ;
#286 = ORIENTED_EDGE ( 'NONE', *, *, #7, .T. ) ;
#287 = EDGE_CURVE ( 'NONE', #353, #142, #319, .T. ) ;
#288 = PLANE ( 'NONE',  #250 ) ;
#289 = MANIFOLD_SOLID_BREP ( 'Odebrat vysunutím3', #316 ) ;
#290 = CARTESIAN_POINT ( 'NONE',  ( 0.000000000000000000, 0.000000000000000000, 3.299999999999997158 ) ) ;
#291 = ORIENTED_EDGE ( 'NONE', *, *, #346, .T. ) ;
#292 = LOCAL_TIME ( 17, 53, 36.00000000000000000, #153 ) ;
#293 = ORIENTED_EDGE ( 'NONE', *, *, #135, .T. ) ;
#294 = ORIENTED_EDGE ( 'NONE', *, *, #245, .F. ) ;
#295 = DIRECTION ( 'NONE',  ( 0.000000000000000000, 0.000000000000000000, 1.000000000000000000 ) ) ;
#296 = CIRCLE ( 'NONE', #323, 1.000000000000000000 ) ;
#297 = APPROVAL_DATE_TIME ( #308, #268 ) ;
#298 = CIRCLE ( 'NONE', #122, 2.500000000000000000 ) ;
#299 = MECHANICAL_CONTEXT ( 'NONE', #337, 'mechanical' ) ;
#300 = DIRECTION ( 'NONE',  ( 0.000000000000000000, 0.000000000000000000, -1.000000000000000000 ) ) ;
#301 = EDGE_CURVE ( 'NONE', #142, #103, #24, .T. ) ;
#302 = CARTESIAN_POINT ( 'NONE',  ( 0.000000000000000000, 0.000000000000000000, 3.000000000000000000 ) ) ;
#303 = PERSON_AND_ORGANIZATION_ROLE ( 'design_supplier' ) ;
#304 = CARTESIAN_POINT ( 'NONE',  ( 0.000000000000000000, 0.000000000000000000, 3.000000000000000000 ) ) ;
#305 = ADVANCED_FACE ( 'NONE', ( #35 ), #199, .T. ) ;
#306 = AXIS2_PLACEMENT_3D ( 'NONE', #163, #112, #381 ) ;
#307 = PERSON ( 'NEURÈENÝ', 'NEURÈENÝ', 'NEURÈENÝ', ('NEURÈENÝ'), ('NEURÈENÝ'), ('NEURÈENÝ') ) ;
#308 = DATE_AND_TIME ( #73, #292 ) ;
#309 = CARTESIAN_POINT ( 'NONE',  ( 2.799999999999999822, 0.000000000000000000, 2.999999999999998668 ) ) ;
#310 = DIRECTION ( 'NONE',  ( 1.000000000000000000, 0.000000000000000000, 0.000000000000000000 ) ) ;
#311 = CIRCLE ( 'NONE', #270, 2.500000000000000000 ) ;
#312 = ORIENTED_EDGE ( 'NONE', *, *, #7, .F. ) ;
#313 = CARTESIAN_POINT ( 'NONE',  ( 0.000000000000000000, 0.000000000000000000, 78.00000000000000000 ) ) ;
#314 = CARTESIAN_POINT ( 'NONE',  ( 0.000000000000000000, 0.000000000000000000, 3.299999999999997158 ) ) ;
#315 = ORIENTED_EDGE ( 'NONE', *, *, #99, .F. ) ;
#316 = CLOSED_SHELL ( 'NONE', ( #203, #279, #305, #77, #49, #62, #162, #240, #21, #370, #53 ) ) ;
#317 = CARTESIAN_POINT ( 'NONE',  ( 0.000000000000000000, 0.000000000000000000, 0.000000000000000000 ) ) ;
#318 = DESIGN_CONTEXT ( 'detailed design', #137, 'design' ) ;
#319 = LINE ( 'NONE', #63, #219 ) ;
#320 = ORIENTED_EDGE ( 'NONE', *, *, #27, .T. ) ;
#321 = EDGE_LOOP ( 'NONE', ( #312, #294 ) ) ;
#322 = AXIS2_PLACEMENT_3D ( 'NONE', #304, #271, #210 ) ;
#323 = AXIS2_PLACEMENT_3D ( 'NONE', #124, #325, #71 ) ;
#324 = CC_DESIGN_APPROVAL ( #72, ( #31 ) ) ;
#325 = DIRECTION ( 'NONE',  ( -0.000000000000000000, -0.000000000000000000, -1.000000000000000000 ) ) ;
#326 = ORIENTED_EDGE ( 'NONE', *, *, #96, .T. ) ;
#327 = ORIENTED_EDGE ( 'NONE', *, *, #119, .T. ) ;
#328 = APPROVAL_ROLE ( '' ) ;
#329 = ORIENTED_EDGE ( 'NONE', *, *, #211, .T. ) ;
#330 = AXIS2_PLACEMENT_3D ( 'NONE', #98, #101, #200 ) ;
#331 = APPROVAL_DATE_TIME ( #209, #30 ) ;
#332 = CIRCLE ( 'NONE', #75, 2.500000000000000000 ) ;
#333 = APPROVAL_ROLE ( '' ) ;
#334 = FACE_OUTER_BOUND ( 'NONE', #344, .T. ) ;
#335 = PERSON_AND_ORGANIZATION ( #307, #368 ) ;
#336 = FACE_BOUND ( 'NONE', #146, .T. ) ;
#337 = APPLICATION_CONTEXT ( 'configuration controlled 3d designs of mechanical parts and assemblies' ) ;
#338 = FACE_OUTER_BOUND ( 'NONE', #128, .T. ) ;
#339 = DIRECTION ( 'NONE',  ( -1.000000000000000000, 0.000000000000000000, 0.000000000000000000 ) ) ;
#340 = CARTESIAN_POINT ( 'NONE',  ( -2.500000000000000000, 0.000000000000000000, 3.299999999999997158 ) ) ;
#341 = DIRECTION ( 'NONE',  ( 0.000000000000000000, 0.000000000000000000, 1.000000000000000000 ) ) ;
#342 = AXIS2_PLACEMENT_3D ( 'NONE', #38, #295, #255 ) ;
#343 = LINE ( 'NONE', #93, #373 ) ;
#344 = EDGE_LOOP ( 'NONE', ( #95, #326 ) ) ;
#345 = FACE_OUTER_BOUND ( 'NONE', #151, .T. ) ;
#346 = EDGE_CURVE ( 'NONE', #1, #357, #215, .T. ) ;
#347 = CC_DESIGN_PERSON_AND_ORGANIZATION_ASSIGNMENT ( #104, #265, ( #115 ) ) ;
#348 = ORIENTED_EDGE ( 'NONE', *, *, #135, .F. ) ;
#349 = VECTOR ( 'NONE', #110, 1000.000000000000000 ) ;
#350 = SECURITY_CLASSIFICATION ( '', '', #45 ) ;
#351 = VERTEX_POINT ( 'NONE', #169 ) ;
#352 =( NAMED_UNIT ( * ) SI_UNIT ( $, .STERADIAN. ) SOLID_ANGLE_UNIT ( ) );
#353 = VERTEX_POINT ( 'NONE', #207 ) ;
#354 = EDGE_CURVE ( 'NONE', #144, #220, #67, .T. ) ;
#355 = DIRECTION ( 'NONE',  ( 1.000000000000000000, 0.000000000000000000, 0.000000000000000000 ) ) ;
#356 = EDGE_LOOP ( 'NONE', ( #37, #48, #348, #113 ) ) ;
#357 = VERTEX_POINT ( 'NONE', #202 ) ;
#358 = LOCAL_TIME ( 17, 53, 36.00000000000000000, #159 ) ;
#359 = CARTESIAN_POINT ( 'NONE',  ( 5.000000000000000000, 6.123233995736766282E-16, 0.000000000000000000 ) ) ;
#360 = ORIENTED_EDGE ( 'NONE', *, *, #195, .T. ) ;
#361 = CALENDAR_DATE ( 2022, 8, 7 ) ;
#362 = CARTESIAN_POINT ( 'NONE',  ( -5.000000000000000000, 0.000000000000000000, 3.000000000000000000 ) ) ;
#363 = PERSON_AND_ORGANIZATION_ROLE ( 'classification_officer' ) ;
#364 = CARTESIAN_POINT ( 'NONE',  ( 1.000000000000000000, 1.224646799147353207E-16, 78.00000000000000000 ) ) ;
#365 = DATE_AND_TIME ( #108, #102 ) ;
#366 = DIRECTION ( 'NONE',  ( -0.000000000000000000, -0.000000000000000000, -1.000000000000000000 ) ) ;
#367 = CIRCLE ( 'NONE', #66, 5.000000000000000000 ) ;
#368 = ORGANIZATION ( 'NEURÈENÝ', 'NEURÈENÝ', '' ) ;
#369 = APPROVAL_STATUS ( 'not_yet_approved' ) ;
#370 = ADVANCED_FACE ( 'NONE', ( #33 ), #241, .F. ) ;
#371 = APPLICATION_PROTOCOL_DEFINITION ( 'international standard', 'config_control_design', 1994, #137 ) ;
#372 = CARTESIAN_POINT ( 'NONE',  ( -2.500000000000000000, 0.000000000000000000, 78.00000000000000000 ) ) ;
#373 = VECTOR ( 'NONE', #84, 1000.000000000000000 ) ;
#374 = DIRECTION ( 'NONE',  ( -0.000000000000000000, -0.000000000000000000, -1.000000000000000000 ) ) ;
#375 = EDGE_LOOP ( 'NONE', ( #64, #91 ) ) ;
#376 = CARTESIAN_POINT ( 'NONE',  ( -1.000000000000000000, 0.000000000000000000, 0.000000000000000000 ) ) ;
#377 = DIRECTION ( 'NONE',  ( 1.000000000000000000, 0.000000000000000000, 0.000000000000000000 ) ) ;
#378 = ORIENTED_EDGE ( 'NONE', *, *, #172, .F. ) ;
#379 = VECTOR ( 'NONE', #248, 1000.000000000000000 ) ;
#380 = AXIS2_PLACEMENT_3D ( 'NONE', #10, #5, #355 ) ;
#381 = DIRECTION ( 'NONE',  ( -1.000000000000000000, 0.000000000000000000, 0.000000000000000000 ) ) ;
ENDSEC;
END-ISO-10303-21;
