ISO-10303-21;
HEADER;
FILE_DESCRIPTION (( 'STEP AP203' ),
    '1' );
FILE_NAME ('7846.STEP',
    '2022-07-08T15:17:19',
    ( '' ),
    ( '' ),
    'SwSTEP 2.0',
    'SolidWorks 2019',
    '' );
FILE_SCHEMA (( 'CONFIG_CONTROL_DESIGN' ));
ENDSEC;

DATA;
#1 = CARTESIAN_POINT ( 'NONE',  ( 0.000000000000000000, 0.000000000000000000, 5.000000000000000000 ) ) ;
#2 = CARTESIAN_POINT ( 'NONE',  ( -8.000000000000000000, 0.000000000000000000, 5.000000000000000000 ) ) ;
#3 = AXIS2_PLACEMENT_3D ( 'NONE', #82, #309, #88 ) ;
#4 = PRODUCT_DEFINITION_SHAPE ( 'NONE', 'NONE',  #281 ) ;
#5 = LOCAL_TIME ( 17, 17, 19.00000000000000000, #138 ) ;
#6 = CARTESIAN_POINT ( 'NONE',  ( 0.000000000000000000, 0.000000000000000000, 130.0000000000000000 ) ) ;
#7 = CC_DESIGN_PERSON_AND_ORGANIZATION_ASSIGNMENT ( #18, #207, ( #22 ) ) ;
#8 = ORIENTED_EDGE ( 'NONE', *, *, #361, .T. ) ;
#9 = CARTESIAN_POINT ( 'NONE',  ( 0.000000000000000000, 0.000000000000000000, 130.0000000000000000 ) ) ;
#10 = CC_DESIGN_PERSON_AND_ORGANIZATION_ASSIGNMENT ( #52, #61, ( #281 ) ) ;
#11 = CARTESIAN_POINT ( 'NONE',  ( 5.500000000000000000, 0.000000000000000000, 5.000000000000002665 ) ) ;
#12 = ORIENTED_EDGE ( 'NONE', *, *, #290, .F. ) ;
#13 = DIRECTION ( 'NONE',  ( 1.000000000000000000, 0.000000000000000000, 0.000000000000000000 ) ) ;
#14 = DIRECTION ( 'NONE',  ( 1.000000000000000000, 0.000000000000000000, 0.000000000000000000 ) ) ;
#15 = ADVANCED_FACE ( 'NONE', ( #164 ), #105, .F. ) ;
#16 = EDGE_CURVE ( 'NONE', #154, #274, #43, .T. ) ;
#17 =( GEOMETRIC_REPRESENTATION_CONTEXT ( 3 ) GLOBAL_UNCERTAINTY_ASSIGNED_CONTEXT ( ( #254 ) ) GLOBAL_UNIT_ASSIGNED_CONTEXT ( ( #242, #241, #185 ) ) REPRESENTATION_CONTEXT ( 'NONE', 'WORKASPACE' ) );
#18 = PERSON_AND_ORGANIZATION ( #232, #230 ) ;
#19 = MANIFOLD_SOLID_BREP ( 'Odebrat vysunutím3', #292 ) ;
#20 = VERTEX_POINT ( 'NONE', #165 ) ;
#21 = DIRECTION ( 'NONE',  ( 1.000000000000000000, 0.000000000000000000, 0.000000000000000000 ) ) ;
#22 = PRODUCT ( '7846', '7846', '', ( #273 ) ) ;
#23 = ORIENTED_EDGE ( 'NONE', *, *, #290, .T. ) ;
#24 = CC_DESIGN_APPROVAL ( #211, ( #281 ) ) ;
#25 = APPROVAL_STATUS ( 'not_yet_approved' ) ;
#26 = EDGE_LOOP ( 'NONE', ( #117, #275, #368, #301 ) ) ;
#27 = EDGE_CURVE ( 'NONE', #20, #109, #136, .T. ) ;
#28 = ORIENTED_EDGE ( 'NONE', *, *, #78, .T. ) ;
#29 = CIRCLE ( 'NONE', #235, 0.5000000000000004441 ) ;
#30 = EDGE_LOOP ( 'NONE', ( #41, #287 ) ) ;
#31 = VECTOR ( 'NONE', #255, 1000.000000000000000 ) ;
#32 = EDGE_CURVE ( 'NONE', #248, #324, #358, .T. ) ;
#33 = DIRECTION ( 'NONE',  ( 0.000000000000000000, 0.000000000000000000, 1.000000000000000000 ) ) ;
#34 = DIRECTION ( 'NONE',  ( 1.000000000000000000, 0.000000000000000000, -0.000000000000000000 ) ) ;
#35 = PLANE ( 'NONE',  #210 ) ;
#36 = AXIS2_PLACEMENT_3D ( 'NONE', #201, #33, #231 ) ;
#37 = EDGE_LOOP ( 'NONE', ( #12, #250, #137, #342 ) ) ;
#38 = FACE_OUTER_BOUND ( 'NONE', #244, .T. ) ;
#39 = CARTESIAN_POINT ( 'NONE',  ( 0.000000000000000000, 0.000000000000000000, 0.000000000000000000 ) ) ;
#40 = CARTESIAN_POINT ( 'NONE',  ( 0.000000000000000000, 0.000000000000000000, 130.0000000000000000 ) ) ;
#41 = ORIENTED_EDGE ( 'NONE', *, *, #277, .T. ) ;
#42 = CYLINDRICAL_SURFACE ( 'NONE', #213, 5.000000000000000000 ) ;
#43 = CIRCLE ( 'NONE', #87, 5.000000000000000000 ) ;
#44 = APPLICATION_PROTOCOL_DEFINITION ( 'international standard', 'config_control_design', 1994, #65 ) ;
#45 = AXIS2_PLACEMENT_3D ( 'NONE', #9, #325, #34 ) ;
#46 = EDGE_CURVE ( 'NONE', #168, #173, #70, .T. ) ;
#47 = DIRECTION ( 'NONE',  ( 0.000000000000000000, 0.000000000000000000, -1.000000000000000000 ) ) ;
#48 = DIRECTION ( 'NONE',  ( 0.000000000000000000, 0.000000000000000000, 1.000000000000000000 ) ) ;
#49 = EDGE_CURVE ( 'NONE', #274, #248, #349, .T. ) ;
#50 = ORIENTED_EDGE ( 'NONE', *, *, #366, .T. ) ;
#51 = ORIENTED_EDGE ( 'NONE', *, *, #104, .T. ) ;
#52 = PERSON_AND_ORGANIZATION ( #232, #230 ) ;
#53 = ORIENTED_EDGE ( 'NONE', *, *, #104, .F. ) ;
#54 = COORDINATED_UNIVERSAL_TIME_OFFSET ( 1, 0, .AHEAD. ) ;
#55 = AXIS2_PLACEMENT_3D ( 'NONE', #39, #176, #323 ) ;
#56 = AXIS2_PLACEMENT_3D ( 'NONE', #178, #256, #125 ) ;
#57 = AXIS2_PLACEMENT_3D ( 'NONE', #6, #353, #356 ) ;
#58 = ORIENTED_EDGE ( 'NONE', *, *, #286, .F. ) ;
#59 = PRODUCT_DEFINITION_FORMATION_WITH_SPECIFIED_SOURCE ( 'LIBOVOLNÝ', '', #22, .NOT_KNOWN. ) ;
#60 = ORIENTED_EDGE ( 'NONE', *, *, #27, .F. ) ;
#61 = PERSON_AND_ORGANIZATION_ROLE ( 'creator' ) ;
#62 = DIRECTION ( 'NONE',  ( -0.000000000000000000, -0.000000000000000000, -1.000000000000000000 ) ) ;
#63 = CARTESIAN_POINT ( 'NONE',  ( 0.000000000000000000, 0.000000000000000000, 130.0000000000000000 ) ) ;
#64 = FACE_OUTER_BOUND ( 'NONE', #30, .T. ) ;
#65 = APPLICATION_CONTEXT ( 'configuration controlled 3d designs of mechanical parts and assemblies' ) ;
#66 = FACE_BOUND ( 'NONE', #190, .T. ) ;
#67 = VERTEX_POINT ( 'NONE', #220 ) ;
#68 = DIRECTION ( 'NONE',  ( -1.000000000000000000, 0.000000000000000000, 0.000000000000000000 ) ) ;
#69 = FACE_OUTER_BOUND ( 'NONE', #158, .T. ) ;
#70 = CIRCLE ( 'NONE', #3, 2.500000000000000000 ) ;
#71 = ORIENTED_EDGE ( 'NONE', *, *, #32, .F. ) ;
#72 = CYLINDRICAL_SURFACE ( 'NONE', #304, 8.000000000000000000 ) ;
#73 = CYLINDRICAL_SURFACE ( 'NONE', #95, 2.500000000000000000 ) ;
#74 = ORIENTED_EDGE ( 'NONE', *, *, #152, .T. ) ;
#75 = CARTESIAN_POINT ( 'NONE',  ( 0.000000000000000000, 0.000000000000000000, 5.000000000000000000 ) ) ;
#76 = CC_DESIGN_DATE_AND_TIME_ASSIGNMENT ( #377, #276, ( #281 ) ) ;
#77 = DIRECTION ( 'NONE',  ( -1.000000000000000000, 0.000000000000000000, 0.000000000000000000 ) ) ;
#78 = EDGE_CURVE ( 'NONE', #154, #324, #29, .T. ) ;
#79 = AXIS2_PLACEMENT_3D ( 'NONE', #300, #146, #200 ) ;
#80 = CIRCLE ( 'NONE', #319, 5.500000000000000000 ) ;
#81 = AXIS2_PLACEMENT_3D ( 'NONE', #240, #103, #132 ) ;
#82 = CARTESIAN_POINT ( 'NONE',  ( 0.000000000000000000, 0.000000000000000000, 130.0000000000000000 ) ) ;
#83 = COORDINATED_UNIVERSAL_TIME_OFFSET ( 1, 0, .AHEAD. ) ;
#84 = CARTESIAN_POINT ( 'NONE',  ( 0.000000000000000000, 0.000000000000000000, 5.500000000000005329 ) ) ;
#85 = EDGE_LOOP ( 'NONE', ( #295, #128, #51, #8 ) ) ;
#86 = CALENDAR_DATE ( 2022, 8, 7 ) ;
#87 = AXIS2_PLACEMENT_3D ( 'NONE', #84, #340, #308 ) ;
#88 = DIRECTION ( 'NONE',  ( 1.000000000000000000, 0.000000000000000000, 0.000000000000000000 ) ) ;
#89 = AXIS2_PLACEMENT_3D ( 'NONE', #305, #48, #163 ) ;
#90 = PERSON_AND_ORGANIZATION_ROLE ( 'design_supplier' ) ;
#91 = VERTEX_POINT ( 'NONE', #285 ) ;
#92 = DIRECTION ( 'NONE',  ( -1.000000000000000000, 0.000000000000000000, 0.000000000000000000 ) ) ;
#93 = ADVANCED_BREP_SHAPE_REPRESENTATION ( '7846', ( #19, #89 ), #17 ) ;
#94 = FACE_OUTER_BOUND ( 'NONE', #253, .T. ) ;
#95 = AXIS2_PLACEMENT_3D ( 'NONE', #266, #119, #92 ) ;
#96 = DIRECTION ( 'NONE',  ( -0.000000000000000000, -0.000000000000000000, -1.000000000000000000 ) ) ;
#97 = CARTESIAN_POINT ( 'NONE',  ( -8.000000000000000000, 0.000000000000000000, 5.000000000000000000 ) ) ;
#98 = VERTEX_POINT ( 'NONE', #140 ) ;
#99 = PLANE ( 'NONE',  #367 ) ;
#100 = LINE ( 'NONE', #204, #129 ) ;
#101 = ORIENTED_EDGE ( 'NONE', *, *, #150, .F. ) ;
#102 = CARTESIAN_POINT ( 'NONE',  ( -5.500000000000000000, 6.735557395310442023E-16, 5.000000000000002665 ) ) ;
#103 = DIRECTION ( 'NONE',  ( 0.000000000000000000, 0.000000000000000000, 1.000000000000000000 ) ) ;
#104 = EDGE_CURVE ( 'NONE', #98, #274, #346, .T. ) ;
#105 = TOROIDAL_SURFACE ( 'NONE', #318, 5.500000000000000000, 0.5000000000000000000 ) ;
#106 = CARTESIAN_POINT ( 'NONE',  ( 5.000000000000000000, 6.123233995736766282E-16, 130.0000000000000000 ) ) ;
#107 = ORIENTED_EDGE ( 'NONE', *, *, #315, .T. ) ;
#108 = APPROVAL_PERSON_ORGANIZATION ( #314, #236, #193 ) ;
#109 = VERTEX_POINT ( 'NONE', #135 ) ;
#110 = SECURITY_CLASSIFICATION_LEVEL ( 'unclassified' ) ;
#111 = DIRECTION ( 'NONE',  ( -1.000000000000000000, 1.224646799147351482E-16, 0.000000000000000000 ) ) ;
#112 = APPROVAL_DATE_TIME ( #249, #211 ) ;
#113 = ADVANCED_FACE ( 'NONE', ( #66, #321 ), #35, .F. ) ;
#114 = EDGE_CURVE ( 'NONE', #332, #67, #227, .T. ) ;
#115 = DIRECTION ( 'NONE',  ( -0.000000000000000000, -0.000000000000000000, -1.000000000000000000 ) ) ;
#116 = PERSON_AND_ORGANIZATION ( #232, #230 ) ;
#117 = ORIENTED_EDGE ( 'NONE', *, *, #183, .F. ) ;
#118 = APPROVAL_DATE_TIME ( #379, #236 ) ;
#119 = DIRECTION ( 'NONE',  ( 0.000000000000000000, 0.000000000000000000, -1.000000000000000000 ) ) ;
#120 = DIRECTION ( 'NONE',  ( 1.000000000000000000, 0.000000000000000000, -0.000000000000000000 ) ) ;
#121 = AXIS2_PLACEMENT_3D ( 'NONE', #336, #115, #21 ) ;
#122 = CARTESIAN_POINT ( 'NONE',  ( 0.000000000000000000, 0.000000000000000000, 5.000000000000000000 ) ) ;
#123 = AXIS2_PLACEMENT_3D ( 'NONE', #1, #234, #151 ) ;
#124 = LINE ( 'NONE', #97, #31 ) ;
#125 = DIRECTION ( 'NONE',  ( 1.000000000000000000, 0.000000000000000000, 0.000000000000000000 ) ) ;
#126 = FACE_OUTER_BOUND ( 'NONE', #37, .T. ) ;
#127 = CARTESIAN_POINT ( 'NONE',  ( -2.500000000000000000, 0.000000000000000000, 130.0000000000000000 ) ) ;
#128 = ORIENTED_EDGE ( 'NONE', *, *, #366, .F. ) ;
#129 = VECTOR ( 'NONE', #329, 1000.000000000000000 ) ;
#130 = ORIENTED_EDGE ( 'NONE', *, *, #32, .T. ) ;
#131 = CARTESIAN_POINT ( 'NONE',  ( 0.000000000000000000, 0.000000000000000000, 130.0000000000000000 ) ) ;
#132 = DIRECTION ( 'NONE',  ( 1.000000000000000000, 0.000000000000000000, 0.000000000000000000 ) ) ;
#133 = EDGE_LOOP ( 'NONE', ( #359, #245, #202, #53 ) ) ;
#134 = CALENDAR_DATE ( 2022, 8, 7 ) ;
#135 = CARTESIAN_POINT ( 'NONE',  ( 2.500000000000000000, 3.061616997868383141E-16, 0.000000000000000000 ) ) ;
#136 = CIRCLE ( 'NONE', #121, 2.500000000000000000 ) ;
#137 = ORIENTED_EDGE ( 'NONE', *, *, #298, .T. ) ;
#138 = COORDINATED_UNIVERSAL_TIME_OFFSET ( 1, 0, .AHEAD. ) ;
#139 = VERTEX_POINT ( 'NONE', #2 ) ;
#140 = CARTESIAN_POINT ( 'NONE',  ( -5.000000000000000000, 0.000000000000000000, 130.0000000000000000 ) ) ;
#141 = APPROVAL_ROLE ( '' ) ;
#142 = ORIENTED_EDGE ( 'NONE', *, *, #78, .F. ) ;
#143 = CIRCLE ( 'NONE', #352, 5.000000000000000000 ) ;
#144 = DIRECTION ( 'NONE',  ( 0.000000000000000000, 0.000000000000000000, 1.000000000000000000 ) ) ;
#145 = FACE_BOUND ( 'NONE', #338, .T. ) ;
#146 = DIRECTION ( 'NONE',  ( 0.000000000000000000, 0.000000000000000000, 1.000000000000000000 ) ) ;
#147 = DIRECTION ( 'NONE',  ( 0.000000000000000000, 0.000000000000000000, -1.000000000000000000 ) ) ;
#148 = CARTESIAN_POINT ( 'NONE',  ( 0.000000000000000000, 0.000000000000000000, 0.000000000000000000 ) ) ;
#149 = ORIENTED_EDGE ( 'NONE', *, *, #286, .T. ) ;
#150 = EDGE_CURVE ( 'NONE', #306, #139, #278, .T. ) ;
#151 = DIRECTION ( 'NONE',  ( 1.000000000000000000, 0.000000000000000000, 0.000000000000000000 ) ) ;
#152 = EDGE_CURVE ( 'NONE', #109, #20, #257, .T. ) ;
#153 = DIRECTION ( 'NONE',  ( -0.000000000000000000, -0.000000000000000000, -1.000000000000000000 ) ) ;
#154 = VERTEX_POINT ( 'NONE', #226 ) ;
#155 = CC_DESIGN_DATE_AND_TIME_ASSIGNMENT ( #221, #341, ( #372 ) ) ;
#156 = FACE_OUTER_BOUND ( 'NONE', #26, .T. ) ;
#157 = APPLICATION_CONTEXT ( 'configuration controlled 3d designs of mechanical parts and assemblies' ) ;
#158 = EDGE_LOOP ( 'NONE', ( #101, #23, #194, #264 ) ) ;
#159 = EDGE_CURVE ( 'NONE', #324, #248, #80, .T. ) ;
#160 = APPROVAL_PERSON_ORGANIZATION ( #344, #238, #141 ) ;
#161 = PERSON_AND_ORGANIZATION ( #232, #230 ) ;
#162 = CARTESIAN_POINT ( 'NONE',  ( -8.000000000000000000, 0.000000000000000000, 0.000000000000000000 ) ) ;
#163 = DIRECTION ( 'NONE',  ( 1.000000000000000000, 0.000000000000000000, 0.000000000000000000 ) ) ;
#164 = FACE_OUTER_BOUND ( 'NONE', #233, .T. ) ;
#165 = CARTESIAN_POINT ( 'NONE',  ( -2.500000000000000000, 0.000000000000000000, 0.000000000000000000 ) ) ;
#166 = APPROVAL_DATE_TIME ( #251, #238 ) ;
#167 = APPROVAL_PERSON_ORGANIZATION ( #161, #211, #288 ) ;
#168 = VERTEX_POINT ( 'NONE', #354 ) ;
#169 = SHAPE_DEFINITION_REPRESENTATION ( #4, #93 ) ;
#170 = DIRECTION ( 'NONE',  ( 0.000000000000000000, -1.000000000000000000, 0.000000000000000000 ) ) ;
#171 = COORDINATED_UNIVERSAL_TIME_OFFSET ( 1, 0, .AHEAD. ) ;
#172 = ADVANCED_FACE ( 'NONE', ( #69 ), #261, .T. ) ;
#173 = VERTEX_POINT ( 'NONE', #127 ) ;
#174 = CC_DESIGN_PERSON_AND_ORGANIZATION_ASSIGNMENT ( #375, #90, ( #59 ) ) ;
#175 = AXIS2_PLACEMENT_3D ( 'NONE', #351, #293, #13 ) ;
#176 = DIRECTION ( 'NONE',  ( -0.000000000000000000, -0.000000000000000000, -1.000000000000000000 ) ) ;
#177 = CARTESIAN_POINT ( 'NONE',  ( 8.000000000000000000, 9.797174393178825657E-16, 5.000000000000000000 ) ) ;
#178 = CARTESIAN_POINT ( 'NONE',  ( 0.000000000000000000, 0.000000000000000000, 5.000000000000000000 ) ) ;
#179 = VECTOR ( 'NONE', #47, 1000.000000000000000 ) ;
#180 = FACE_OUTER_BOUND ( 'NONE', #85, .T. ) ;
#181 = DIRECTION ( 'NONE',  ( 0.000000000000000000, 0.000000000000000000, 1.000000000000000000 ) ) ;
#182 = VECTOR ( 'NONE', #62, 1000.000000000000000 ) ;
#183 = EDGE_CURVE ( 'NONE', #168, #109, #100, .T. ) ;
#184 = ADVANCED_FACE ( 'NONE', ( #156 ), #73, .F. ) ;
#185 =( NAMED_UNIT ( * ) SI_UNIT ( $, .STERADIAN. ) SOLID_ANGLE_UNIT ( ) );
#186 = DIRECTION ( 'NONE',  ( 0.000000000000000000, 0.000000000000000000, -1.000000000000000000 ) ) ;
#187 = EDGE_CURVE ( 'NONE', #173, #20, #195, .T. ) ;
#188 = DIRECTION ( 'NONE',  ( 1.000000000000000000, 0.000000000000000000, 0.000000000000000000 ) ) ;
#189 = COORDINATED_UNIVERSAL_TIME_OFFSET ( 1, 0, .AHEAD. ) ;
#190 = EDGE_LOOP ( 'NONE', ( #60, #378 ) ) ;
#191 = LOCAL_TIME ( 17, 17, 19.00000000000000000, #83 ) ;
#192 = CARTESIAN_POINT ( 'NONE',  ( -5.500000000000000000, 6.735557395310442023E-16, 5.500000000000005329 ) ) ;
#193 = APPROVAL_ROLE ( '' ) ;
#194 = ORIENTED_EDGE ( 'NONE', *, *, #225, .T. ) ;
#195 = LINE ( 'NONE', #243, #179 ) ;
#196 = DIRECTION ( 'NONE',  ( 0.000000000000000000, 0.000000000000000000, 1.000000000000000000 ) ) ;
#197 = CC_DESIGN_APPROVAL ( #236, ( #372 ) ) ;
#198 = CARTESIAN_POINT ( 'NONE',  ( 0.000000000000000000, 0.000000000000000000, 5.000000000000000000 ) ) ;
#199 = ADVANCED_FACE ( 'NONE', ( #208 ), #350, .F. ) ;
#200 = DIRECTION ( 'NONE',  ( 1.000000000000000000, 0.000000000000000000, 0.000000000000000000 ) ) ;
#201 = CARTESIAN_POINT ( 'NONE',  ( 0.000000000000000000, 0.000000000000000000, 5.500000000000005329 ) ) ;
#202 = ORIENTED_EDGE ( 'NONE', *, *, #16, .T. ) ;
#203 = DIRECTION ( 'NONE',  ( 1.000000000000000000, 0.000000000000000000, -0.000000000000000000 ) ) ;
#204 = CARTESIAN_POINT ( 'NONE',  ( 2.500000000000000000, 3.061616997868383141E-16, 130.0000000000000000 ) ) ;
#205 = LOCAL_TIME ( 17, 17, 19.00000000000000000, #171 ) ;
#206 = ORIENTED_EDGE ( 'NONE', *, *, #49, .F. ) ;
#207 = PERSON_AND_ORGANIZATION_ROLE ( 'design_owner' ) ;
#208 = FACE_OUTER_BOUND ( 'NONE', #267, .T. ) ;
#209 = DIRECTION ( 'NONE',  ( -0.000000000000000000, -0.000000000000000000, -1.000000000000000000 ) ) ;
#210 = AXIS2_PLACEMENT_3D ( 'NONE', #148, #144, #120 ) ;
#211 = APPROVAL ( #365, 'NEURÈENÝ' ) ;
#212 = AXIS2_PLACEMENT_3D ( 'NONE', #291, #147, #258 ) ;
#213 = AXIS2_PLACEMENT_3D ( 'NONE', #63, #335, #77 ) ;
#214 = ADVANCED_FACE ( 'NONE', ( #145, #38 ), #265, .T. ) ;
#215 = EDGE_LOOP ( 'NONE', ( #381, #284 ) ) ;
#216 = CC_DESIGN_PERSON_AND_ORGANIZATION_ASSIGNMENT ( #116, #339, ( #59 ) ) ;
#217 = ORIENTED_EDGE ( 'NONE', *, *, #159, .T. ) ;
#218 = PERSON_AND_ORGANIZATION ( #232, #230 ) ;
#219 = DIRECTION ( 'NONE',  ( 0.000000000000000000, 0.000000000000000000, 1.000000000000000000 ) ) ;
#220 = CARTESIAN_POINT ( 'NONE',  ( 8.000000000000000000, 9.797174393178825657E-16, 0.000000000000000000 ) ) ;
#221 = DATE_AND_TIME ( #317, #307 ) ;
#222 = CARTESIAN_POINT ( 'NONE',  ( 0.000000000000000000, 0.000000000000000000, 5.000000000000000000 ) ) ;
#223 = AXIS2_PLACEMENT_3D ( 'NONE', #222, #371, #188 ) ;
#224 = DIRECTION ( 'NONE',  ( 1.224646799147353207E-16, 1.000000000000000000, -0.000000000000000000 ) ) ;
#225 = EDGE_CURVE ( 'NONE', #67, #332, #337, .T. ) ;
#226 = CARTESIAN_POINT ( 'NONE',  ( 5.000000000000000000, 6.123233995736766282E-16, 5.500000000000005329 ) ) ;
#227 = CIRCLE ( 'NONE', #79, 8.000000000000000000 ) ;
#228 = DIRECTION ( 'NONE',  ( 1.000000000000000000, 0.000000000000000000, 0.000000000000000000 ) ) ;
#229 = DIRECTION ( 'NONE',  ( -0.000000000000000000, -0.000000000000000000, -1.000000000000000000 ) ) ;
#230 = ORGANIZATION ( 'NEURÈENÝ', 'NEURÈENÝ', '' ) ;
#231 = DIRECTION ( 'NONE',  ( 1.000000000000000000, 0.000000000000000000, 0.000000000000000000 ) ) ;
#232 = PERSON ( 'NEURÈENÝ', 'NEURÈENÝ', 'NEURÈENÝ', ('NEURÈENÝ'), ('NEURÈENÝ'), ('NEURÈENÝ') ) ;
#233 = EDGE_LOOP ( 'NONE', ( #334, #239, #326, #142 ) ) ;
#234 = DIRECTION ( 'NONE',  ( 0.000000000000000000, 0.000000000000000000, 1.000000000000000000 ) ) ;
#235 = AXIS2_PLACEMENT_3D ( 'NONE', #313, #170, #186 ) ;
#236 = APPROVAL ( #370, 'NEURÈENÝ' ) ;
#237 = CIRCLE ( 'NONE', #380, 5.000000000000000000 ) ;
#238 = APPROVAL ( #25, 'NEURÈENÝ' ) ;
#239 = ORIENTED_EDGE ( 'NONE', *, *, #49, .T. ) ;
#240 = CARTESIAN_POINT ( 'NONE',  ( 0.000000000000000000, 0.000000000000000000, 130.0000000000000000 ) ) ;
#241 =( NAMED_UNIT ( * ) PLANE_ANGLE_UNIT ( ) SI_UNIT ( $, .RADIAN. ) );
#242 =( LENGTH_UNIT ( ) NAMED_UNIT ( * ) SI_UNIT ( .MILLI., .METRE. ) );
#243 = CARTESIAN_POINT ( 'NONE',  ( -2.500000000000000000, 0.000000000000000000, 130.0000000000000000 ) ) ;
#244 = EDGE_LOOP ( 'NONE', ( #50, #107 ) ) ;
#245 = ORIENTED_EDGE ( 'NONE', *, *, #373, .T. ) ;
#246 = CC_DESIGN_PERSON_AND_ORGANIZATION_ASSIGNMENT ( #218, #282, ( #372 ) ) ;
#247 = DIRECTION ( 'NONE',  ( 1.000000000000000000, 0.000000000000000000, 0.000000000000000000 ) ) ;
#248 = VERTEX_POINT ( 'NONE', #102 ) ;
#249 = DATE_AND_TIME ( #134, #5 ) ;
#250 = ORIENTED_EDGE ( 'NONE', *, *, #277, .F. ) ;
#251 = DATE_AND_TIME ( #310, #191 ) ;
#252 = VECTOR ( 'NONE', #209, 1000.000000000000000 ) ;
#253 = EDGE_LOOP ( 'NONE', ( #149, #355, #74, #369 ) ) ;
#254 = UNCERTAINTY_MEASURE_WITH_UNIT (LENGTH_MEASURE( 1.000000000000000082E-05 ), #242, 'distance_accuracy_value', 'NONE');
#255 = DIRECTION ( 'NONE',  ( -0.000000000000000000, -0.000000000000000000, -1.000000000000000000 ) ) ;
#256 = DIRECTION ( 'NONE',  ( 0.000000000000000000, 0.000000000000000000, 1.000000000000000000 ) ) ;
#257 = CIRCLE ( 'NONE', #55, 2.500000000000000000 ) ;
#258 = DIRECTION ( 'NONE',  ( -1.000000000000000000, 0.000000000000000000, 0.000000000000000000 ) ) ;
#259 = CIRCLE ( 'NONE', #343, 2.500000000000000000 ) ;
#260 = CIRCLE ( 'NONE', #81, 5.000000000000000000 ) ;
#261 = CYLINDRICAL_SURFACE ( 'NONE', #289, 8.000000000000000000 ) ;
#262 = DIRECTION ( 'NONE',  ( 0.000000000000000000, 0.000000000000000000, 1.000000000000000000 ) ) ;
#263 = DIRECTION ( 'NONE',  ( -1.000000000000000000, 0.000000000000000000, 0.000000000000000000 ) ) ;
#264 = ORIENTED_EDGE ( 'NONE', *, *, #298, .F. ) ;
#265 = PLANE ( 'NONE',  #45 ) ;
#266 = CARTESIAN_POINT ( 'NONE',  ( 0.000000000000000000, 0.000000000000000000, 130.0000000000000000 ) ) ;
#267 = EDGE_LOOP ( 'NONE', ( #206, #374, #28, #71 ) ) ;
#268 = DIRECTION ( 'NONE',  ( -0.000000000000000000, -0.000000000000000000, -1.000000000000000000 ) ) ;
#269 = VECTOR ( 'NONE', #96, 1000.000000000000000 ) ;
#270 = ADVANCED_FACE ( 'NONE', ( #126 ), #72, .T. ) ;
#271 = DIRECTION ( 'NONE',  ( 0.000000000000000000, 0.000000000000000000, 1.000000000000000000 ) ) ;
#272 = AXIS2_PLACEMENT_3D ( 'NONE', #192, #224, #111 ) ;
#273 = MECHANICAL_CONTEXT ( 'NONE', #157, 'mechanical' ) ;
#274 = VERTEX_POINT ( 'NONE', #328 ) ;
#275 = ORIENTED_EDGE ( 'NONE', *, *, #46, .T. ) ;
#276 = DATE_TIME_ROLE ( 'creation_date' ) ;
#277 = EDGE_CURVE ( 'NONE', #139, #306, #280, .T. ) ;
#278 = CIRCLE ( 'NONE', #56, 8.000000000000000000 ) ;
#279 = ADVANCED_FACE ( 'NONE', ( #94 ), #360, .F. ) ;
#280 = CIRCLE ( 'NONE', #123, 8.000000000000000000 ) ;
#281 = PRODUCT_DEFINITION ( 'NEZNÁMÝ', '', #59, #364 ) ;
#282 = PERSON_AND_ORGANIZATION_ROLE ( 'classification_officer' ) ;
#283 = ADVANCED_FACE ( 'NONE', ( #180 ), #331, .T. ) ;
#284 = ORIENTED_EDGE ( 'NONE', *, *, #225, .F. ) ;
#285 = CARTESIAN_POINT ( 'NONE',  ( 5.000000000000000000, 6.123233995736766282E-16, 130.0000000000000000 ) ) ;
#286 = EDGE_CURVE ( 'NONE', #173, #168, #259, .T. ) ;
#287 = ORIENTED_EDGE ( 'NONE', *, *, #150, .T. ) ;
#288 = APPROVAL_ROLE ( '' ) ;
#289 = AXIS2_PLACEMENT_3D ( 'NONE', #357, #153, #263 ) ;
#290 = EDGE_CURVE ( 'NONE', #306, #67, #322, .T. ) ;
#291 = CARTESIAN_POINT ( 'NONE',  ( 0.000000000000000000, 0.000000000000000000, 130.0000000000000000 ) ) ;
#292 = CLOSED_SHELL ( 'NONE', ( #279, #15, #327, #172, #270, #312, #113, #283, #214, #199, #184 ) ) ;
#293 = DIRECTION ( 'NONE',  ( 0.000000000000000000, 0.000000000000000000, 1.000000000000000000 ) ) ;
#294 = DIRECTION ( 'NONE',  ( 1.000000000000000000, 0.000000000000000000, 0.000000000000000000 ) ) ;
#295 = ORIENTED_EDGE ( 'NONE', *, *, #373, .F. ) ;
#296 = CARTESIAN_POINT ( 'NONE',  ( 8.000000000000000000, 9.797174393178825657E-16, 5.000000000000000000 ) ) ;
#297 = CC_DESIGN_SECURITY_CLASSIFICATION ( #372, ( #59 ) ) ;
#298 = EDGE_CURVE ( 'NONE', #139, #332, #124, .T. ) ;
#299 = FACE_BOUND ( 'NONE', #330, .T. ) ;
#300 = CARTESIAN_POINT ( 'NONE',  ( 0.000000000000000000, 0.000000000000000000, 0.000000000000000000 ) ) ;
#301 = ORIENTED_EDGE ( 'NONE', *, *, #27, .T. ) ;
#302 = FACE_OUTER_BOUND ( 'NONE', #133, .T. ) ;
#303 = LINE ( 'NONE', #106, #252 ) ;
#304 = AXIS2_PLACEMENT_3D ( 'NONE', #198, #268, #68 ) ;
#305 = CARTESIAN_POINT ( 'NONE',  ( 0.000000000000000000, 0.000000000000000000, 0.000000000000000000 ) ) ;
#306 = VERTEX_POINT ( 'NONE', #177 ) ;
#307 = LOCAL_TIME ( 17, 17, 19.00000000000000000, #189 ) ;
#308 = DIRECTION ( 'NONE',  ( 1.000000000000000000, 0.000000000000000000, 0.000000000000000000 ) ) ;
#309 = DIRECTION ( 'NONE',  ( 0.000000000000000000, 0.000000000000000000, 1.000000000000000000 ) ) ;
#310 = CALENDAR_DATE ( 2022, 8, 7 ) ;
#311 = ORIENTED_EDGE ( 'NONE', *, *, #46, .F. ) ;
#312 = ADVANCED_FACE ( 'NONE', ( #299, #64 ), #99, .T. ) ;
#313 = CARTESIAN_POINT ( 'NONE',  ( 5.500000000000000000, 0.000000000000000000, 5.500000000000005329 ) ) ;
#314 = PERSON_AND_ORGANIZATION ( #232, #230 ) ;
#315 = EDGE_CURVE ( 'NONE', #91, #98, #237, .T. ) ;
#316 = CARTESIAN_POINT ( 'NONE',  ( -5.000000000000000000, 0.000000000000000000, 130.0000000000000000 ) ) ;
#317 = CALENDAR_DATE ( 2022, 8, 7 ) ;
#318 = AXIS2_PLACEMENT_3D ( 'NONE', #376, #219, #247 ) ;
#319 = AXIS2_PLACEMENT_3D ( 'NONE', #122, #229, #294 ) ;
#320 = DIRECTION ( 'NONE',  ( 1.000000000000000000, 0.000000000000000000, 0.000000000000000000 ) ) ;
#321 = FACE_OUTER_BOUND ( 'NONE', #215, .T. ) ;
#322 = LINE ( 'NONE', #296, #269 ) ;
#323 = DIRECTION ( 'NONE',  ( 1.000000000000000000, 0.000000000000000000, 0.000000000000000000 ) ) ;
#324 = VERTEX_POINT ( 'NONE', #11 ) ;
#325 = DIRECTION ( 'NONE',  ( 0.000000000000000000, 0.000000000000000000, 1.000000000000000000 ) ) ;
#326 = ORIENTED_EDGE ( 'NONE', *, *, #159, .F. ) ;
#327 = ADVANCED_FACE ( 'NONE', ( #302 ), #42, .T. ) ;
#328 = CARTESIAN_POINT ( 'NONE',  ( -5.000000000000000000, 0.000000000000000000, 5.500000000000005329 ) ) ;
#329 = DIRECTION ( 'NONE',  ( 0.000000000000000000, 0.000000000000000000, -1.000000000000000000 ) ) ;
#330 = EDGE_LOOP ( 'NONE', ( #217, #130 ) ) ;
#331 = CYLINDRICAL_SURFACE ( 'NONE', #57, 5.000000000000000000 ) ;
#332 = VERTEX_POINT ( 'NONE', #162 ) ;
#333 = CARTESIAN_POINT ( 'NONE',  ( 0.000000000000000000, 0.000000000000000000, 5.500000000000005329 ) ) ;
#334 = ORIENTED_EDGE ( 'NONE', *, *, #361, .F. ) ;
#335 = DIRECTION ( 'NONE',  ( -0.000000000000000000, -0.000000000000000000, -1.000000000000000000 ) ) ;
#336 = CARTESIAN_POINT ( 'NONE',  ( 0.000000000000000000, 0.000000000000000000, 0.000000000000000000 ) ) ;
#337 = CIRCLE ( 'NONE', #175, 8.000000000000000000 ) ;
#338 = EDGE_LOOP ( 'NONE', ( #58, #311 ) ) ;
#339 = PERSON_AND_ORGANIZATION_ROLE ( 'creator' ) ;
#340 = DIRECTION ( 'NONE',  ( 0.000000000000000000, 0.000000000000000000, 1.000000000000000000 ) ) ;
#341 = DATE_TIME_ROLE ( 'classification_date' ) ;
#342 = ORIENTED_EDGE ( 'NONE', *, *, #114, .T. ) ;
#343 = AXIS2_PLACEMENT_3D ( 'NONE', #131, #196, #228 ) ;
#344 = PERSON_AND_ORGANIZATION ( #232, #230 ) ;
#345 = LOCAL_TIME ( 17, 17, 19.00000000000000000, #54 ) ;
#346 = LINE ( 'NONE', #316, #182 ) ;
#347 = CALENDAR_DATE ( 2022, 8, 7 ) ;
#348 = PRODUCT_RELATED_PRODUCT_CATEGORY ( 'detail', '', ( #22 ) ) ;
#349 = CIRCLE ( 'NONE', #272, 0.5000000000000004441 ) ;
#350 = TOROIDAL_SURFACE ( 'NONE', #36, 5.500000000000000000, 0.5000000000000000000 ) ;
#351 = CARTESIAN_POINT ( 'NONE',  ( 0.000000000000000000, 0.000000000000000000, 0.000000000000000000 ) ) ;
#352 = AXIS2_PLACEMENT_3D ( 'NONE', #333, #271, #14 ) ;
#353 = DIRECTION ( 'NONE',  ( -0.000000000000000000, -0.000000000000000000, -1.000000000000000000 ) ) ;
#354 = CARTESIAN_POINT ( 'NONE',  ( 2.500000000000000000, 3.061616997868383141E-16, 130.0000000000000000 ) ) ;
#355 = ORIENTED_EDGE ( 'NONE', *, *, #183, .T. ) ;
#356 = DIRECTION ( 'NONE',  ( -1.000000000000000000, 0.000000000000000000, 0.000000000000000000 ) ) ;
#357 = CARTESIAN_POINT ( 'NONE',  ( 0.000000000000000000, 0.000000000000000000, 5.000000000000000000 ) ) ;
#358 = CIRCLE ( 'NONE', #223, 5.500000000000000000 ) ;
#359 = ORIENTED_EDGE ( 'NONE', *, *, #315, .F. ) ;
#360 = CYLINDRICAL_SURFACE ( 'NONE', #212, 2.500000000000000000 ) ;
#361 = EDGE_CURVE ( 'NONE', #274, #154, #143, .T. ) ;
#362 = CC_DESIGN_APPROVAL ( #238, ( #59 ) ) ;
#363 = APPLICATION_PROTOCOL_DEFINITION ( 'international standard', 'config_control_design', 1994, #157 ) ;
#364 = DESIGN_CONTEXT ( 'detailed design', #65, 'design' ) ;
#365 = APPROVAL_STATUS ( 'not_yet_approved' ) ;
#366 = EDGE_CURVE ( 'NONE', #98, #91, #260, .T. ) ;
#367 = AXIS2_PLACEMENT_3D ( 'NONE', #75, #262, #203 ) ;
#368 = ORIENTED_EDGE ( 'NONE', *, *, #187, .T. ) ;
#369 = ORIENTED_EDGE ( 'NONE', *, *, #187, .F. ) ;
#370 = APPROVAL_STATUS ( 'not_yet_approved' ) ;
#371 = DIRECTION ( 'NONE',  ( -0.000000000000000000, -0.000000000000000000, -1.000000000000000000 ) ) ;
#372 = SECURITY_CLASSIFICATION ( '', '', #110 ) ;
#373 = EDGE_CURVE ( 'NONE', #91, #154, #303, .T. ) ;
#374 = ORIENTED_EDGE ( 'NONE', *, *, #16, .F. ) ;
#375 = PERSON_AND_ORGANIZATION ( #232, #230 ) ;
#376 = CARTESIAN_POINT ( 'NONE',  ( 0.000000000000000000, 0.000000000000000000, 5.500000000000005329 ) ) ;
#377 = DATE_AND_TIME ( #347, #345 ) ;
#378 = ORIENTED_EDGE ( 'NONE', *, *, #152, .F. ) ;
#379 = DATE_AND_TIME ( #86, #205 ) ;
#380 = AXIS2_PLACEMENT_3D ( 'NONE', #40, #181, #320 ) ;
#381 = ORIENTED_EDGE ( 'NONE', *, *, #114, .F. ) ;
ENDSEC;
END-ISO-10303-21;
