ISO-10303-21;
HEADER;
FILE_DESCRIPTION (( 'STEP AP203' ),
    '1' );
FILE_NAME ('d8d0.STEP',
    '2022-07-08T14:56:44',
    ( '' ),
    ( '' ),
    'SwSTEP 2.0',
    'SolidWorks 2019',
    '' );
FILE_SCHEMA (( 'CONFIG_CONTROL_DESIGN' ));
ENDSEC;

DATA;
#1 = DIRECTION ( 'NONE',  ( -0.000000000000000000, -0.000000000000000000, -1.000000000000000000 ) ) ;
#2 = EDGE_CURVE ( 'NONE', #124, #321, #118, .T. ) ;
#3 = PERSON ( 'NEURÈENÝ', 'NEURÈENÝ', 'NEURÈENÝ', ('NEURÈENÝ'), ('NEURÈENÝ'), ('NEURÈENÝ') ) ;
#4 = CYLINDRICAL_SURFACE ( 'NONE', #229, 3.000000000000000444 ) ;
#5 = CARTESIAN_POINT ( 'NONE',  ( 0.000000000000000000, 0.000000000000000000, 455.0000000000000000 ) ) ;
#6 = ADVANCED_FACE ( 'NONE', ( #381, #357 ), #173, .T. ) ;
#7 = CYLINDRICAL_SURFACE ( 'NONE', #288, 5.000000000000000000 ) ;
#8 = VECTOR ( 'NONE', #176, 1000.000000000000000 ) ;
#9 = CARTESIAN_POINT ( 'NONE',  ( 0.000000000000000000, 0.000000000000000000, 0.000000000000000000 ) ) ;
#10 = ADVANCED_FACE ( 'NONE', ( #269 ), #4, .F. ) ;
#11 = CARTESIAN_POINT ( 'NONE',  ( 5.500000000000000000, 0.000000000000000000, 5.500000000000005329 ) ) ;
#12 = CARTESIAN_POINT ( 'NONE',  ( 5.500000000000000000, 0.000000000000000000, 5.000000000000002665 ) ) ;
#13 = ORIENTED_EDGE ( 'NONE', *, *, #362, .F. ) ;
#14 = SECURITY_CLASSIFICATION ( '', '', #186 ) ;
#15 = PERSON_AND_ORGANIZATION_ROLE ( 'creator' ) ;
#16 = DIRECTION ( 'NONE',  ( 0.000000000000000000, 0.000000000000000000, 1.000000000000000000 ) ) ;
#17 = APPROVAL_DATE_TIME ( #123, #266 ) ;
#18 = DIRECTION ( 'NONE',  ( 1.000000000000000000, 0.000000000000000000, 0.000000000000000000 ) ) ;
#19 = APPROVAL ( #189, 'NEURÈENÝ' ) ;
#20 = DIRECTION ( 'NONE',  ( 1.000000000000000000, 0.000000000000000000, 0.000000000000000000 ) ) ;
#21 = PRODUCT_DEFINITION ( 'NEZNÁMÝ', '', #327, #60 ) ;
#22 = CARTESIAN_POINT ( 'NONE',  ( 0.000000000000000000, 0.000000000000000000, 455.0000000000000000 ) ) ;
#23 = EDGE_LOOP ( 'NONE', ( #46, #33 ) ) ;
#24 = FACE_OUTER_BOUND ( 'NONE', #159, .T. ) ;
#25 = AXIS2_PLACEMENT_3D ( 'NONE', #250, #282, #20 ) ;
#26 = PERSON_AND_ORGANIZATION ( #3, #87 ) ;
#27 = APPROVAL_PERSON_ORGANIZATION ( #368, #322, #100 ) ;
#28 = CIRCLE ( 'NONE', #77, 8.000000000000000000 ) ;
#29 = VERTEX_POINT ( 'NONE', #175 ) ;
#30 = AXIS2_PLACEMENT_3D ( 'NONE', #22, #289, #168 ) ;
#31 = AXIS2_PLACEMENT_3D ( 'NONE', #182, #183, #341 ) ;
#32 = CARTESIAN_POINT ( 'NONE',  ( -3.000000000000000444, 0.000000000000000000, 455.0000000000000000 ) ) ;
#33 = ORIENTED_EDGE ( 'NONE', *, *, #290, .T. ) ;
#34 = CARTESIAN_POINT ( 'NONE',  ( 5.000000000000000000, 6.123233995736766282E-16, 455.0000000000000000 ) ) ;
#35 = DIRECTION ( 'NONE',  ( 1.000000000000000000, 0.000000000000000000, -0.000000000000000000 ) ) ;
#36 = AXIS2_PLACEMENT_3D ( 'NONE', #65, #300, #209 ) ;
#37 = CARTESIAN_POINT ( 'NONE',  ( 0.000000000000000000, 0.000000000000000000, 5.000000000000000000 ) ) ;
#38 = ORIENTED_EDGE ( 'NONE', *, *, #222, .T. ) ;
#39 = APPROVAL_STATUS ( 'not_yet_approved' ) ;
#40 = CARTESIAN_POINT ( 'NONE',  ( 0.000000000000000000, 0.000000000000000000, 0.000000000000000000 ) ) ;
#41 = CARTESIAN_POINT ( 'NONE',  ( 0.000000000000000000, 0.000000000000000000, 5.500000000000005329 ) ) ;
#42 = AXIS2_PLACEMENT_3D ( 'NONE', #287, #130, #336 ) ;
#43 = CALENDAR_DATE ( 2022, 8, 7 ) ;
#44 = AXIS2_PLACEMENT_3D ( 'NONE', #233, #239, #358 ) ;
#45 = MECHANICAL_CONTEXT ( 'NONE', #145, 'mechanical' ) ;
#46 = ORIENTED_EDGE ( 'NONE', *, *, #74, .T. ) ;
#47 = DATE_AND_TIME ( #195, #366 ) ;
#48 = CARTESIAN_POINT ( 'NONE',  ( 3.000000000000000444, 3.673940397442059868E-16, 455.0000000000000000 ) ) ;
#49 = EDGE_CURVE ( 'NONE', #207, #29, #210, .T. ) ;
#50 = FACE_BOUND ( 'NONE', #89, .T. ) ;
#51 = DIRECTION ( 'NONE',  ( -1.000000000000000000, 0.000000000000000000, 0.000000000000000000 ) ) ;
#52 = EDGE_LOOP ( 'NONE', ( #38, #277 ) ) ;
#53 = COORDINATED_UNIVERSAL_TIME_OFFSET ( 1, 0, .AHEAD. ) ;
#54 = ORIENTED_EDGE ( 'NONE', *, *, #271, .T. ) ;
#55 = AXIS2_PLACEMENT_3D ( 'NONE', #144, #99, #355 ) ;
#56 = AXIS2_PLACEMENT_3D ( 'NONE', #119, #103, #275 ) ;
#57 = CC_DESIGN_PERSON_AND_ORGANIZATION_ASSIGNMENT ( #26, #234, ( #327 ) ) ;
#58 = DIRECTION ( 'NONE',  ( 1.000000000000000000, 0.000000000000000000, 0.000000000000000000 ) ) ;
#59 = ADVANCED_FACE ( 'NONE', ( #311 ), #317, .F. ) ;
#60 = DESIGN_CONTEXT ( 'detailed design', #353, 'design' ) ;
#61 = CARTESIAN_POINT ( 'NONE',  ( 0.000000000000000000, 0.000000000000000000, 0.000000000000000000 ) ) ;
#62 = VERTEX_POINT ( 'NONE', #126 ) ;
#63 = FACE_OUTER_BOUND ( 'NONE', #286, .T. ) ;
#64 = DIRECTION ( 'NONE',  ( 0.000000000000000000, 0.000000000000000000, 1.000000000000000000 ) ) ;
#65 = CARTESIAN_POINT ( 'NONE',  ( 0.000000000000000000, 0.000000000000000000, 455.0000000000000000 ) ) ;
#66 = FACE_OUTER_BOUND ( 'NONE', #127, .T. ) ;
#67 = CIRCLE ( 'NONE', #293, 5.000000000000000000 ) ;
#68 = FACE_BOUND ( 'NONE', #350, .T. ) ;
#69 = EDGE_CURVE ( 'NONE', #225, #97, #364, .T. ) ;
#70 = CARTESIAN_POINT ( 'NONE',  ( 5.000000000000000000, 6.123233995736766282E-16, 5.500000000000005329 ) ) ;
#71 = EDGE_CURVE ( 'NONE', #29, #207, #187, .T. ) ;
#72 = COORDINATED_UNIVERSAL_TIME_OFFSET ( 1, 0, .AHEAD. ) ;
#73 = CARTESIAN_POINT ( 'NONE',  ( 8.000000000000000000, 9.797174393178825657E-16, 0.000000000000000000 ) ) ;
#74 = EDGE_CURVE ( 'NONE', #193, #62, #28, .T. ) ;
#75 = DIRECTION ( 'NONE',  ( 0.000000000000000000, 0.000000000000000000, 1.000000000000000000 ) ) ;
#76 = VERTEX_POINT ( 'NONE', #48 ) ;
#77 = AXIS2_PLACEMENT_3D ( 'NONE', #179, #16, #18 ) ;
#78 = APPROVAL_DATE_TIME ( #155, #322 ) ;
#79 = AXIS2_PLACEMENT_3D ( 'NONE', #309, #157, #278 ) ;
#80 = ORIENTED_EDGE ( 'NONE', *, *, #285, .T. ) ;
#81 = LOCAL_TIME ( 16, 56, 44.00000000000000000, #167 ) ;
#82 = DIRECTION ( 'NONE',  ( -0.000000000000000000, -0.000000000000000000, -1.000000000000000000 ) ) ;
#83 = PERSON_AND_ORGANIZATION ( #3, #87 ) ;
#84 = ORIENTED_EDGE ( 'NONE', *, *, #170, .F. ) ;
#85 = EDGE_CURVE ( 'NONE', #321, #124, #348, .T. ) ;
#86 = DIRECTION ( 'NONE',  ( -0.000000000000000000, -0.000000000000000000, -1.000000000000000000 ) ) ;
#87 = ORGANIZATION ( 'NEURÈENÝ', 'NEURÈENÝ', '' ) ;
#88 = CC_DESIGN_PERSON_AND_ORGANIZATION_ASSIGNMENT ( #128, #215, ( #139 ) ) ;
#89 = EDGE_LOOP ( 'NONE', ( #236, #133 ) ) ;
#90 = DIRECTION ( 'NONE',  ( 0.000000000000000000, 0.000000000000000000, 1.000000000000000000 ) ) ;
#91 = AXIS2_PLACEMENT_3D ( 'NONE', #303, #301, #35 ) ;
#92 = LINE ( 'NONE', #267, #218 ) ;
#93 = ORIENTED_EDGE ( 'NONE', *, *, #185, .F. ) ;
#94 = AXIS2_PLACEMENT_3D ( 'NONE', #61, #378, #96 ) ;
#95 = LOCAL_TIME ( 16, 56, 44.00000000000000000, #211 ) ;
#96 = DIRECTION ( 'NONE',  ( 1.000000000000000000, 0.000000000000000000, -0.000000000000000000 ) ) ;
#97 = VERTEX_POINT ( 'NONE', #12 ) ;
#98 = ADVANCED_FACE ( 'NONE', ( #242 ), #219, .T. ) ;
#99 = DIRECTION ( 'NONE',  ( 0.000000000000000000, 0.000000000000000000, 1.000000000000000000 ) ) ;
#100 = APPROVAL_ROLE ( '' ) ;
#101 = ADVANCED_FACE ( 'NONE', ( #342 ), #237, .F. ) ;
#102 = CIRCLE ( 'NONE', #44, 5.000000000000000000 ) ;
#103 = DIRECTION ( 'NONE',  ( -0.000000000000000000, -0.000000000000000000, -1.000000000000000000 ) ) ;
#104 = DIRECTION ( 'NONE',  ( 1.000000000000000000, 0.000000000000000000, 0.000000000000000000 ) ) ;
#105 = APPLICATION_PROTOCOL_DEFINITION ( 'international standard', 'config_control_design', 1994, #145 ) ;
#106 = PERSON_AND_ORGANIZATION ( #3, #87 ) ;
#107 = AXIS2_PLACEMENT_3D ( 'NONE', #192, #262, #51 ) ;
#108 = APPROVAL_PERSON_ORGANIZATION ( #163, #19, #318 ) ;
#109 = CYLINDRICAL_SURFACE ( 'NONE', #344, 8.000000000000000000 ) ;
#110 = ORIENTED_EDGE ( 'NONE', *, *, #69, .F. ) ;
#111 = CC_DESIGN_APPROVAL ( #19, ( #14 ) ) ;
#112 = CARTESIAN_POINT ( 'NONE',  ( -5.000000000000000000, 0.000000000000000000, 455.0000000000000000 ) ) ;
#113 = ORIENTED_EDGE ( 'NONE', *, *, #170, .T. ) ;
#114 = EDGE_CURVE ( 'NONE', #199, #225, #164, .T. ) ;
#115 = PERSON_AND_ORGANIZATION_ROLE ( 'creator' ) ;
#116 = CARTESIAN_POINT ( 'NONE',  ( 0.000000000000000000, 0.000000000000000000, 5.000000000000000000 ) ) ;
#117 = CARTESIAN_POINT ( 'NONE',  ( 0.000000000000000000, 0.000000000000000000, 455.0000000000000000 ) ) ;
#118 = CIRCLE ( 'NONE', #329, 8.000000000000000000 ) ;
#119 = CARTESIAN_POINT ( 'NONE',  ( 0.000000000000000000, 0.000000000000000000, 455.0000000000000000 ) ) ;
#120 = DIRECTION ( 'NONE',  ( 0.000000000000000000, 0.000000000000000000, -1.000000000000000000 ) ) ;
#121 = AXIS2_PLACEMENT_3D ( 'NONE', #37, #246, #308 ) ;
#122 = ORIENTED_EDGE ( 'NONE', *, *, #197, .F. ) ;
#123 = DATE_AND_TIME ( #43, #280 ) ;
#124 = VERTEX_POINT ( 'NONE', #323 ) ;
#125 = FACE_OUTER_BOUND ( 'NONE', #23, .T. ) ;
#126 = CARTESIAN_POINT ( 'NONE',  ( 8.000000000000000000, 9.797174393178825657E-16, 5.000000000000000000 ) ) ;
#127 = EDGE_LOOP ( 'NONE', ( #122, #80, #274, #307 ) ) ;
#128 = PERSON_AND_ORGANIZATION ( #3, #87 ) ;
#129 = COORDINATED_UNIVERSAL_TIME_OFFSET ( 1, 0, .AHEAD. ) ;
#130 = DIRECTION ( 'NONE',  ( -0.000000000000000000, -0.000000000000000000, -1.000000000000000000 ) ) ;
#131 = DATE_AND_TIME ( #249, #181 ) ;
#132 = CARTESIAN_POINT ( 'NONE',  ( 0.000000000000000000, 0.000000000000000000, 5.000000000000000000 ) ) ;
#133 = ORIENTED_EDGE ( 'NONE', *, *, #49, .F. ) ;
#134 = ORIENTED_EDGE ( 'NONE', *, *, #254, .T. ) ;
#135 = PERSON_AND_ORGANIZATION ( #3, #87 ) ;
#136 = CC_DESIGN_DATE_AND_TIME_ASSIGNMENT ( #131, #363, ( #21 ) ) ;
#137 = ORIENTED_EDGE ( 'NONE', *, *, #214, .T. ) ;
#138 = CLOSED_SHELL ( 'NONE', ( #10, #59, #264, #154, #98, #305, #194, #297, #6, #101, #143 ) ) ;
#139 = PRODUCT ( 'd8d0', 'd8d0', '', ( #45 ) ) ;
#140 = EDGE_CURVE ( 'NONE', #76, #169, #190, .T. ) ;
#141 = EDGE_LOOP ( 'NONE', ( #188, #354, #84, #13 ) ) ;
#142 = CIRCLE ( 'NONE', #245, 0.5000000000000004441 ) ;
#143 = ADVANCED_FACE ( 'NONE', ( #24 ), #196, .F. ) ;
#144 = CARTESIAN_POINT ( 'NONE',  ( 0.000000000000000000, 0.000000000000000000, 455.0000000000000000 ) ) ;
#145 = APPLICATION_CONTEXT ( 'configuration controlled 3d designs of mechanical parts and assemblies' ) ;
#146 = ADVANCED_BREP_SHAPE_REPRESENTATION ( 'd8d0', ( #377, #31 ), #238 ) ;
#147 = AXIS2_PLACEMENT_3D ( 'NONE', #367, #340, #104 ) ;
#148 = CARTESIAN_POINT ( 'NONE',  ( 8.000000000000000000, 9.797174393178825657E-16, 5.000000000000000000 ) ) ;
#149 = ORIENTED_EDGE ( 'NONE', *, *, #140, .T. ) ;
#150 = LINE ( 'NONE', #356, #8 ) ;
#151 = ORIENTED_EDGE ( 'NONE', *, *, #222, .F. ) ;
#152 = CIRCLE ( 'NONE', #36, 3.000000000000000444 ) ;
#153 = ORIENTED_EDGE ( 'NONE', *, *, #214, .F. ) ;
#154 = ADVANCED_FACE ( 'NONE', ( #374 ), #109, .T. ) ;
#155 = DATE_AND_TIME ( #334, #95 ) ;
#156 = DIRECTION ( 'NONE',  ( 0.000000000000000000, 0.000000000000000000, 1.000000000000000000 ) ) ;
#157 = DIRECTION ( 'NONE',  ( 1.224646799147353207E-16, 1.000000000000000000, -0.000000000000000000 ) ) ;
#158 = CARTESIAN_POINT ( 'NONE',  ( 0.000000000000000000, 0.000000000000000000, 0.000000000000000000 ) ) ;
#159 = EDGE_LOOP ( 'NONE', ( #153, #149, #54, #232 ) ) ;
#160 = APPLICATION_PROTOCOL_DEFINITION ( 'international standard', 'config_control_design', 1994, #353 ) ;
#161 = EDGE_CURVE ( 'NONE', #319, #199, #376, .T. ) ;
#162 = ORIENTED_EDGE ( 'NONE', *, *, #85, .T. ) ;
#163 = PERSON_AND_ORGANIZATION ( #3, #87 ) ;
#164 = CIRCLE ( 'NONE', #79, 0.5000000000000004441 ) ;
#165 = FACE_OUTER_BOUND ( 'NONE', #220, .T. ) ;
#166 = ORIENTED_EDGE ( 'NONE', *, *, #254, .F. ) ;
#167 = COORDINATED_UNIVERSAL_TIME_OFFSET ( 1, 0, .AHEAD. ) ;
#168 = DIRECTION ( 'NONE',  ( 1.000000000000000000, 0.000000000000000000, 0.000000000000000000 ) ) ;
#169 = VERTEX_POINT ( 'NONE', #352 ) ;
#170 = EDGE_CURVE ( 'NONE', #97, #225, #359, .T. ) ;
#171 = AXIS2_PLACEMENT_3D ( 'NONE', #227, #86, #58 ) ;
#172 = LINE ( 'NONE', #32, #253 ) ;
#173 = PLANE ( 'NONE',  #91 ) ;
#174 = CYLINDRICAL_SURFACE ( 'NONE', #56, 5.000000000000000000 ) ;
#175 = CARTESIAN_POINT ( 'NONE',  ( -3.000000000000000444, 0.000000000000000000, 0.000000000000000000 ) ) ;
#176 = DIRECTION ( 'NONE',  ( -0.000000000000000000, -0.000000000000000000, -1.000000000000000000 ) ) ;
#177 = CIRCLE ( 'NONE', #55, 5.000000000000000000 ) ;
#178 = PLANE ( 'NONE',  #121 ) ;
#179 = CARTESIAN_POINT ( 'NONE',  ( 0.000000000000000000, 0.000000000000000000, 5.000000000000000000 ) ) ;
#180 = ORIENTED_EDGE ( 'NONE', *, *, #85, .F. ) ;
#181 = LOCAL_TIME ( 16, 56, 44.00000000000000000, #129 ) ;
#182 = CARTESIAN_POINT ( 'NONE',  ( 0.000000000000000000, 0.000000000000000000, 0.000000000000000000 ) ) ;
#183 = DIRECTION ( 'NONE',  ( 0.000000000000000000, 0.000000000000000000, 1.000000000000000000 ) ) ;
#184 = DIRECTION ( 'NONE',  ( 1.000000000000000000, 0.000000000000000000, 0.000000000000000000 ) ) ;
#185 = EDGE_CURVE ( 'NONE', #193, #124, #198, .T. ) ;
#186 = SECURITY_CLASSIFICATION_LEVEL ( 'unclassified' ) ;
#187 = CIRCLE ( 'NONE', #25, 3.000000000000000444 ) ;
#188 = ORIENTED_EDGE ( 'NONE', *, *, #208, .F. ) ;
#189 = APPROVAL_STATUS ( 'not_yet_approved' ) ;
#190 = CIRCLE ( 'NONE', #30, 3.000000000000000444 ) ;
#191 = AXIS2_PLACEMENT_3D ( 'NONE', #116, #235, #204 ) ;
#192 = CARTESIAN_POINT ( 'NONE',  ( 0.000000000000000000, 0.000000000000000000, 455.0000000000000000 ) ) ;
#193 = VERTEX_POINT ( 'NONE', #346 ) ;
#194 = ADVANCED_FACE ( 'NONE', ( #50, #165 ), #265, .F. ) ;
#195 = CALENDAR_DATE ( 2022, 8, 7 ) ;
#196 = CYLINDRICAL_SURFACE ( 'NONE', #107, 3.000000000000000444 ) ;
#197 = EDGE_CURVE ( 'NONE', #252, #319, #67, .T. ) ;
#198 = LINE ( 'NONE', #295, #326 ) ;
#199 = VERTEX_POINT ( 'NONE', #206 ) ;
#200 = CARTESIAN_POINT ( 'NONE',  ( -5.500000000000000000, 6.735557395310442023E-16, 5.000000000000002665 ) ) ;
#201 = UNCERTAINTY_MEASURE_WITH_UNIT (LENGTH_MEASURE( 1.000000000000000082E-05 ), #337, 'distance_accuracy_value', 'NONE');
#202 = DIRECTION ( 'NONE',  ( -1.000000000000000000, 0.000000000000000000, 0.000000000000000000 ) ) ;
#203 = CC_DESIGN_PERSON_AND_ORGANIZATION_ASSIGNMENT ( #281, #15, ( #21 ) ) ;
#204 = DIRECTION ( 'NONE',  ( 1.000000000000000000, 0.000000000000000000, 0.000000000000000000 ) ) ;
#205 = CC_DESIGN_APPROVAL ( #322, ( #327 ) ) ;
#206 = CARTESIAN_POINT ( 'NONE',  ( -5.000000000000000000, 0.000000000000000000, 5.500000000000005329 ) ) ;
#207 = VERTEX_POINT ( 'NONE', #302 ) ;
#208 = EDGE_CURVE ( 'NONE', #199, #360, #244, .T. ) ;
#209 = DIRECTION ( 'NONE',  ( 1.000000000000000000, 0.000000000000000000, 0.000000000000000000 ) ) ;
#210 = CIRCLE ( 'NONE', #241, 3.000000000000000444 ) ;
#211 = COORDINATED_UNIVERSAL_TIME_OFFSET ( 1, 0, .AHEAD. ) ;
#212 = VECTOR ( 'NONE', #380, 1000.000000000000000 ) ;
#213 = DIRECTION ( 'NONE',  ( -0.000000000000000000, -0.000000000000000000, -1.000000000000000000 ) ) ;
#214 = EDGE_CURVE ( 'NONE', #76, #207, #92, .T. ) ;
#215 = PERSON_AND_ORGANIZATION_ROLE ( 'design_owner' ) ;
#216 = CARTESIAN_POINT ( 'NONE',  ( -5.000000000000000000, 0.000000000000000000, 455.0000000000000000 ) ) ;
#217 = DIRECTION ( 'NONE',  ( 1.000000000000000000, 0.000000000000000000, 0.000000000000000000 ) ) ;
#218 = VECTOR ( 'NONE', #331, 1000.000000000000000 ) ;
#219 = CYLINDRICAL_SURFACE ( 'NONE', #260, 8.000000000000000000 ) ;
#220 = EDGE_LOOP ( 'NONE', ( #361, #180 ) ) ;
#221 = SHAPE_DEFINITION_REPRESENTATION ( #343, #146 ) ;
#222 = EDGE_CURVE ( 'NONE', #319, #252, #177, .T. ) ;
#223 = DIRECTION ( 'NONE',  ( -0.000000000000000000, -0.000000000000000000, -1.000000000000000000 ) ) ;
#224 = ORIENTED_EDGE ( 'NONE', *, *, #49, .T. ) ;
#225 = VERTEX_POINT ( 'NONE', #200 ) ;
#226 = CC_DESIGN_SECURITY_CLASSIFICATION ( #14, ( #327 ) ) ;
#227 = CARTESIAN_POINT ( 'NONE',  ( 0.000000000000000000, 0.000000000000000000, 5.000000000000000000 ) ) ;
#228 = DIRECTION ( 'NONE',  ( -0.000000000000000000, -0.000000000000000000, -1.000000000000000000 ) ) ;
#229 = AXIS2_PLACEMENT_3D ( 'NONE', #117, #120, #332 ) ;
#230 = DIRECTION ( 'NONE',  ( 1.000000000000000000, 0.000000000000000000, 0.000000000000000000 ) ) ;
#231 = APPROVAL_PERSON_ORGANIZATION ( #106, #266, #339 ) ;
#232 = ORIENTED_EDGE ( 'NONE', *, *, #71, .T. ) ;
#233 = CARTESIAN_POINT ( 'NONE',  ( 0.000000000000000000, 0.000000000000000000, 5.500000000000005329 ) ) ;
#234 = PERSON_AND_ORGANIZATION_ROLE ( 'design_supplier' ) ;
#235 = DIRECTION ( 'NONE',  ( 0.000000000000000000, 0.000000000000000000, 1.000000000000000000 ) ) ;
#236 = ORIENTED_EDGE ( 'NONE', *, *, #71, .F. ) ;
#237 = TOROIDAL_SURFACE ( 'NONE', #335, 5.500000000000000000, 0.5000000000000000000 ) ;
#238 =( GEOMETRIC_REPRESENTATION_CONTEXT ( 3 ) GLOBAL_UNCERTAINTY_ASSIGNED_CONTEXT ( ( #201 ) ) GLOBAL_UNIT_ASSIGNED_CONTEXT ( ( #337, #365, #310 ) ) REPRESENTATION_CONTEXT ( 'NONE', 'WORKASPACE' ) );
#239 = DIRECTION ( 'NONE',  ( 0.000000000000000000, 0.000000000000000000, 1.000000000000000000 ) ) ;
#240 = ORIENTED_EDGE ( 'NONE', *, *, #140, .F. ) ;
#241 = AXIS2_PLACEMENT_3D ( 'NONE', #158, #248, #276 ) ;
#242 = FACE_OUTER_BOUND ( 'NONE', #263, .T. ) ;
#243 = ORIENTED_EDGE ( 'NONE', *, *, #259, .F. ) ;
#244 = CIRCLE ( 'NONE', #312, 5.000000000000000000 ) ;
#245 = AXIS2_PLACEMENT_3D ( 'NONE', #11, #284, #314 ) ;
#246 = DIRECTION ( 'NONE',  ( 0.000000000000000000, 0.000000000000000000, 1.000000000000000000 ) ) ;
#247 = CC_DESIGN_PERSON_AND_ORGANIZATION_ASSIGNMENT ( #83, #115, ( #327 ) ) ;
#248 = DIRECTION ( 'NONE',  ( -0.000000000000000000, -0.000000000000000000, -1.000000000000000000 ) ) ;
#249 = CALENDAR_DATE ( 2022, 8, 7 ) ;
#250 = CARTESIAN_POINT ( 'NONE',  ( 0.000000000000000000, 0.000000000000000000, 0.000000000000000000 ) ) ;
#251 = PRODUCT_RELATED_PRODUCT_CATEGORY ( 'detail', '', ( #139 ) ) ;
#252 = VERTEX_POINT ( 'NONE', #34 ) ;
#253 = VECTOR ( 'NONE', #268, 1000.000000000000000 ) ;
#254 = EDGE_CURVE ( 'NONE', #169, #76, #152, .T. ) ;
#255 = CALENDAR_DATE ( 2022, 8, 7 ) ;
#256 = ORIENTED_EDGE ( 'NONE', *, *, #259, .T. ) ;
#257 = APPROVAL_DATE_TIME ( #373, #19 ) ;
#258 = AXIS2_PLACEMENT_3D ( 'NONE', #40, #156, #217 ) ;
#259 = EDGE_CURVE ( 'NONE', #62, #321, #328, .T. ) ;
#260 = AXIS2_PLACEMENT_3D ( 'NONE', #132, #213, #369 ) ;
#261 = CC_DESIGN_APPROVAL ( #266, ( #21 ) ) ;
#262 = DIRECTION ( 'NONE',  ( 0.000000000000000000, 0.000000000000000000, -1.000000000000000000 ) ) ;
#263 = EDGE_LOOP ( 'NONE', ( #243, #296, #345, #347 ) ) ;
#264 = ADVANCED_FACE ( 'NONE', ( #66 ), #7, .T. ) ;
#265 = PLANE ( 'NONE',  #94 ) ;
#266 = APPROVAL ( #39, 'NEURÈENÝ' ) ;
#267 = CARTESIAN_POINT ( 'NONE',  ( 3.000000000000000444, 3.673940397442059868E-16, 455.0000000000000000 ) ) ;
#268 = DIRECTION ( 'NONE',  ( 0.000000000000000000, 0.000000000000000000, -1.000000000000000000 ) ) ;
#269 = FACE_OUTER_BOUND ( 'NONE', #325, .T. ) ;
#270 = DIRECTION ( 'NONE',  ( 0.000000000000000000, 0.000000000000000000, 1.000000000000000000 ) ) ;
#271 = EDGE_CURVE ( 'NONE', #169, #29, #172, .T. ) ;
#272 = ORIENTED_EDGE ( 'NONE', *, *, #208, .T. ) ;
#273 = EDGE_CURVE ( 'NONE', #360, #199, #102, .T. ) ;
#274 = ORIENTED_EDGE ( 'NONE', *, *, #273, .T. ) ;
#275 = DIRECTION ( 'NONE',  ( -1.000000000000000000, 0.000000000000000000, 0.000000000000000000 ) ) ;
#276 = DIRECTION ( 'NONE',  ( 1.000000000000000000, 0.000000000000000000, 0.000000000000000000 ) ) ;
#277 = ORIENTED_EDGE ( 'NONE', *, *, #197, .T. ) ;
#278 = DIRECTION ( 'NONE',  ( -1.000000000000000000, 1.224646799147351482E-16, 0.000000000000000000 ) ) ;
#279 = VECTOR ( 'NONE', #228, 1000.000000000000000 ) ;
#280 = LOCAL_TIME ( 16, 56, 44.00000000000000000, #72 ) ;
#281 = PERSON_AND_ORGANIZATION ( #3, #87 ) ;
#282 = DIRECTION ( 'NONE',  ( -0.000000000000000000, -0.000000000000000000, -1.000000000000000000 ) ) ;
#283 = ORIENTED_EDGE ( 'NONE', *, *, #362, .T. ) ;
#284 = DIRECTION ( 'NONE',  ( 0.000000000000000000, -1.000000000000000000, 0.000000000000000000 ) ) ;
#285 = EDGE_CURVE ( 'NONE', #252, #360, #150, .T. ) ;
#286 = EDGE_LOOP ( 'NONE', ( #292, #151, #379, #272 ) ) ;
#287 = CARTESIAN_POINT ( 'NONE',  ( 0.000000000000000000, 0.000000000000000000, 5.000000000000000000 ) ) ;
#288 = AXIS2_PLACEMENT_3D ( 'NONE', #333, #1, #202 ) ;
#289 = DIRECTION ( 'NONE',  ( 0.000000000000000000, 0.000000000000000000, 1.000000000000000000 ) ) ;
#290 = EDGE_CURVE ( 'NONE', #62, #193, #313, .T. ) ;
#291 = ORIENTED_EDGE ( 'NONE', *, *, #290, .F. ) ;
#292 = ORIENTED_EDGE ( 'NONE', *, *, #285, .F. ) ;
#293 = AXIS2_PLACEMENT_3D ( 'NONE', #5, #270, #304 ) ;
#294 = EDGE_LOOP ( 'NONE', ( #166, #240 ) ) ;
#295 = CARTESIAN_POINT ( 'NONE',  ( -8.000000000000000000, 0.000000000000000000, 5.000000000000000000 ) ) ;
#296 = ORIENTED_EDGE ( 'NONE', *, *, #74, .F. ) ;
#297 = ADVANCED_FACE ( 'NONE', ( #63 ), #174, .T. ) ;
#298 = DIRECTION ( 'NONE',  ( 1.000000000000000000, 0.000000000000000000, 0.000000000000000000 ) ) ;
#299 = CC_DESIGN_PERSON_AND_ORGANIZATION_ASSIGNMENT ( #135, #316, ( #14 ) ) ;
#300 = DIRECTION ( 'NONE',  ( 0.000000000000000000, 0.000000000000000000, 1.000000000000000000 ) ) ;
#301 = DIRECTION ( 'NONE',  ( 0.000000000000000000, 0.000000000000000000, 1.000000000000000000 ) ) ;
#302 = CARTESIAN_POINT ( 'NONE',  ( 3.000000000000000444, 3.673940397442059868E-16, 0.000000000000000000 ) ) ;
#303 = CARTESIAN_POINT ( 'NONE',  ( 0.000000000000000000, 0.000000000000000000, 455.0000000000000000 ) ) ;
#304 = DIRECTION ( 'NONE',  ( 1.000000000000000000, 0.000000000000000000, 0.000000000000000000 ) ) ;
#305 = ADVANCED_FACE ( 'NONE', ( #68, #125 ), #178, .T. ) ;
#306 = CARTESIAN_POINT ( 'NONE',  ( 0.000000000000000000, 0.000000000000000000, 5.500000000000005329 ) ) ;
#307 = ORIENTED_EDGE ( 'NONE', *, *, #161, .F. ) ;
#308 = DIRECTION ( 'NONE',  ( 1.000000000000000000, 0.000000000000000000, -0.000000000000000000 ) ) ;
#309 = CARTESIAN_POINT ( 'NONE',  ( -5.500000000000000000, 6.735557395310442023E-16, 5.500000000000005329 ) ) ;
#310 =( NAMED_UNIT ( * ) SI_UNIT ( $, .STERADIAN. ) SOLID_ANGLE_UNIT ( ) );
#311 = FACE_OUTER_BOUND ( 'NONE', #141, .T. ) ;
#312 = AXIS2_PLACEMENT_3D ( 'NONE', #306, #90, #230 ) ;
#313 = CIRCLE ( 'NONE', #191, 8.000000000000000000 ) ;
#314 = DIRECTION ( 'NONE',  ( 0.000000000000000000, 0.000000000000000000, -1.000000000000000000 ) ) ;
#315 = ORIENTED_EDGE ( 'NONE', *, *, #273, .F. ) ;
#316 = PERSON_AND_ORGANIZATION_ROLE ( 'classification_officer' ) ;
#317 = TOROIDAL_SURFACE ( 'NONE', #147, 5.500000000000000000, 0.5000000000000000000 ) ;
#318 = APPROVAL_ROLE ( '' ) ;
#319 = VERTEX_POINT ( 'NONE', #216 ) ;
#320 = DIRECTION ( 'NONE',  ( -1.000000000000000000, 0.000000000000000000, 0.000000000000000000 ) ) ;
#321 = VERTEX_POINT ( 'NONE', #73 ) ;
#322 = APPROVAL ( #370, 'NEURÈENÝ' ) ;
#323 = CARTESIAN_POINT ( 'NONE',  ( -8.000000000000000000, 0.000000000000000000, 0.000000000000000000 ) ) ;
#324 = EDGE_LOOP ( 'NONE', ( #291, #256, #162, #93 ) ) ;
#325 = EDGE_LOOP ( 'NONE', ( #134, #137, #224, #372 ) ) ;
#326 = VECTOR ( 'NONE', #223, 1000.000000000000000 ) ;
#327 = PRODUCT_DEFINITION_FORMATION_WITH_SPECIFIED_SOURCE ( 'LIBOVOLNÝ', '', #139, .NOT_KNOWN. ) ;
#328 = LINE ( 'NONE', #148, #212 ) ;
#329 = AXIS2_PLACEMENT_3D ( 'NONE', #9, #64, #298 ) ;
#330 = ORIENTED_EDGE ( 'NONE', *, *, #69, .T. ) ;
#331 = DIRECTION ( 'NONE',  ( 0.000000000000000000, 0.000000000000000000, -1.000000000000000000 ) ) ;
#332 = DIRECTION ( 'NONE',  ( -1.000000000000000000, 0.000000000000000000, 0.000000000000000000 ) ) ;
#333 = CARTESIAN_POINT ( 'NONE',  ( 0.000000000000000000, 0.000000000000000000, 455.0000000000000000 ) ) ;
#334 = CALENDAR_DATE ( 2022, 8, 7 ) ;
#335 = AXIS2_PLACEMENT_3D ( 'NONE', #41, #75, #184 ) ;
#336 = DIRECTION ( 'NONE',  ( 1.000000000000000000, 0.000000000000000000, 0.000000000000000000 ) ) ;
#337 =( LENGTH_UNIT ( ) NAMED_UNIT ( * ) SI_UNIT ( .MILLI., .METRE. ) );
#338 = CC_DESIGN_DATE_AND_TIME_ASSIGNMENT ( #47, #375, ( #14 ) ) ;
#339 = APPROVAL_ROLE ( '' ) ;
#340 = DIRECTION ( 'NONE',  ( 0.000000000000000000, 0.000000000000000000, 1.000000000000000000 ) ) ;
#341 = DIRECTION ( 'NONE',  ( 1.000000000000000000, 0.000000000000000000, 0.000000000000000000 ) ) ;
#342 = FACE_OUTER_BOUND ( 'NONE', #349, .T. ) ;
#343 = PRODUCT_DEFINITION_SHAPE ( 'NONE', 'NONE',  #21 ) ;
#344 = AXIS2_PLACEMENT_3D ( 'NONE', #371, #82, #320 ) ;
#345 = ORIENTED_EDGE ( 'NONE', *, *, #185, .T. ) ;
#346 = CARTESIAN_POINT ( 'NONE',  ( -8.000000000000000000, 0.000000000000000000, 5.000000000000000000 ) ) ;
#347 = ORIENTED_EDGE ( 'NONE', *, *, #2, .T. ) ;
#348 = CIRCLE ( 'NONE', #258, 8.000000000000000000 ) ;
#349 = EDGE_LOOP ( 'NONE', ( #351, #315, #283, #110 ) ) ;
#350 = EDGE_LOOP ( 'NONE', ( #113, #330 ) ) ;
#351 = ORIENTED_EDGE ( 'NONE', *, *, #114, .F. ) ;
#352 = CARTESIAN_POINT ( 'NONE',  ( -3.000000000000000444, 0.000000000000000000, 455.0000000000000000 ) ) ;
#353 = APPLICATION_CONTEXT ( 'configuration controlled 3d designs of mechanical parts and assemblies' ) ;
#354 = ORIENTED_EDGE ( 'NONE', *, *, #114, .T. ) ;
#355 = DIRECTION ( 'NONE',  ( 1.000000000000000000, 0.000000000000000000, 0.000000000000000000 ) ) ;
#356 = CARTESIAN_POINT ( 'NONE',  ( 5.000000000000000000, 6.123233995736766282E-16, 455.0000000000000000 ) ) ;
#357 = FACE_OUTER_BOUND ( 'NONE', #52, .T. ) ;
#358 = DIRECTION ( 'NONE',  ( 1.000000000000000000, 0.000000000000000000, 0.000000000000000000 ) ) ;
#359 = CIRCLE ( 'NONE', #171, 5.500000000000000000 ) ;
#360 = VERTEX_POINT ( 'NONE', #70 ) ;
#361 = ORIENTED_EDGE ( 'NONE', *, *, #2, .F. ) ;
#362 = EDGE_CURVE ( 'NONE', #360, #97, #142, .T. ) ;
#363 = DATE_TIME_ROLE ( 'creation_date' ) ;
#364 = CIRCLE ( 'NONE', #42, 5.500000000000000000 ) ;
#365 =( NAMED_UNIT ( * ) PLANE_ANGLE_UNIT ( ) SI_UNIT ( $, .RADIAN. ) );
#366 = LOCAL_TIME ( 16, 56, 44.00000000000000000, #53 ) ;
#367 = CARTESIAN_POINT ( 'NONE',  ( 0.000000000000000000, 0.000000000000000000, 5.500000000000005329 ) ) ;
#368 = PERSON_AND_ORGANIZATION ( #3, #87 ) ;
#369 = DIRECTION ( 'NONE',  ( -1.000000000000000000, 0.000000000000000000, 0.000000000000000000 ) ) ;
#370 = APPROVAL_STATUS ( 'not_yet_approved' ) ;
#371 = CARTESIAN_POINT ( 'NONE',  ( 0.000000000000000000, 0.000000000000000000, 5.000000000000000000 ) ) ;
#372 = ORIENTED_EDGE ( 'NONE', *, *, #271, .F. ) ;
#373 = DATE_AND_TIME ( #255, #81 ) ;
#374 = FACE_OUTER_BOUND ( 'NONE', #324, .T. ) ;
#375 = DATE_TIME_ROLE ( 'classification_date' ) ;
#376 = LINE ( 'NONE', #112, #279 ) ;
#377 = MANIFOLD_SOLID_BREP ( 'Odebrat vysunutím3', #138 ) ;
#378 = DIRECTION ( 'NONE',  ( 0.000000000000000000, 0.000000000000000000, 1.000000000000000000 ) ) ;
#379 = ORIENTED_EDGE ( 'NONE', *, *, #161, .T. ) ;
#380 = DIRECTION ( 'NONE',  ( -0.000000000000000000, -0.000000000000000000, -1.000000000000000000 ) ) ;
#381 = FACE_BOUND ( 'NONE', #294, .T. ) ;
ENDSEC;
END-ISO-10303-21;
