ISO-10303-21;
HEADER;
FILE_DESCRIPTION (( 'STEP AP203' ),
    '1' );
FILE_NAME ('8948.STEP',
    '2022-07-08T15:28:14',
    ( '' ),
    ( '' ),
    'SwSTEP 2.0',
    'SolidWorks 2019',
    '' );
FILE_SCHEMA (( 'CONFIG_CONTROL_DESIGN' ));
ENDSEC;

DATA;
#1 = CIRCLE ( 'NONE', #300, 7.000000000000000000 ) ;
#2 = DIRECTION ( 'NONE',  ( -0.000000000000000000, -0.000000000000000000, -1.000000000000000000 ) ) ;
#3 = ORIENTED_EDGE ( 'NONE', *, *, #217, .F. ) ;
#4 = AXIS2_PLACEMENT_3D ( 'NONE', #246, #243, #331 ) ;
#5 = EDGE_CURVE ( 'NONE', #310, #338, #283, .T. ) ;
#6 = DIRECTION ( 'NONE',  ( -0.000000000000000000, -0.000000000000000000, -1.000000000000000000 ) ) ;
#7 = ORIENTED_EDGE ( 'NONE', *, *, #166, .F. ) ;
#8 = CARTESIAN_POINT ( 'NONE',  ( -2.100000000000000089, 0.000000000000000000, 0.000000000000000000 ) ) ;
#9 = FACE_OUTER_BOUND ( 'NONE', #139, .T. ) ;
#10 = CALENDAR_DATE ( 2022, 8, 7 ) ;
#11 = ADVANCED_FACE ( 'NONE', ( #13 ), #109, .T. ) ;
#12 = EDGE_LOOP ( 'NONE', ( #152, #249, #219, #255 ) ) ;
#13 = FACE_OUTER_BOUND ( 'NONE', #12, .T. ) ;
#14 = ADVANCED_FACE ( 'NONE', ( #290 ), #133, .F. ) ;
#15 = DATE_AND_TIME ( #218, #79 ) ;
#16 = VERTEX_POINT ( 'NONE', #377 ) ;
#17 = PERSON_AND_ORGANIZATION_ROLE ( 'creator' ) ;
#18 = ORIENTED_EDGE ( 'NONE', *, *, #37, .F. ) ;
#19 = DATE_AND_TIME ( #10, #165 ) ;
#20 = DIRECTION ( 'NONE',  ( 0.000000000000000000, 0.000000000000000000, 1.000000000000000000 ) ) ;
#21 = AXIS2_PLACEMENT_3D ( 'NONE', #323, #177, #347 ) ;
#22 = CARTESIAN_POINT ( 'NONE',  ( -4.000000000000000000, 0.000000000000000000, 165.0000000000000000 ) ) ;
#23 = DIRECTION ( 'NONE',  ( 1.000000000000000000, 0.000000000000000000, 0.000000000000000000 ) ) ;
#24 = DIRECTION ( 'NONE',  ( 1.000000000000000000, 0.000000000000000000, -0.000000000000000000 ) ) ;
#25 = EDGE_CURVE ( 'NONE', #157, #74, #43, .T. ) ;
#26 = EDGE_CURVE ( 'NONE', #330, #108, #1, .T. ) ;
#27 = DIRECTION ( 'NONE',  ( -1.000000000000000000, 1.224646799147351482E-16, 0.000000000000000000 ) ) ;
#28 = AXIS2_PLACEMENT_3D ( 'NONE', #35, #327, #357 ) ;
#29 = DIRECTION ( 'NONE',  ( 0.000000000000000000, 0.000000000000000000, 1.000000000000000000 ) ) ;
#30 = CARTESIAN_POINT ( 'NONE',  ( 2.100000000000000089, 2.571758278209441957E-16, 165.0000000000000000 ) ) ;
#31 = ORIENTED_EDGE ( 'NONE', *, *, #183, .F. ) ;
#32 = DIRECTION ( 'NONE',  ( 1.000000000000000000, 0.000000000000000000, 0.000000000000000000 ) ) ;
#33 = ORIENTED_EDGE ( 'NONE', *, *, #259, .T. ) ;
#34 = SECURITY_CLASSIFICATION ( '', '', #227 ) ;
#35 = CARTESIAN_POINT ( 'NONE',  ( 0.000000000000000000, 0.000000000000000000, 0.000000000000000000 ) ) ;
#36 = DIRECTION ( 'NONE',  ( 1.000000000000000000, 0.000000000000000000, 0.000000000000000000 ) ) ;
#37 = EDGE_CURVE ( 'NONE', #16, #112, #49, .T. ) ;
#38 = CC_DESIGN_APPROVAL ( #89, ( #306 ) ) ;
#39 = EDGE_LOOP ( 'NONE', ( #7, #76, #364, #94 ) ) ;
#40 = COORDINATED_UNIVERSAL_TIME_OFFSET ( 1, 0, .AHEAD. ) ;
#41 = VERTEX_POINT ( 'NONE', #142 ) ;
#42 = EDGE_CURVE ( 'NONE', #169, #74, #353, .T. ) ;
#43 = CIRCLE ( 'NONE', #143, 4.500000000000000888 ) ;
#44 = ORIENTED_EDGE ( 'NONE', *, *, #5, .T. ) ;
#45 = CIRCLE ( 'NONE', #184, 0.5000000000000004441 ) ;
#46 = CALENDAR_DATE ( 2022, 8, 7 ) ;
#47 = ORIENTED_EDGE ( 'NONE', *, *, #42, .F. ) ;
#48 = EDGE_LOOP ( 'NONE', ( #224, #368 ) ) ;
#49 = CIRCLE ( 'NONE', #181, 2.100000000000000089 ) ;
#50 = EDGE_CURVE ( 'NONE', #338, #169, #145, .T. ) ;
#51 = DIRECTION ( 'NONE',  ( 0.000000000000000000, 0.000000000000000000, 1.000000000000000000 ) ) ;
#52 = CIRCLE ( 'NONE', #242, 7.000000000000000000 ) ;
#53 = VECTOR ( 'NONE', #277, 1000.000000000000000 ) ;
#54 = FACE_BOUND ( 'NONE', #48, .T. ) ;
#55 = CARTESIAN_POINT ( 'NONE',  ( 0.000000000000000000, 0.000000000000000000, 165.0000000000000000 ) ) ;
#56 = EDGE_CURVE ( 'NONE', #16, #193, #238, .T. ) ;
#57 = CARTESIAN_POINT ( 'NONE',  ( -4.500000000000000888, 5.510910596163088569E-16, 5.000000000000002665 ) ) ;
#58 = CARTESIAN_POINT ( 'NONE',  ( 0.000000000000000000, 0.000000000000000000, 0.000000000000000000 ) ) ;
#59 =( GEOMETRIC_REPRESENTATION_CONTEXT ( 3 ) GLOBAL_UNCERTAINTY_ASSIGNED_CONTEXT ( ( #358 ) ) GLOBAL_UNIT_ASSIGNED_CONTEXT ( ( #161, #194, #77 ) ) REPRESENTATION_CONTEXT ( 'NONE', 'WORKASPACE' ) );
#60 = CARTESIAN_POINT ( 'NONE',  ( -7.000000000000000000, 0.000000000000000000, 0.000000000000000000 ) ) ;
#61 = ORIENTED_EDGE ( 'NONE', *, *, #183, .T. ) ;
#62 = CARTESIAN_POINT ( 'NONE',  ( 0.000000000000000000, 0.000000000000000000, 5.000000000000000000 ) ) ;
#63 = CYLINDRICAL_SURFACE ( 'NONE', #361, 2.100000000000000089 ) ;
#64 = CIRCLE ( 'NONE', #28, 2.100000000000000089 ) ;
#65 = DIRECTION ( 'NONE',  ( -1.000000000000000000, 0.000000000000000000, 0.000000000000000000 ) ) ;
#66 = APPLICATION_CONTEXT ( 'configuration controlled 3d designs of mechanical parts and assemblies' ) ;
#67 = CC_DESIGN_PERSON_AND_ORGANIZATION_ASSIGNMENT ( #254, #17, ( #125 ) ) ;
#68 = DIRECTION ( 'NONE',  ( -0.000000000000000000, -0.000000000000000000, -1.000000000000000000 ) ) ;
#69 = ORIENTED_EDGE ( 'NONE', *, *, #50, .T. ) ;
#70 = APPROVAL_ROLE ( '' ) ;
#71 = ORIENTED_EDGE ( 'NONE', *, *, #178, .F. ) ;
#72 = VECTOR ( 'NONE', #247, 1000.000000000000000 ) ;
#73 = EDGE_CURVE ( 'NONE', #108, #330, #313, .T. ) ;
#74 = VERTEX_POINT ( 'NONE', #57 ) ;
#75 = APPROVAL_DATE_TIME ( #344, #167 ) ;
#76 = ORIENTED_EDGE ( 'NONE', *, *, #206, .T. ) ;
#77 =( NAMED_UNIT ( * ) SI_UNIT ( $, .STERADIAN. ) SOLID_ANGLE_UNIT ( ) );
#78 = ORIENTED_EDGE ( 'NONE', *, *, #294, .F. ) ;
#79 = LOCAL_TIME ( 17, 28, 14.00000000000000000, #104 ) ;
#80 = CALENDAR_DATE ( 2022, 8, 7 ) ;
#81 = EDGE_LOOP ( 'NONE', ( #3, #211, #69, #272 ) ) ;
#82 = ADVANCED_BREP_SHAPE_REPRESENTATION ( '8948', ( #263, #209 ), #59 ) ;
#83 = ADVANCED_FACE ( 'NONE', ( #141, #319 ), #208, .T. ) ;
#84 = CARTESIAN_POINT ( 'NONE',  ( 4.500000000000000888, 0.000000000000000000, 5.000000000000002665 ) ) ;
#85 = COORDINATED_UNIVERSAL_TIME_OFFSET ( 1, 0, .AHEAD. ) ;
#86 = CARTESIAN_POINT ( 'NONE',  ( -4.000000000000000000, 0.000000000000000000, 5.500000000000005329 ) ) ;
#87 = AXIS2_PLACEMENT_3D ( 'NONE', #213, #279, #301 ) ;
#88 = CARTESIAN_POINT ( 'NONE',  ( 0.000000000000000000, 0.000000000000000000, 5.000000000000000000 ) ) ;
#89 = APPROVAL ( #308, 'NEURÈENÝ' ) ;
#90 = CARTESIAN_POINT ( 'NONE',  ( -2.100000000000000089, 0.000000000000000000, 165.0000000000000000 ) ) ;
#91 = PRODUCT ( '8948', '8948', '', ( #315 ) ) ;
#92 = DIRECTION ( 'NONE',  ( -0.000000000000000000, -0.000000000000000000, -1.000000000000000000 ) ) ;
#93 = CARTESIAN_POINT ( 'NONE',  ( 4.000000000000000000, 4.898587196589412829E-16, 5.500000000000005329 ) ) ;
#94 = ORIENTED_EDGE ( 'NONE', *, *, #370, .F. ) ;
#95 = DIRECTION ( 'NONE',  ( 1.000000000000000000, 0.000000000000000000, 0.000000000000000000 ) ) ;
#96 = CARTESIAN_POINT ( 'NONE',  ( 4.000000000000000000, 4.898587196589412829E-16, 165.0000000000000000 ) ) ;
#97 = VECTOR ( 'NONE', #293, 1000.000000000000000 ) ;
#98 = CARTESIAN_POINT ( 'NONE',  ( 0.000000000000000000, 0.000000000000000000, 165.0000000000000000 ) ) ;
#99 = CC_DESIGN_PERSON_AND_ORGANIZATION_ASSIGNMENT ( #168, #287, ( #34 ) ) ;
#100 = CIRCLE ( 'NONE', #21, 4.000000000000000000 ) ;
#101 = CIRCLE ( 'NONE', #199, 2.100000000000000089 ) ;
#102 = CARTESIAN_POINT ( 'NONE',  ( 0.000000000000000000, 0.000000000000000000, 0.000000000000000000 ) ) ;
#103 = ORIENTED_EDGE ( 'NONE', *, *, #294, .T. ) ;
#104 = COORDINATED_UNIVERSAL_TIME_OFFSET ( 1, 0, .AHEAD. ) ;
#105 = DIRECTION ( 'NONE',  ( 0.000000000000000000, 0.000000000000000000, 1.000000000000000000 ) ) ;
#106 = AXIS2_PLACEMENT_3D ( 'NONE', #102, #146, #245 ) ;
#107 = PERSON_AND_ORGANIZATION ( #356, #114 ) ;
#108 = VERTEX_POINT ( 'NONE', #375 ) ;
#109 = CYLINDRICAL_SURFACE ( 'NONE', #291, 4.000000000000000000 ) ;
#110 = AXIS2_PLACEMENT_3D ( 'NONE', #366, #105, #317 ) ;
#111 = PERSON_AND_ORGANIZATION_ROLE ( 'creator' ) ;
#112 = VERTEX_POINT ( 'NONE', #351 ) ;
#113 = EDGE_CURVE ( 'NONE', #314, #157, #45, .T. ) ;
#114 = ORGANIZATION ( 'NEURÈENÝ', 'NEURÈENÝ', '' ) ;
#115 = FACE_OUTER_BOUND ( 'NONE', #341, .T. ) ;
#116 = DIRECTION ( 'NONE',  ( 1.000000000000000000, 0.000000000000000000, 0.000000000000000000 ) ) ;
#117 = ADVANCED_FACE ( 'NONE', ( #54, #115 ), #140, .T. ) ;
#118 = CARTESIAN_POINT ( 'NONE',  ( 0.000000000000000000, 0.000000000000000000, 0.000000000000000000 ) ) ;
#119 = LOCAL_TIME ( 17, 28, 14.00000000000000000, #280 ) ;
#120 = PLANE ( 'NONE',  #130 ) ;
#121 = DIRECTION ( 'NONE',  ( -1.000000000000000000, 0.000000000000000000, 0.000000000000000000 ) ) ;
#122 = CARTESIAN_POINT ( 'NONE',  ( 2.100000000000000089, 2.571758278209441957E-16, 0.000000000000000000 ) ) ;
#123 = PRODUCT_RELATED_PRODUCT_CATEGORY ( 'detail', '', ( #91 ) ) ;
#124 = LINE ( 'NONE', #275, #379 ) ;
#125 = PRODUCT_DEFINITION_FORMATION_WITH_SPECIFIED_SOURCE ( 'LIBOVOLNÝ', '', #91, .NOT_KNOWN. ) ;
#126 = FACE_OUTER_BOUND ( 'NONE', #244, .T. ) ;
#127 = DIRECTION ( 'NONE',  ( 0.000000000000000000, 0.000000000000000000, 1.000000000000000000 ) ) ;
#128 = FACE_OUTER_BOUND ( 'NONE', #39, .T. ) ;
#129 = APPLICATION_CONTEXT ( 'configuration controlled 3d designs of mechanical parts and assemblies' ) ;
#130 = AXIS2_PLACEMENT_3D ( 'NONE', #237, #20, #179 ) ;
#131 = ORIENTED_EDGE ( 'NONE', *, *, #259, .F. ) ;
#132 = ORIENTED_EDGE ( 'NONE', *, *, #354, .T. ) ;
#133 = CYLINDRICAL_SURFACE ( 'NONE', #171, 2.100000000000000089 ) ;
#134 = VECTOR ( 'NONE', #68, 1000.000000000000000 ) ;
#135 = APPLICATION_PROTOCOL_DEFINITION ( 'international standard', 'config_control_design', 1994, #66 ) ;
#136 = EDGE_LOOP ( 'NONE', ( #226, #103, #312, #164 ) ) ;
#137 = APPLICATION_PROTOCOL_DEFINITION ( 'international standard', 'config_control_design', 1994, #129 ) ;
#138 = ADVANCED_FACE ( 'NONE', ( #231 ), #144, .T. ) ;
#139 = EDGE_LOOP ( 'NONE', ( #71, #228, #248, #170 ) ) ;
#140 = PLANE ( 'NONE',  #267 ) ;
#141 = FACE_BOUND ( 'NONE', #200, .T. ) ;
#142 = CARTESIAN_POINT ( 'NONE',  ( -7.000000000000000000, 0.000000000000000000, 5.000000000000000000 ) ) ;
#143 = AXIS2_PLACEMENT_3D ( 'NONE', #88, #258, #204 ) ;
#144 = CYLINDRICAL_SURFACE ( 'NONE', #297, 7.000000000000000000 ) ;
#145 = LINE ( 'NONE', #22, #262 ) ;
#146 = DIRECTION ( 'NONE',  ( -0.000000000000000000, -0.000000000000000000, -1.000000000000000000 ) ) ;
#147 = ADVANCED_FACE ( 'NONE', ( #378, #324 ), #120, .F. ) ;
#148 = DIRECTION ( 'NONE',  ( 1.000000000000000000, 0.000000000000000000, 0.000000000000000000 ) ) ;
#149 = EDGE_LOOP ( 'NONE', ( #47, #257, #284, #276 ) ) ;
#150 = DIRECTION ( 'NONE',  ( 0.000000000000000000, 0.000000000000000000, 1.000000000000000000 ) ) ;
#151 = AXIS2_PLACEMENT_3D ( 'NONE', #214, #2, #95 ) ;
#152 = ORIENTED_EDGE ( 'NONE', *, *, #5, .F. ) ;
#153 = EDGE_CURVE ( 'NONE', #338, #310, #100, .T. ) ;
#154 = DIRECTION ( 'NONE',  ( 0.000000000000000000, 0.000000000000000000, 1.000000000000000000 ) ) ;
#155 = DIRECTION ( 'NONE',  ( 1.000000000000000000, 0.000000000000000000, 0.000000000000000000 ) ) ;
#156 = PERSON_AND_ORGANIZATION_ROLE ( 'design_owner' ) ;
#157 = VERTEX_POINT ( 'NONE', #84 ) ;
#158 = CIRCLE ( 'NONE', #151, 4.500000000000000888 ) ;
#159 = DIRECTION ( 'NONE',  ( 1.000000000000000000, 0.000000000000000000, 0.000000000000000000 ) ) ;
#160 = VERTEX_POINT ( 'NONE', #201 ) ;
#161 =( LENGTH_UNIT ( ) NAMED_UNIT ( * ) SI_UNIT ( .MILLI., .METRE. ) );
#162 = EDGE_LOOP ( 'NONE', ( #336, #44 ) ) ;
#163 = DIRECTION ( 'NONE',  ( 0.000000000000000000, 0.000000000000000000, 1.000000000000000000 ) ) ;
#164 = ORIENTED_EDGE ( 'NONE', *, *, #326, .T. ) ;
#165 = LOCAL_TIME ( 17, 28, 14.00000000000000000, #187 ) ;
#166 = EDGE_CURVE ( 'NONE', #160, #41, #52, .T. ) ;
#167 = APPROVAL ( #367, 'NEURÈENÝ' ) ;
#168 = PERSON_AND_ORGANIZATION ( #356, #114 ) ;
#169 = VERTEX_POINT ( 'NONE', #86 ) ;
#170 = ORIENTED_EDGE ( 'NONE', *, *, #113, .F. ) ;
#171 = AXIS2_PLACEMENT_3D ( 'NONE', #342, #296, #175 ) ;
#172 = DIRECTION ( 'NONE',  ( 1.000000000000000000, 0.000000000000000000, 0.000000000000000000 ) ) ;
#173 = AXIS2_PLACEMENT_3D ( 'NONE', #298, #154, #155 ) ;
#174 = APPROVAL_ROLE ( '' ) ;
#175 = DIRECTION ( 'NONE',  ( -1.000000000000000000, 0.000000000000000000, 0.000000000000000000 ) ) ;
#176 = DIRECTION ( 'NONE',  ( 0.000000000000000000, 0.000000000000000000, 1.000000000000000000 ) ) ;
#177 = DIRECTION ( 'NONE',  ( 0.000000000000000000, 0.000000000000000000, 1.000000000000000000 ) ) ;
#178 = EDGE_CURVE ( 'NONE', #169, #314, #339, .T. ) ;
#179 = DIRECTION ( 'NONE',  ( 1.000000000000000000, 0.000000000000000000, -0.000000000000000000 ) ) ;
#180 = CARTESIAN_POINT ( 'NONE',  ( -4.000000000000000000, 0.000000000000000000, 165.0000000000000000 ) ) ;
#181 = AXIS2_PLACEMENT_3D ( 'NONE', #55, #232, #23 ) ;
#182 = EDGE_LOOP ( 'NONE', ( #288, #131 ) ) ;
#183 = EDGE_CURVE ( 'NONE', #41, #160, #273, .T. ) ;
#184 = AXIS2_PLACEMENT_3D ( 'NONE', #380, #352, #349 ) ;
#185 = LINE ( 'NONE', #381, #134 ) ;
#186 = APPROVAL_PERSON_ORGANIZATION ( #256, #89, #311 ) ;
#187 = COORDINATED_UNIVERSAL_TIME_OFFSET ( 1, 0, .AHEAD. ) ;
#188 = AXIS2_PLACEMENT_3D ( 'NONE', #292, #233, #27 ) ;
#189 = CALENDAR_DATE ( 2022, 8, 7 ) ;
#190 = CC_DESIGN_DATE_AND_TIME_ASSIGNMENT ( #19, #230, ( #34 ) ) ;
#191 = ORIENTED_EDGE ( 'NONE', *, *, #166, .T. ) ;
#192 = APPROVAL_DATE_TIME ( #15, #89 ) ;
#193 = VERTEX_POINT ( 'NONE', #8 ) ;
#194 =( NAMED_UNIT ( * ) PLANE_ANGLE_UNIT ( ) SI_UNIT ( $, .RADIAN. ) );
#195 = ORIENTED_EDGE ( 'NONE', *, *, #370, .T. ) ;
#196 = AXIS2_PLACEMENT_3D ( 'NONE', #376, #269, #295 ) ;
#197 = APPROVAL ( #235, 'NEURÈENÝ' ) ;
#198 = EDGE_LOOP ( 'NONE', ( #286, #31, #195, #372 ) ) ;
#199 = AXIS2_PLACEMENT_3D ( 'NONE', #334, #216, #148 ) ;
#200 = EDGE_LOOP ( 'NONE', ( #18, #78 ) ) ;
#201 = CARTESIAN_POINT ( 'NONE',  ( 7.000000000000000000, 8.572527594031473190E-16, 5.000000000000000000 ) ) ;
#202 = DIRECTION ( 'NONE',  ( 0.000000000000000000, 0.000000000000000000, 1.000000000000000000 ) ) ;
#203 = LOCAL_TIME ( 17, 28, 14.00000000000000000, #40 ) ;
#204 = DIRECTION ( 'NONE',  ( 1.000000000000000000, 0.000000000000000000, 0.000000000000000000 ) ) ;
#205 = DIRECTION ( 'NONE',  ( 1.000000000000000000, 0.000000000000000000, 0.000000000000000000 ) ) ;
#206 = EDGE_CURVE ( 'NONE', #160, #108, #124, .T. ) ;
#207 = PRODUCT_DEFINITION_SHAPE ( 'NONE', 'NONE',  #306 ) ;
#208 = PLANE ( 'NONE',  #196 ) ;
#209 = AXIS2_PLACEMENT_3D ( 'NONE', #222, #163, #159 ) ;
#210 = DIRECTION ( 'NONE',  ( 0.000000000000000000, 0.000000000000000000, 1.000000000000000000 ) ) ;
#211 = ORIENTED_EDGE ( 'NONE', *, *, #153, .F. ) ;
#212 = LINE ( 'NONE', #328, #72 ) ;
#213 = CARTESIAN_POINT ( 'NONE',  ( 0.000000000000000000, 0.000000000000000000, 165.0000000000000000 ) ) ;
#214 = CARTESIAN_POINT ( 'NONE',  ( 0.000000000000000000, 0.000000000000000000, 5.000000000000000000 ) ) ;
#215 = CC_DESIGN_SECURITY_CLASSIFICATION ( #34, ( #125 ) ) ;
#216 = DIRECTION ( 'NONE',  ( 0.000000000000000000, 0.000000000000000000, 1.000000000000000000 ) ) ;
#217 = EDGE_CURVE ( 'NONE', #310, #314, #185, .T. ) ;
#218 = CALENDAR_DATE ( 2022, 8, 7 ) ;
#219 = ORIENTED_EDGE ( 'NONE', *, *, #321, .T. ) ;
#220 = ORIENTED_EDGE ( 'NONE', *, *, #26, .F. ) ;
#221 = AXIS2_PLACEMENT_3D ( 'NONE', #320, #29, #32 ) ;
#222 = CARTESIAN_POINT ( 'NONE',  ( 0.000000000000000000, 0.000000000000000000, 0.000000000000000000 ) ) ;
#223 = CC_DESIGN_PERSON_AND_ORGANIZATION_ASSIGNMENT ( #285, #156, ( #91 ) ) ;
#224 = ORIENTED_EDGE ( 'NONE', *, *, #25, .T. ) ;
#225 = PERSON_AND_ORGANIZATION_ROLE ( 'design_supplier' ) ;
#226 = ORIENTED_EDGE ( 'NONE', *, *, #354, .F. ) ;
#227 = SECURITY_CLASSIFICATION_LEVEL ( 'unclassified' ) ;
#228 = ORIENTED_EDGE ( 'NONE', *, *, #42, .T. ) ;
#229 = CIRCLE ( 'NONE', #234, 4.000000000000000000 ) ;
#230 = DATE_TIME_ROLE ( 'classification_date' ) ;
#231 = FACE_OUTER_BOUND ( 'NONE', #198, .T. ) ;
#232 = DIRECTION ( 'NONE',  ( 0.000000000000000000, 0.000000000000000000, 1.000000000000000000 ) ) ;
#233 = DIRECTION ( 'NONE',  ( 1.224646799147353207E-16, 1.000000000000000000, -0.000000000000000000 ) ) ;
#234 = AXIS2_PLACEMENT_3D ( 'NONE', #271, #210, #360 ) ;
#235 = APPROVAL_STATUS ( 'not_yet_approved' ) ;
#236 = ADVANCED_FACE ( 'NONE', ( #126 ), #63, .F. ) ;
#237 = CARTESIAN_POINT ( 'NONE',  ( 0.000000000000000000, 0.000000000000000000, 0.000000000000000000 ) ) ;
#238 = LINE ( 'NONE', #90, #97 ) ;
#239 = AXIS2_PLACEMENT_3D ( 'NONE', #58, #176, #205 ) ;
#240 = CARTESIAN_POINT ( 'NONE',  ( 0.000000000000000000, 0.000000000000000000, 5.500000000000005329 ) ) ;
#241 = ORIENTED_EDGE ( 'NONE', *, *, #56, .F. ) ;
#242 = AXIS2_PLACEMENT_3D ( 'NONE', #348, #51, #116 ) ;
#243 = DIRECTION ( 'NONE',  ( -0.000000000000000000, -0.000000000000000000, -1.000000000000000000 ) ) ;
#244 = EDGE_LOOP ( 'NONE', ( #371, #132, #33, #241 ) ) ;
#245 = DIRECTION ( 'NONE',  ( 1.000000000000000000, 0.000000000000000000, 0.000000000000000000 ) ) ;
#246 = CARTESIAN_POINT ( 'NONE',  ( 0.000000000000000000, 0.000000000000000000, 5.000000000000000000 ) ) ;
#247 = DIRECTION ( 'NONE',  ( -0.000000000000000000, -0.000000000000000000, -1.000000000000000000 ) ) ;
#248 = ORIENTED_EDGE ( 'NONE', *, *, #25, .F. ) ;
#249 = ORIENTED_EDGE ( 'NONE', *, *, #217, .T. ) ;
#250 = ADVANCED_FACE ( 'NONE', ( #9 ), #309, .F. ) ;
#251 = DATE_AND_TIME ( #46, #203 ) ;
#252 = APPROVAL_PERSON_ORGANIZATION ( #318, #197, #174 ) ;
#253 = ORIENTED_EDGE ( 'NONE', *, *, #73, .F. ) ;
#254 = PERSON_AND_ORGANIZATION ( #356, #114 ) ;
#255 = ORIENTED_EDGE ( 'NONE', *, *, #50, .F. ) ;
#256 = PERSON_AND_ORGANIZATION ( #356, #114 ) ;
#257 = ORIENTED_EDGE ( 'NONE', *, *, #321, .F. ) ;
#258 = DIRECTION ( 'NONE',  ( -0.000000000000000000, -0.000000000000000000, -1.000000000000000000 ) ) ;
#259 = EDGE_CURVE ( 'NONE', #302, #193, #303, .T. ) ;
#260 = CARTESIAN_POINT ( 'NONE',  ( 0.000000000000000000, 0.000000000000000000, 5.000000000000000000 ) ) ;
#261 = CARTESIAN_POINT ( 'NONE',  ( 0.000000000000000000, 0.000000000000000000, 5.000000000000000000 ) ) ;
#262 = VECTOR ( 'NONE', #92, 1000.000000000000000 ) ;
#263 = MANIFOLD_SOLID_BREP ( 'Odebrat vysunutím3', #365 ) ;
#264 = SHAPE_DEFINITION_REPRESENTATION ( #207, #82 ) ;
#265 = CC_DESIGN_DATE_AND_TIME_ASSIGNMENT ( #251, #337, ( #306 ) ) ;
#266 = DIRECTION ( 'NONE',  ( -0.000000000000000000, -0.000000000000000000, -1.000000000000000000 ) ) ;
#267 = AXIS2_PLACEMENT_3D ( 'NONE', #261, #202, #24 ) ;
#268 = APPROVAL_DATE_TIME ( #373, #197 ) ;
#269 = DIRECTION ( 'NONE',  ( 0.000000000000000000, 0.000000000000000000, 1.000000000000000000 ) ) ;
#270 = CYLINDRICAL_SURFACE ( 'NONE', #4, 7.000000000000000000 ) ;
#271 = CARTESIAN_POINT ( 'NONE',  ( 0.000000000000000000, 0.000000000000000000, 5.500000000000005329 ) ) ;
#272 = ORIENTED_EDGE ( 'NONE', *, *, #178, .T. ) ;
#273 = CIRCLE ( 'NONE', #274, 7.000000000000000000 ) ;
#274 = AXIS2_PLACEMENT_3D ( 'NONE', #62, #150, #36 ) ;
#275 = CARTESIAN_POINT ( 'NONE',  ( 7.000000000000000000, 8.572527594031473190E-16, 5.000000000000000000 ) ) ;
#276 = ORIENTED_EDGE ( 'NONE', *, *, #359, .F. ) ;
#277 = DIRECTION ( 'NONE',  ( 0.000000000000000000, 0.000000000000000000, -1.000000000000000000 ) ) ;
#278 = ADVANCED_FACE ( 'NONE', ( #362 ), #307, .T. ) ;
#279 = DIRECTION ( 'NONE',  ( -0.000000000000000000, -0.000000000000000000, -1.000000000000000000 ) ) ;
#280 = COORDINATED_UNIVERSAL_TIME_OFFSET ( 1, 0, .AHEAD. ) ;
#281 = APPROVAL_PERSON_ORGANIZATION ( #363, #167, #70 ) ;
#282 = EDGE_LOOP ( 'NONE', ( #220, #253 ) ) ;
#283 = CIRCLE ( 'NONE', #110, 4.000000000000000000 ) ;
#284 = ORIENTED_EDGE ( 'NONE', *, *, #113, .T. ) ;
#285 = PERSON_AND_ORGANIZATION ( #356, #114 ) ;
#286 = ORIENTED_EDGE ( 'NONE', *, *, #206, .F. ) ;
#287 = PERSON_AND_ORGANIZATION_ROLE ( 'classification_officer' ) ;
#288 = ORIENTED_EDGE ( 'NONE', *, *, #326, .F. ) ;
#289 = ADVANCED_FACE ( 'NONE', ( #128 ), #270, .T. ) ;
#290 = FACE_OUTER_BOUND ( 'NONE', #136, .T. ) ;
#291 = AXIS2_PLACEMENT_3D ( 'NONE', #340, #346, #316 ) ;
#292 = CARTESIAN_POINT ( 'NONE',  ( -4.500000000000000888, 5.510910596163089556E-16, 5.500000000000005329 ) ) ;
#293 = DIRECTION ( 'NONE',  ( 0.000000000000000000, 0.000000000000000000, -1.000000000000000000 ) ) ;
#294 = EDGE_CURVE ( 'NONE', #112, #16, #101, .T. ) ;
#295 = DIRECTION ( 'NONE',  ( 1.000000000000000000, 0.000000000000000000, -0.000000000000000000 ) ) ;
#296 = DIRECTION ( 'NONE',  ( 0.000000000000000000, 0.000000000000000000, -1.000000000000000000 ) ) ;
#297 = AXIS2_PLACEMENT_3D ( 'NONE', #260, #266, #121 ) ;
#298 = CARTESIAN_POINT ( 'NONE',  ( 0.000000000000000000, 0.000000000000000000, 5.500000000000005329 ) ) ;
#299 = LINE ( 'NONE', #30, #53 ) ;
#300 = AXIS2_PLACEMENT_3D ( 'NONE', #118, #322, #172 ) ;
#301 = DIRECTION ( 'NONE',  ( -1.000000000000000000, 0.000000000000000000, 0.000000000000000000 ) ) ;
#302 = VERTEX_POINT ( 'NONE', #122 ) ;
#303 = CIRCLE ( 'NONE', #106, 2.100000000000000089 ) ;
#304 = DIRECTION ( 'NONE',  ( 0.000000000000000000, 0.000000000000000000, -1.000000000000000000 ) ) ;
#305 = ADVANCED_FACE ( 'NONE', ( #335 ), #350, .F. ) ;
#306 = PRODUCT_DEFINITION ( 'NEZNÁMÝ', '', #125, #329 ) ;
#307 = CYLINDRICAL_SURFACE ( 'NONE', #87, 4.000000000000000000 ) ;
#308 = APPROVAL_STATUS ( 'not_yet_approved' ) ;
#309 = TOROIDAL_SURFACE ( 'NONE', #173, 4.500000000000000888, 0.5000000000000000000 ) ;
#310 = VERTEX_POINT ( 'NONE', #96 ) ;
#311 = APPROVAL_ROLE ( '' ) ;
#312 = ORIENTED_EDGE ( 'NONE', *, *, #56, .T. ) ;
#313 = CIRCLE ( 'NONE', #239, 7.000000000000000000 ) ;
#314 = VERTEX_POINT ( 'NONE', #93 ) ;
#315 = MECHANICAL_CONTEXT ( 'NONE', #66, 'mechanical' ) ;
#316 = DIRECTION ( 'NONE',  ( -1.000000000000000000, 0.000000000000000000, 0.000000000000000000 ) ) ;
#317 = DIRECTION ( 'NONE',  ( 1.000000000000000000, 0.000000000000000000, 0.000000000000000000 ) ) ;
#318 = PERSON_AND_ORGANIZATION ( #356, #114 ) ;
#319 = FACE_OUTER_BOUND ( 'NONE', #162, .T. ) ;
#320 = CARTESIAN_POINT ( 'NONE',  ( 0.000000000000000000, 0.000000000000000000, 5.500000000000005329 ) ) ;
#321 = EDGE_CURVE ( 'NONE', #314, #169, #229, .T. ) ;
#322 = DIRECTION ( 'NONE',  ( 0.000000000000000000, 0.000000000000000000, 1.000000000000000000 ) ) ;
#323 = CARTESIAN_POINT ( 'NONE',  ( 0.000000000000000000, 0.000000000000000000, 165.0000000000000000 ) ) ;
#324 = FACE_OUTER_BOUND ( 'NONE', #282, .T. ) ;
#325 = CC_DESIGN_APPROVAL ( #197, ( #34 ) ) ;
#326 = EDGE_CURVE ( 'NONE', #193, #302, #64, .T. ) ;
#327 = DIRECTION ( 'NONE',  ( -0.000000000000000000, -0.000000000000000000, -1.000000000000000000 ) ) ;
#328 = CARTESIAN_POINT ( 'NONE',  ( -7.000000000000000000, 0.000000000000000000, 5.000000000000000000 ) ) ;
#329 = DESIGN_CONTEXT ( 'detailed design', #129, 'design' ) ;
#330 = VERTEX_POINT ( 'NONE', #60 ) ;
#331 = DIRECTION ( 'NONE',  ( -1.000000000000000000, 0.000000000000000000, 0.000000000000000000 ) ) ;
#332 = CC_DESIGN_PERSON_AND_ORGANIZATION_ASSIGNMENT ( #107, #111, ( #306 ) ) ;
#333 = CC_DESIGN_APPROVAL ( #167, ( #125 ) ) ;
#334 = CARTESIAN_POINT ( 'NONE',  ( 0.000000000000000000, 0.000000000000000000, 165.0000000000000000 ) ) ;
#335 = FACE_OUTER_BOUND ( 'NONE', #149, .T. ) ;
#336 = ORIENTED_EDGE ( 'NONE', *, *, #153, .T. ) ;
#337 = DATE_TIME_ROLE ( 'creation_date' ) ;
#338 = VERTEX_POINT ( 'NONE', #180 ) ;
#339 = CIRCLE ( 'NONE', #221, 4.000000000000000000 ) ;
#340 = CARTESIAN_POINT ( 'NONE',  ( 0.000000000000000000, 0.000000000000000000, 165.0000000000000000 ) ) ;
#341 = EDGE_LOOP ( 'NONE', ( #61, #191 ) ) ;
#342 = CARTESIAN_POINT ( 'NONE',  ( 0.000000000000000000, 0.000000000000000000, 165.0000000000000000 ) ) ;
#343 = CC_DESIGN_PERSON_AND_ORGANIZATION_ASSIGNMENT ( #369, #225, ( #125 ) ) ;
#344 = DATE_AND_TIME ( #189, #119 ) ;
#345 = AXIS2_PLACEMENT_3D ( 'NONE', #240, #127, #355 ) ;
#346 = DIRECTION ( 'NONE',  ( -0.000000000000000000, -0.000000000000000000, -1.000000000000000000 ) ) ;
#347 = DIRECTION ( 'NONE',  ( 1.000000000000000000, 0.000000000000000000, 0.000000000000000000 ) ) ;
#348 = CARTESIAN_POINT ( 'NONE',  ( 0.000000000000000000, 0.000000000000000000, 5.000000000000000000 ) ) ;
#349 = DIRECTION ( 'NONE',  ( 0.000000000000000000, 0.000000000000000000, -1.000000000000000000 ) ) ;
#350 = TOROIDAL_SURFACE ( 'NONE', #345, 4.500000000000000888, 0.5000000000000000000 ) ;
#351 = CARTESIAN_POINT ( 'NONE',  ( 2.100000000000000089, 2.571758278209441957E-16, 165.0000000000000000 ) ) ;
#352 = DIRECTION ( 'NONE',  ( 0.000000000000000000, -1.000000000000000000, 0.000000000000000000 ) ) ;
#353 = CIRCLE ( 'NONE', #188, 0.5000000000000004441 ) ;
#354 = EDGE_CURVE ( 'NONE', #112, #302, #299, .T. ) ;
#355 = DIRECTION ( 'NONE',  ( 1.000000000000000000, 0.000000000000000000, 0.000000000000000000 ) ) ;
#356 = PERSON ( 'NEURÈENÝ', 'NEURÈENÝ', 'NEURÈENÝ', ('NEURÈENÝ'), ('NEURÈENÝ'), ('NEURÈENÝ') ) ;
#357 = DIRECTION ( 'NONE',  ( 1.000000000000000000, 0.000000000000000000, 0.000000000000000000 ) ) ;
#358 = UNCERTAINTY_MEASURE_WITH_UNIT (LENGTH_MEASURE( 1.000000000000000082E-05 ), #161, 'distance_accuracy_value', 'NONE');
#359 = EDGE_CURVE ( 'NONE', #74, #157, #158, .T. ) ;
#360 = DIRECTION ( 'NONE',  ( 1.000000000000000000, 0.000000000000000000, 0.000000000000000000 ) ) ;
#361 = AXIS2_PLACEMENT_3D ( 'NONE', #98, #304, #65 ) ;
#362 = FACE_OUTER_BOUND ( 'NONE', #81, .T. ) ;
#363 = PERSON_AND_ORGANIZATION ( #356, #114 ) ;
#364 = ORIENTED_EDGE ( 'NONE', *, *, #73, .T. ) ;
#365 = CLOSED_SHELL ( 'NONE', ( #236, #250, #11, #289, #138, #117, #147, #278, #83, #305, #14 ) ) ;
#366 = CARTESIAN_POINT ( 'NONE',  ( 0.000000000000000000, 0.000000000000000000, 165.0000000000000000 ) ) ;
#367 = APPROVAL_STATUS ( 'not_yet_approved' ) ;
#368 = ORIENTED_EDGE ( 'NONE', *, *, #359, .T. ) ;
#369 = PERSON_AND_ORGANIZATION ( #356, #114 ) ;
#370 = EDGE_CURVE ( 'NONE', #41, #330, #212, .T. ) ;
#371 = ORIENTED_EDGE ( 'NONE', *, *, #37, .T. ) ;
#372 = ORIENTED_EDGE ( 'NONE', *, *, #26, .T. ) ;
#373 = DATE_AND_TIME ( #80, #374 ) ;
#374 = LOCAL_TIME ( 17, 28, 14.00000000000000000, #85 ) ;
#375 = CARTESIAN_POINT ( 'NONE',  ( 7.000000000000000000, 8.572527594031473190E-16, 0.000000000000000000 ) ) ;
#376 = CARTESIAN_POINT ( 'NONE',  ( 0.000000000000000000, 0.000000000000000000, 165.0000000000000000 ) ) ;
#377 = CARTESIAN_POINT ( 'NONE',  ( -2.100000000000000089, 0.000000000000000000, 165.0000000000000000 ) ) ;
#378 = FACE_BOUND ( 'NONE', #182, .T. ) ;
#379 = VECTOR ( 'NONE', #6, 1000.000000000000000 ) ;
#380 = CARTESIAN_POINT ( 'NONE',  ( 4.500000000000000888, 0.000000000000000000, 5.500000000000005329 ) ) ;
#381 = CARTESIAN_POINT ( 'NONE',  ( 4.000000000000000000, 4.898587196589412829E-16, 165.0000000000000000 ) ) ;
ENDSEC;
END-ISO-10303-21;
