ISO-10303-21;
HEADER;
FILE_DESCRIPTION (( 'STEP AP203' ),
    '1' );
FILE_NAME ('bbe9.STEP',
    '2022-07-08T15:40:39',
    ( '' ),
    ( '' ),
    'SwSTEP 2.0',
    'SolidWorks 2019',
    '' );
FILE_SCHEMA (( 'CONFIG_CONTROL_DESIGN' ));
ENDSEC;

DATA;
#1 = LOCAL_TIME ( 17, 40, 39.00000000000000000, #110 ) ;
#2 = CARTESIAN_POINT ( 'NONE',  ( -5.000000000000000000, 0.000000000000000000, 0.000000000000000000 ) ) ;
#3 = VERTEX_POINT ( 'NONE', #70 ) ;
#4 = DIRECTION ( 'NONE',  ( 1.000000000000000000, 0.000000000000000000, 0.000000000000000000 ) ) ;
#5 = ADVANCED_FACE ( 'NONE', ( #372 ), #214, .F. ) ;
#6 = VERTEX_POINT ( 'NONE', #43 ) ;
#7 = EDGE_LOOP ( 'NONE', ( #41, #318 ) ) ;
#8 = VECTOR ( 'NONE', #325, 1000.000000000000000 ) ;
#9 = FACE_OUTER_BOUND ( 'NONE', #381, .T. ) ;
#10 = EDGE_LOOP ( 'NONE', ( #65, #127, #236, #237 ) ) ;
#11 = DIRECTION ( 'NONE',  ( -1.000000000000000000, 0.000000000000000000, 0.000000000000000000 ) ) ;
#12 = PLANE ( 'NONE',  #32 ) ;
#13 = CIRCLE ( 'NONE', #375, 2.500000000000000000 ) ;
#14 = CIRCLE ( 'NONE', #294, 5.000000000000000000 ) ;
#15 = EDGE_LOOP ( 'NONE', ( #176, #334, #200, #323 ) ) ;
#16 = EDGE_CURVE ( 'NONE', #241, #205, #13, .T. ) ;
#17 = DIRECTION ( 'NONE',  ( 1.000000000000000000, 0.000000000000000000, 0.000000000000000000 ) ) ;
#18 = CIRCLE ( 'NONE', #209, 5.000000000000000000 ) ;
#19 = CC_DESIGN_PERSON_AND_ORGANIZATION_ASSIGNMENT ( #319, #196, ( #317 ) ) ;
#20 = PLANE ( 'NONE',  #345 ) ;
#21 = DIRECTION ( 'NONE',  ( 0.000000000000000000, 0.000000000000000000, 1.000000000000000000 ) ) ;
#22 = APPROVAL_DATE_TIME ( #282, #313 ) ;
#23 = DIRECTION ( 'NONE',  ( 0.000000000000000000, 0.000000000000000000, 1.000000000000000000 ) ) ;
#24 = CALENDAR_DATE ( 2022, 8, 7 ) ;
#25 = TOROIDAL_SURFACE ( 'NONE', #226, 2.799999999999999822, 0.2999999999999999889 ) ;
#26 = CALENDAR_DATE ( 2022, 8, 7 ) ;
#27 = APPROVAL ( #83, 'NEURÈENÝ' ) ;
#28 = PRODUCT ( 'bbe9', 'bbe9', '', ( #225 ) ) ;
#29 = LINE ( 'NONE', #143, #220 ) ;
#30 = ORIENTED_EDGE ( 'NONE', *, *, #139, .T. ) ;
#31 = DATE_AND_TIME ( #291, #277 ) ;
#32 = AXIS2_PLACEMENT_3D ( 'NONE', #131, #192, #133 ) ;
#33 = ORIENTED_EDGE ( 'NONE', *, *, #67, .T. ) ;
#34 = APPROVAL_PERSON_ORGANIZATION ( #170, #313, #77 ) ;
#35 = ADVANCED_FACE ( 'NONE', ( #101, #278 ), #12, .T. ) ;
#36 = FACE_OUTER_BOUND ( 'NONE', #361, .T. ) ;
#37 = EDGE_LOOP ( 'NONE', ( #343, #155, #350, #58 ) ) ;
#38 = DIRECTION ( 'NONE',  ( -0.000000000000000000, -0.000000000000000000, -1.000000000000000000 ) ) ;
#39 = ORIENTED_EDGE ( 'NONE', *, *, #344, .T. ) ;
#40 = CARTESIAN_POINT ( 'NONE',  ( 5.000000000000000000, 6.123233995736766282E-16, 3.000000000000000000 ) ) ;
#41 = ORIENTED_EDGE ( 'NONE', *, *, #105, .T. ) ;
#42 = DIRECTION ( 'NONE',  ( 0.000000000000000000, 0.000000000000000000, 1.000000000000000000 ) ) ;
#43 = CARTESIAN_POINT ( 'NONE',  ( 2.799999999999999822, 0.000000000000000000, 2.999999999999984901 ) ) ;
#44 = DIRECTION ( 'NONE',  ( 0.000000000000000000, 0.000000000000000000, 1.000000000000000000 ) ) ;
#45 = CIRCLE ( 'NONE', #255, 2.799999999999999822 ) ;
#46 = ADVANCED_FACE ( 'NONE', ( #218 ), #341, .T. ) ;
#47 = VECTOR ( 'NONE', #64, 1000.000000000000000 ) ;
#48 = CC_DESIGN_PERSON_AND_ORGANIZATION_ASSIGNMENT ( #378, #115, ( #195 ) ) ;
#49 = CARTESIAN_POINT ( 'NONE',  ( 0.000000000000000000, 0.000000000000000000, 553.0000000000000000 ) ) ;
#50 = CIRCLE ( 'NONE', #367, 2.500000000000000000 ) ;
#51 = DIRECTION ( 'NONE',  ( 1.000000000000000000, 0.000000000000000000, 0.000000000000000000 ) ) ;
#52 = COORDINATED_UNIVERSAL_TIME_OFFSET ( 1, 0, .AHEAD. ) ;
#53 = CARTESIAN_POINT ( 'NONE',  ( -5.000000000000000000, 0.000000000000000000, 3.000000000000000000 ) ) ;
#54 = LOCAL_TIME ( 17, 40, 39.00000000000000000, #257 ) ;
#55 = VERTEX_POINT ( 'NONE', #68 ) ;
#56 = PERSON_AND_ORGANIZATION ( #117, #166 ) ;
#57 = DIRECTION ( 'NONE',  ( 1.000000000000000000, 0.000000000000000000, 0.000000000000000000 ) ) ;
#58 = ORIENTED_EDGE ( 'NONE', *, *, #99, .F. ) ;
#59 = EDGE_CURVE ( 'NONE', #182, #123, #251, .T. ) ;
#60 = CARTESIAN_POINT ( 'NONE',  ( 5.000000000000000000, 6.123233995736766282E-16, 3.000000000000000000 ) ) ;
#61 = ORIENTED_EDGE ( 'NONE', *, *, #191, .F. ) ;
#62 = CARTESIAN_POINT ( 'NONE',  ( 0.000000000000000000, 0.000000000000000000, 3.000000000000000000 ) ) ;
#63 = EDGE_LOOP ( 'NONE', ( #210, #157, #363, #92 ) ) ;
#64 = DIRECTION ( 'NONE',  ( -0.000000000000000000, -0.000000000000000000, -1.000000000000000000 ) ) ;
#65 = ORIENTED_EDGE ( 'NONE', *, *, #271, .F. ) ;
#66 = CARTESIAN_POINT ( 'NONE',  ( 2.500000000000000000, 3.061616997868383141E-16, 553.0000000000000000 ) ) ;
#67 = EDGE_CURVE ( 'NONE', #355, #55, #78, .T. ) ;
#68 = CARTESIAN_POINT ( 'NONE',  ( 1.600000000000000089, 1.959434878635765230E-16, 553.0000000000000000 ) ) ;
#69 = LINE ( 'NONE', #185, #8 ) ;
#70 = CARTESIAN_POINT ( 'NONE',  ( -2.500000000000000000, 0.000000000000000000, 3.299999999999969624 ) ) ;
#71 = CARTESIAN_POINT ( 'NONE',  ( 0.000000000000000000, 0.000000000000000000, 553.0000000000000000 ) ) ;
#72 = CARTESIAN_POINT ( 'NONE',  ( 0.000000000000000000, 0.000000000000000000, 553.0000000000000000 ) ) ;
#73 = CC_DESIGN_DATE_AND_TIME_ASSIGNMENT ( #351, #348, ( #369 ) ) ;
#74 = CIRCLE ( 'NONE', #132, 0.2999999999999999334 ) ;
#75 = DIRECTION ( 'NONE',  ( 0.000000000000000000, 0.000000000000000000, 1.000000000000000000 ) ) ;
#76 = ORIENTED_EDGE ( 'NONE', *, *, #16, .T. ) ;
#77 = APPROVAL_ROLE ( '' ) ;
#78 = CIRCLE ( 'NONE', #111, 1.600000000000000089 ) ;
#79 = FACE_OUTER_BOUND ( 'NONE', #37, .T. ) ;
#80 = VECTOR ( 'NONE', #315, 1000.000000000000000 ) ;
#81 = CALENDAR_DATE ( 2022, 8, 7 ) ;
#82 = ADVANCED_FACE ( 'NONE', ( #79 ), #293, .F. ) ;
#83 = APPROVAL_STATUS ( 'not_yet_approved' ) ;
#84 = CARTESIAN_POINT ( 'NONE',  ( 0.000000000000000000, 0.000000000000000000, 3.000000000000000000 ) ) ;
#85 = COORDINATED_UNIVERSAL_TIME_OFFSET ( 1, 0, .AHEAD. ) ;
#86 = CARTESIAN_POINT ( 'NONE',  ( 2.500000000000000000, 3.061616997868383141E-16, 553.0000000000000000 ) ) ;
#87 = AXIS2_PLACEMENT_3D ( 'NONE', #167, #21, #137 ) ;
#88 = CIRCLE ( 'NONE', #199, 5.000000000000000000 ) ;
#89 = DIRECTION ( 'NONE',  ( 1.000000000000000000, 0.000000000000000000, 0.000000000000000000 ) ) ;
#90 = DIRECTION ( 'NONE',  ( 1.000000000000000000, 0.000000000000000000, 0.000000000000000000 ) ) ;
#91 = ADVANCED_FACE ( 'NONE', ( #9 ), #129, .T. ) ;
#92 = ORIENTED_EDGE ( 'NONE', *, *, #206, .T. ) ;
#93 = DIRECTION ( 'NONE',  ( -1.000000000000000000, 1.224646799147353207E-16, 0.000000000000000000 ) ) ;
#94 = VERTEX_POINT ( 'NONE', #354 ) ;
#95 = DIRECTION ( 'NONE',  ( 0.000000000000000000, 0.000000000000000000, 1.000000000000000000 ) ) ;
#96 = CIRCLE ( 'NONE', #306, 1.600000000000000089 ) ;
#97 = ORIENTED_EDGE ( 'NONE', *, *, #358, .F. ) ;
#98 = EDGE_LOOP ( 'NONE', ( #97, #249, #39, #289 ) ) ;
#99 = EDGE_CURVE ( 'NONE', #229, #6, #208, .T. ) ;
#100 = DIRECTION ( 'NONE',  ( 1.000000000000000000, 0.000000000000000000, 0.000000000000000000 ) ) ;
#101 = FACE_BOUND ( 'NONE', #7, .T. ) ;
#102 = FACE_OUTER_BOUND ( 'NONE', #10, .T. ) ;
#103 = APPROVAL_PERSON_ORGANIZATION ( #144, #219, #346 ) ;
#104 = CYLINDRICAL_SURFACE ( 'NONE', #376, 2.500000000000000000 ) ;
#105 = EDGE_CURVE ( 'NONE', #6, #229, #45, .T. ) ;
#106 = DIRECTION ( 'NONE',  ( -1.000000000000000000, 0.000000000000000000, 0.000000000000000000 ) ) ;
#107 = APPLICATION_PROTOCOL_DEFINITION ( 'international standard', 'config_control_design', 1994, #238 ) ;
#108 = EDGE_CURVE ( 'NONE', #94, #322, #96, .T. ) ;
#109 = DIRECTION ( 'NONE',  ( 0.000000000000000000, 0.000000000000000000, 1.000000000000000000 ) ) ;
#110 = COORDINATED_UNIVERSAL_TIME_OFFSET ( 1, 0, .AHEAD. ) ;
#111 = AXIS2_PLACEMENT_3D ( 'NONE', #253, #109, #224 ) ;
#112 = DIRECTION ( 'NONE',  ( 1.000000000000000000, 0.000000000000000000, 0.000000000000000000 ) ) ;
#113 = CC_DESIGN_SECURITY_CLASSIFICATION ( #195, ( #317 ) ) ;
#114 = EDGE_CURVE ( 'NONE', #172, #148, #14, .T. ) ;
#115 = PERSON_AND_ORGANIZATION_ROLE ( 'classification_officer' ) ;
#116 = MANIFOLD_SOLID_BREP ( 'Odebrat vysunutím3', #146 ) ;
#117 = PERSON ( 'NEURÈENÝ', 'NEURÈENÝ', 'NEURÈENÝ', ('NEURÈENÝ'), ('NEURÈENÝ'), ('NEURÈENÝ') ) ;
#118 = CARTESIAN_POINT ( 'NONE',  ( -2.799999999999999822, 3.429011037612588783E-16, 3.299999999999969624 ) ) ;
#119 = EDGE_CURVE ( 'NONE', #205, #353, #234, .T. ) ;
#120 = CIRCLE ( 'NONE', #136, 1.600000000000000089 ) ;
#121 = ORIENTED_EDGE ( 'NONE', *, *, #206, .F. ) ;
#122 = DIRECTION ( 'NONE',  ( -0.000000000000000000, -0.000000000000000000, -1.000000000000000000 ) ) ;
#123 = VERTEX_POINT ( 'NONE', #2 ) ;
#124 = ORIENTED_EDGE ( 'NONE', *, *, #67, .F. ) ;
#125 = DIRECTION ( 'NONE',  ( 1.000000000000000000, 0.000000000000000000, -0.000000000000000000 ) ) ;
#126 = AXIS2_PLACEMENT_3D ( 'NONE', #231, #122, #90 ) ;
#127 = ORIENTED_EDGE ( 'NONE', *, *, #114, .F. ) ;
#128 = LOCAL_TIME ( 17, 40, 39.00000000000000000, #52 ) ;
#129 = CYLINDRICAL_SURFACE ( 'NONE', #324, 5.000000000000000000 ) ;
#130 = CARTESIAN_POINT ( 'NONE',  ( 0.000000000000000000, 0.000000000000000000, 553.0000000000000000 ) ) ;
#131 = CARTESIAN_POINT ( 'NONE',  ( 0.000000000000000000, 0.000000000000000000, 3.000000000000000000 ) ) ;
#132 = AXIS2_PLACEMENT_3D ( 'NONE', #247, #335, #177 ) ;
#133 = DIRECTION ( 'NONE',  ( 1.000000000000000000, 0.000000000000000000, -0.000000000000000000 ) ) ;
#134 = DIRECTION ( 'NONE',  ( 1.000000000000000000, 0.000000000000000000, -0.000000000000000000 ) ) ;
#135 = CC_DESIGN_PERSON_AND_ORGANIZATION_ASSIGNMENT ( #380, #230, ( #369 ) ) ;
#136 = AXIS2_PLACEMENT_3D ( 'NONE', #149, #38, #328 ) ;
#137 = DIRECTION ( 'NONE',  ( 1.000000000000000000, 0.000000000000000000, 0.000000000000000000 ) ) ;
#138 = APPROVAL_STATUS ( 'not_yet_approved' ) ;
#139 = EDGE_CURVE ( 'NONE', #3, #229, #303, .T. ) ;
#140 = AXIS2_PLACEMENT_3D ( 'NONE', #130, #299, #125 ) ;
#141 = PERSON_AND_ORGANIZATION_ROLE ( 'creator' ) ;
#142 = PERSON_AND_ORGANIZATION ( #117, #166 ) ;
#143 = CARTESIAN_POINT ( 'NONE',  ( -2.500000000000000000, 0.000000000000000000, 553.0000000000000000 ) ) ;
#144 = PERSON_AND_ORGANIZATION ( #117, #166 ) ;
#145 = DIRECTION ( 'NONE',  ( -0.000000000000000000, -0.000000000000000000, -1.000000000000000000 ) ) ;
#146 = CLOSED_SHELL ( 'NONE', ( #5, #180, #46, #91, #263, #35, #290, #235, #244, #82, #327 ) ) ;
#147 = VECTOR ( 'NONE', #181, 1000.000000000000000 ) ;
#148 = VERTEX_POINT ( 'NONE', #60 ) ;
#149 = CARTESIAN_POINT ( 'NONE',  ( 0.000000000000000000, 0.000000000000000000, 0.000000000000000000 ) ) ;
#150 = ORIENTED_EDGE ( 'NONE', *, *, #168, .F. ) ;
#151 = ADVANCED_BREP_SHAPE_REPRESENTATION ( 'bbe9', ( #116, #359 ), #333 ) ;
#152 = PRODUCT_DEFINITION_SHAPE ( 'NONE', 'NONE',  #369 ) ;
#153 = DIRECTION ( 'NONE',  ( -1.000000000000000000, 0.000000000000000000, 0.000000000000000000 ) ) ;
#154 = CC_DESIGN_PERSON_AND_ORGANIZATION_ASSIGNMENT ( #56, #141, ( #317 ) ) ;
#155 = ORIENTED_EDGE ( 'NONE', *, *, #344, .F. ) ;
#156 = LINE ( 'NONE', #213, #147 ) ;
#157 = ORIENTED_EDGE ( 'NONE', *, *, #16, .F. ) ;
#158 = VECTOR ( 'NONE', #368, 1000.000000000000000 ) ;
#159 = CARTESIAN_POINT ( 'NONE',  ( 0.000000000000000000, 0.000000000000000000, 3.000000000000000000 ) ) ;
#160 = EDGE_CURVE ( 'NONE', #55, #355, #240, .T. ) ;
#161 = DIRECTION ( 'NONE',  ( 0.000000000000000000, 0.000000000000000000, 1.000000000000000000 ) ) ;
#162 = CARTESIAN_POINT ( 'NONE',  ( 0.000000000000000000, 0.000000000000000000, 553.0000000000000000 ) ) ;
#163 = CARTESIAN_POINT ( 'NONE',  ( -1.600000000000000089, 0.000000000000000000, 0.000000000000000000 ) ) ;
#164 = DIRECTION ( 'NONE',  ( 0.000000000000000000, 0.000000000000000000, 1.000000000000000000 ) ) ;
#165 = EDGE_CURVE ( 'NONE', #241, #3, #29, .T. ) ;
#166 = ORGANIZATION ( 'NEURÈENÝ', 'NEURÈENÝ', '' ) ;
#167 = CARTESIAN_POINT ( 'NONE',  ( 0.000000000000000000, 0.000000000000000000, 0.000000000000000000 ) ) ;
#168 = EDGE_CURVE ( 'NONE', #123, #182, #18, .T. ) ;
#169 = APPROVAL_DATE_TIME ( #260, #27 ) ;
#170 = PERSON_AND_ORGANIZATION ( #117, #166 ) ;
#171 = DIRECTION ( 'NONE',  ( -1.000000000000000000, 0.000000000000000000, 0.000000000000000000 ) ) ;
#172 = VERTEX_POINT ( 'NONE', #53 ) ;
#173 = CALENDAR_DATE ( 2022, 8, 7 ) ;
#174 = FACE_OUTER_BOUND ( 'NONE', #336, .T. ) ;
#175 = EDGE_LOOP ( 'NONE', ( #33, #233, #304, #298 ) ) ;
#176 = ORIENTED_EDGE ( 'NONE', *, *, #300, .F. ) ;
#177 = DIRECTION ( 'NONE',  ( 0.000000000000000000, 0.000000000000000000, -1.000000000000000000 ) ) ;
#178 = CC_DESIGN_APPROVAL ( #313, ( #195 ) ) ;
#179 = ORIENTED_EDGE ( 'NONE', *, *, #114, .T. ) ;
#180 = ADVANCED_FACE ( 'NONE', ( #174 ), #25, .F. ) ;
#181 = DIRECTION ( 'NONE',  ( -0.000000000000000000, -0.000000000000000000, -1.000000000000000000 ) ) ;
#182 = VERTEX_POINT ( 'NONE', #365 ) ;
#183 = FACE_BOUND ( 'NONE', #261, .T. ) ;
#184 = ORIENTED_EDGE ( 'NONE', *, *, #275, .F. ) ;
#185 = CARTESIAN_POINT ( 'NONE',  ( -1.600000000000000089, 0.000000000000000000, 553.0000000000000000 ) ) ;
#186 = DIRECTION ( 'NONE',  ( -0.000000000000000000, -0.000000000000000000, -1.000000000000000000 ) ) ;
#187 = AXIS2_PLACEMENT_3D ( 'NONE', #71, #217, #307 ) ;
#188 = FACE_OUTER_BOUND ( 'NONE', #63, .T. ) ;
#189 = CARTESIAN_POINT ( 'NONE',  ( -1.600000000000000089, 0.000000000000000000, 553.0000000000000000 ) ) ;
#190 = CYLINDRICAL_SURFACE ( 'NONE', #187, 1.600000000000000089 ) ;
#191 = EDGE_CURVE ( 'NONE', #148, #172, #88, .T. ) ;
#192 = DIRECTION ( 'NONE',  ( 0.000000000000000000, 0.000000000000000000, 1.000000000000000000 ) ) ;
#193 = AXIS2_PLACEMENT_3D ( 'NONE', #162, #309, #106 ) ;
#194 = AXIS2_PLACEMENT_3D ( 'NONE', #62, #297, #11 ) ;
#195 = SECURITY_CLASSIFICATION ( '', '', #259 ) ;
#196 = PERSON_AND_ORGANIZATION_ROLE ( 'design_supplier' ) ;
#197 = DIRECTION ( 'NONE',  ( 1.000000000000000000, 0.000000000000000000, 0.000000000000000000 ) ) ;
#198 = EDGE_CURVE ( 'NONE', #322, #94, #120, .T. ) ;
#199 = AXIS2_PLACEMENT_3D ( 'NONE', #356, #95, #239 ) ;
#200 = ORIENTED_EDGE ( 'NONE', *, *, #227, .T. ) ;
#201 = DATE_AND_TIME ( #81, #128 ) ;
#202 = DIRECTION ( 'NONE',  ( 0.000000000000000000, 0.000000000000000000, 1.000000000000000000 ) ) ;
#203 = ORIENTED_EDGE ( 'NONE', *, *, #59, .T. ) ;
#204 = SHAPE_DEFINITION_REPRESENTATION ( #152, #151 ) ;
#205 = VERTEX_POINT ( 'NONE', #66 ) ;
#206 = EDGE_CURVE ( 'NONE', #3, #353, #352, .T. ) ;
#207 = DIRECTION ( 'NONE',  ( -0.000000000000000000, -0.000000000000000000, -1.000000000000000000 ) ) ;
#208 = CIRCLE ( 'NONE', #126, 2.799999999999999822 ) ;
#209 = AXIS2_PLACEMENT_3D ( 'NONE', #283, #23, #112 ) ;
#210 = ORIENTED_EDGE ( 'NONE', *, *, #119, .F. ) ;
#211 = DESIGN_CONTEXT ( 'detailed design', #256, 'design' ) ;
#212 = ORIENTED_EDGE ( 'NONE', *, *, #160, .F. ) ;
#213 = CARTESIAN_POINT ( 'NONE',  ( -5.000000000000000000, 0.000000000000000000, 3.000000000000000000 ) ) ;
#214 = CYLINDRICAL_SURFACE ( 'NONE', #193, 1.600000000000000089 ) ;
#215 = CC_DESIGN_APPROVAL ( #27, ( #369 ) ) ;
#216 = LINE ( 'NONE', #40, #47 ) ;
#217 = DIRECTION ( 'NONE',  ( 0.000000000000000000, 0.000000000000000000, -1.000000000000000000 ) ) ;
#218 = FACE_OUTER_BOUND ( 'NONE', #98, .T. ) ;
#219 = APPROVAL ( #138, 'NEURÈENÝ' ) ;
#220 = VECTOR ( 'NONE', #292, 1000.000000000000000 ) ;
#221 = DIRECTION ( 'NONE',  ( 0.000000000000000000, 0.000000000000000000, 1.000000000000000000 ) ) ;
#222 = EDGE_CURVE ( 'NONE', #172, #123, #156, .T. ) ;
#223 = LINE ( 'NONE', #305, #158 ) ;
#224 = DIRECTION ( 'NONE',  ( 1.000000000000000000, 0.000000000000000000, 0.000000000000000000 ) ) ;
#225 = MECHANICAL_CONTEXT ( 'NONE', #238, 'mechanical' ) ;
#226 = AXIS2_PLACEMENT_3D ( 'NONE', #245, #332, #4 ) ;
#227 = EDGE_CURVE ( 'NONE', #355, #322, #69, .T. ) ;
#228 = DIRECTION ( 'NONE',  ( 1.224646799147353207E-16, 1.000000000000000000, -0.000000000000000000 ) ) ;
#229 = VERTEX_POINT ( 'NONE', #242 ) ;
#230 = PERSON_AND_ORGANIZATION_ROLE ( 'creator' ) ;
#231 = CARTESIAN_POINT ( 'NONE',  ( 0.000000000000000000, 0.000000000000000000, 3.000000000000000000 ) ) ;
#232 = AXIS2_PLACEMENT_3D ( 'NONE', #267, #161, #100 ) ;
#233 = ORIENTED_EDGE ( 'NONE', *, *, #300, .T. ) ;
#234 = LINE ( 'NONE', #86, #80 ) ;
#235 = ADVANCED_FACE ( 'NONE', ( #188 ), #104, .T. ) ;
#236 = ORIENTED_EDGE ( 'NONE', *, *, #222, .T. ) ;
#237 = ORIENTED_EDGE ( 'NONE', *, *, #168, .T. ) ;
#238 = APPLICATION_CONTEXT ( 'configuration controlled 3d designs of mechanical parts and assemblies' ) ;
#239 = DIRECTION ( 'NONE',  ( 1.000000000000000000, 0.000000000000000000, 0.000000000000000000 ) ) ;
#240 = CIRCLE ( 'NONE', #269, 1.600000000000000089 ) ;
#241 = VERTEX_POINT ( 'NONE', #330 ) ;
#242 = CARTESIAN_POINT ( 'NONE',  ( -2.799999999999999822, 3.429011037612589276E-16, 2.999999999999984901 ) ) ;
#243 = DIRECTION ( 'NONE',  ( -0.000000000000000000, -0.000000000000000000, -1.000000000000000000 ) ) ;
#244 = ADVANCED_FACE ( 'NONE', ( #183, #362 ), #302, .T. ) ;
#245 = CARTESIAN_POINT ( 'NONE',  ( 0.000000000000000000, 0.000000000000000000, 3.299999999999969624 ) ) ;
#246 = ORIENTED_EDGE ( 'NONE', *, *, #198, .F. ) ;
#247 = CARTESIAN_POINT ( 'NONE',  ( 2.799999999999999822, 0.000000000000000000, 3.299999999999969624 ) ) ;
#248 = LOCAL_TIME ( 17, 40, 39.00000000000000000, #311 ) ;
#249 = ORIENTED_EDGE ( 'NONE', *, *, #119, .T. ) ;
#250 =( NAMED_UNIT ( * ) PLANE_ANGLE_UNIT ( ) SI_UNIT ( $, .RADIAN. ) );
#251 = CIRCLE ( 'NONE', #87, 5.000000000000000000 ) ;
#252 =( NAMED_UNIT ( * ) SI_UNIT ( $, .STERADIAN. ) SOLID_ANGLE_UNIT ( ) );
#253 = CARTESIAN_POINT ( 'NONE',  ( 0.000000000000000000, 0.000000000000000000, 553.0000000000000000 ) ) ;
#254 = DIRECTION ( 'NONE',  ( 1.000000000000000000, 0.000000000000000000, 0.000000000000000000 ) ) ;
#255 = AXIS2_PLACEMENT_3D ( 'NONE', #288, #145, #379 ) ;
#256 = APPLICATION_CONTEXT ( 'configuration controlled 3d designs of mechanical parts and assemblies' ) ;
#257 = COORDINATED_UNIVERSAL_TIME_OFFSET ( 1, 0, .AHEAD. ) ;
#258 = AXIS2_PLACEMENT_3D ( 'NONE', #337, #221, #279 ) ;
#259 = SECURITY_CLASSIFICATION_LEVEL ( 'unclassified' ) ;
#260 = DATE_AND_TIME ( #173, #1 ) ;
#261 = EDGE_LOOP ( 'NONE', ( #124, #212 ) ) ;
#262 = APPROVAL_STATUS ( 'not_yet_approved' ) ;
#263 = ADVANCED_FACE ( 'NONE', ( #102 ), #273, .T. ) ;
#264 = APPROVAL_PERSON_ORGANIZATION ( #316, #27, #342 ) ;
#265 = ORIENTED_EDGE ( 'NONE', *, *, #191, .T. ) ;
#266 = ORIENTED_EDGE ( 'NONE', *, *, #222, .F. ) ;
#267 = CARTESIAN_POINT ( 'NONE',  ( 0.000000000000000000, 0.000000000000000000, 3.299999999999969624 ) ) ;
#268 = EDGE_LOOP ( 'NONE', ( #76, #301 ) ) ;
#269 = AXIS2_PLACEMENT_3D ( 'NONE', #349, #284, #254 ) ;
#270 = ORIENTED_EDGE ( 'NONE', *, *, #108, .F. ) ;
#271 = EDGE_CURVE ( 'NONE', #148, #182, #216, .T. ) ;
#272 = DIRECTION ( 'NONE',  ( -1.000000000000000000, 0.000000000000000000, 0.000000000000000000 ) ) ;
#273 = CYLINDRICAL_SURFACE ( 'NONE', #194, 5.000000000000000000 ) ;
#274 =( LENGTH_UNIT ( ) NAMED_UNIT ( * ) SI_UNIT ( .MILLI., .METRE. ) );
#275 = EDGE_CURVE ( 'NONE', #353, #6, #74, .T. ) ;
#276 = AXIS2_PLACEMENT_3D ( 'NONE', #312, #42, #51 ) ;
#277 = LOCAL_TIME ( 17, 40, 39.00000000000000000, #85 ) ;
#278 = FACE_OUTER_BOUND ( 'NONE', #364, .T. ) ;
#279 = DIRECTION ( 'NONE',  ( 1.000000000000000000, 0.000000000000000000, 0.000000000000000000 ) ) ;
#280 = CC_DESIGN_DATE_AND_TIME_ASSIGNMENT ( #31, #314, ( #195 ) ) ;
#281 = CARTESIAN_POINT ( 'NONE',  ( 0.000000000000000000, 0.000000000000000000, 0.000000000000000000 ) ) ;
#282 = DATE_AND_TIME ( #24, #248 ) ;
#283 = CARTESIAN_POINT ( 'NONE',  ( 0.000000000000000000, 0.000000000000000000, 0.000000000000000000 ) ) ;
#284 = DIRECTION ( 'NONE',  ( 0.000000000000000000, 0.000000000000000000, 1.000000000000000000 ) ) ;
#285 = CC_DESIGN_PERSON_AND_ORGANIZATION_ASSIGNMENT ( #142, #377, ( #28 ) ) ;
#286 = AXIS2_PLACEMENT_3D ( 'NONE', #49, #186, #272 ) ;
#287 = APPROVAL_DATE_TIME ( #201, #219 ) ;
#288 = CARTESIAN_POINT ( 'NONE',  ( 0.000000000000000000, 0.000000000000000000, 3.000000000000000000 ) ) ;
#289 = ORIENTED_EDGE ( 'NONE', *, *, #165, .F. ) ;
#290 = ADVANCED_FACE ( 'NONE', ( #295, #36 ), #20, .F. ) ;
#291 = CALENDAR_DATE ( 2022, 8, 7 ) ;
#292 = DIRECTION ( 'NONE',  ( -0.000000000000000000, -0.000000000000000000, -1.000000000000000000 ) ) ;
#293 = TOROIDAL_SURFACE ( 'NONE', #276, 2.799999999999999822, 0.2999999999999999889 ) ;
#294 = AXIS2_PLACEMENT_3D ( 'NONE', #84, #202, #57 ) ;
#295 = FACE_BOUND ( 'NONE', #329, .T. ) ;
#296 = ORIENTED_EDGE ( 'NONE', *, *, #105, .F. ) ;
#297 = DIRECTION ( 'NONE',  ( -0.000000000000000000, -0.000000000000000000, -1.000000000000000000 ) ) ;
#298 = ORIENTED_EDGE ( 'NONE', *, *, #227, .F. ) ;
#299 = DIRECTION ( 'NONE',  ( 0.000000000000000000, 0.000000000000000000, 1.000000000000000000 ) ) ;
#300 = EDGE_CURVE ( 'NONE', #55, #94, #223, .T. ) ;
#301 = ORIENTED_EDGE ( 'NONE', *, *, #358, .T. ) ;
#302 = PLANE ( 'NONE',  #140 ) ;
#303 = CIRCLE ( 'NONE', #366, 0.2999999999999999334 ) ;
#304 = ORIENTED_EDGE ( 'NONE', *, *, #108, .T. ) ;
#305 = CARTESIAN_POINT ( 'NONE',  ( 1.600000000000000089, 1.959434878635765230E-16, 553.0000000000000000 ) ) ;
#306 = AXIS2_PLACEMENT_3D ( 'NONE', #320, #374, #197 ) ;
#307 = DIRECTION ( 'NONE',  ( -1.000000000000000000, 0.000000000000000000, 0.000000000000000000 ) ) ;
#308 = FACE_OUTER_BOUND ( 'NONE', #15, .T. ) ;
#309 = DIRECTION ( 'NONE',  ( 0.000000000000000000, 0.000000000000000000, -1.000000000000000000 ) ) ;
#310 = CC_DESIGN_APPROVAL ( #219, ( #317 ) ) ;
#311 = COORDINATED_UNIVERSAL_TIME_OFFSET ( 1, 0, .AHEAD. ) ;
#312 = CARTESIAN_POINT ( 'NONE',  ( 0.000000000000000000, 0.000000000000000000, 3.299999999999969624 ) ) ;
#313 = APPROVAL ( #262, 'NEURÈENÝ' ) ;
#314 = DATE_TIME_ROLE ( 'classification_date' ) ;
#315 = DIRECTION ( 'NONE',  ( -0.000000000000000000, -0.000000000000000000, -1.000000000000000000 ) ) ;
#316 = PERSON_AND_ORGANIZATION ( #117, #166 ) ;
#317 = PRODUCT_DEFINITION_FORMATION_WITH_SPECIFIED_SOURCE ( 'LIBOVOLNÝ', '', #28, .NOT_KNOWN. ) ;
#318 = ORIENTED_EDGE ( 'NONE', *, *, #99, .T. ) ;
#319 = PERSON_AND_ORGANIZATION ( #117, #166 ) ;
#320 = CARTESIAN_POINT ( 'NONE',  ( 0.000000000000000000, 0.000000000000000000, 0.000000000000000000 ) ) ;
#321 = UNCERTAINTY_MEASURE_WITH_UNIT (LENGTH_MEASURE( 1.000000000000000082E-05 ), #274, 'distance_accuracy_value', 'NONE');
#322 = VERTEX_POINT ( 'NONE', #163 ) ;
#323 = ORIENTED_EDGE ( 'NONE', *, *, #198, .T. ) ;
#324 = AXIS2_PLACEMENT_3D ( 'NONE', #159, #243, #171 ) ;
#325 = DIRECTION ( 'NONE',  ( 0.000000000000000000, 0.000000000000000000, -1.000000000000000000 ) ) ;
#326 = ORIENTED_EDGE ( 'NONE', *, *, #271, .T. ) ;
#327 = ADVANCED_FACE ( 'NONE', ( #308 ), #190, .F. ) ;
#328 = DIRECTION ( 'NONE',  ( 1.000000000000000000, 0.000000000000000000, 0.000000000000000000 ) ) ;
#329 = EDGE_LOOP ( 'NONE', ( #246, #270 ) ) ;
#330 = CARTESIAN_POINT ( 'NONE',  ( -2.500000000000000000, 0.000000000000000000, 553.0000000000000000 ) ) ;
#331 = DIRECTION ( 'NONE',  ( 1.000000000000000000, 0.000000000000000000, 0.000000000000000000 ) ) ;
#332 = DIRECTION ( 'NONE',  ( 0.000000000000000000, 0.000000000000000000, 1.000000000000000000 ) ) ;
#333 =( GEOMETRIC_REPRESENTATION_CONTEXT ( 3 ) GLOBAL_UNCERTAINTY_ASSIGNED_CONTEXT ( ( #321 ) ) GLOBAL_UNIT_ASSIGNED_CONTEXT ( ( #274, #250, #252 ) ) REPRESENTATION_CONTEXT ( 'NONE', 'WORKASPACE' ) );
#334 = ORIENTED_EDGE ( 'NONE', *, *, #160, .T. ) ;
#335 = DIRECTION ( 'NONE',  ( 0.000000000000000000, -1.000000000000000000, 0.000000000000000000 ) ) ;
#336 = EDGE_LOOP ( 'NONE', ( #121, #30, #296, #184 ) ) ;
#337 = CARTESIAN_POINT ( 'NONE',  ( 0.000000000000000000, 0.000000000000000000, 3.299999999999969624 ) ) ;
#338 = CARTESIAN_POINT ( 'NONE',  ( 0.000000000000000000, 0.000000000000000000, 0.000000000000000000 ) ) ;
#339 = PRODUCT_RELATED_PRODUCT_CATEGORY ( 'detail', '', ( #28 ) ) ;
#340 = CARTESIAN_POINT ( 'NONE',  ( 0.000000000000000000, 0.000000000000000000, 553.0000000000000000 ) ) ;
#341 = CYLINDRICAL_SURFACE ( 'NONE', #286, 2.500000000000000000 ) ;
#342 = APPROVAL_ROLE ( '' ) ;
#343 = ORIENTED_EDGE ( 'NONE', *, *, #139, .F. ) ;
#344 = EDGE_CURVE ( 'NONE', #353, #3, #370, .T. ) ;
#345 = AXIS2_PLACEMENT_3D ( 'NONE', #338, #75, #134 ) ;
#346 = APPROVAL_ROLE ( '' ) ;
#347 = DIRECTION ( 'NONE',  ( 0.000000000000000000, 0.000000000000000000, 1.000000000000000000 ) ) ;
#348 = DATE_TIME_ROLE ( 'creation_date' ) ;
#349 = CARTESIAN_POINT ( 'NONE',  ( 0.000000000000000000, 0.000000000000000000, 553.0000000000000000 ) ) ;
#350 = ORIENTED_EDGE ( 'NONE', *, *, #275, .T. ) ;
#351 = DATE_AND_TIME ( #26, #54 ) ;
#352 = CIRCLE ( 'NONE', #232, 2.500000000000000000 ) ;
#353 = VERTEX_POINT ( 'NONE', #371 ) ;
#354 = CARTESIAN_POINT ( 'NONE',  ( 1.600000000000000089, 1.959434878635765230E-16, 0.000000000000000000 ) ) ;
#355 = VERTEX_POINT ( 'NONE', #189 ) ;
#356 = CARTESIAN_POINT ( 'NONE',  ( 0.000000000000000000, 0.000000000000000000, 3.000000000000000000 ) ) ;
#357 = ORIENTED_EDGE ( 'NONE', *, *, #59, .F. ) ;
#358 = EDGE_CURVE ( 'NONE', #205, #241, #50, .T. ) ;
#359 = AXIS2_PLACEMENT_3D ( 'NONE', #281, #347, #89 ) ;
#360 = CARTESIAN_POINT ( 'NONE',  ( 0.000000000000000000, 0.000000000000000000, 553.0000000000000000 ) ) ;
#361 = EDGE_LOOP ( 'NONE', ( #150, #357 ) ) ;
#362 = FACE_OUTER_BOUND ( 'NONE', #268, .T. ) ;
#363 = ORIENTED_EDGE ( 'NONE', *, *, #165, .T. ) ;
#364 = EDGE_LOOP ( 'NONE', ( #179, #265 ) ) ;
#365 = CARTESIAN_POINT ( 'NONE',  ( 5.000000000000000000, 6.123233995736766282E-16, 0.000000000000000000 ) ) ;
#366 = AXIS2_PLACEMENT_3D ( 'NONE', #118, #228, #93 ) ;
#367 = AXIS2_PLACEMENT_3D ( 'NONE', #340, #44, #17 ) ;
#368 = DIRECTION ( 'NONE',  ( 0.000000000000000000, 0.000000000000000000, -1.000000000000000000 ) ) ;
#369 = PRODUCT_DEFINITION ( 'NEZNÁMÝ', '', #317, #211 ) ;
#370 = CIRCLE ( 'NONE', #258, 2.500000000000000000 ) ;
#371 = CARTESIAN_POINT ( 'NONE',  ( 2.500000000000000000, 3.061616997868383141E-16, 3.299999999999969624 ) ) ;
#372 = FACE_OUTER_BOUND ( 'NONE', #175, .T. ) ;
#373 = APPLICATION_PROTOCOL_DEFINITION ( 'international standard', 'config_control_design', 1994, #256 ) ;
#374 = DIRECTION ( 'NONE',  ( -0.000000000000000000, -0.000000000000000000, -1.000000000000000000 ) ) ;
#375 = AXIS2_PLACEMENT_3D ( 'NONE', #72, #164, #331 ) ;
#376 = AXIS2_PLACEMENT_3D ( 'NONE', #360, #207, #153 ) ;
#377 = PERSON_AND_ORGANIZATION_ROLE ( 'design_owner' ) ;
#378 = PERSON_AND_ORGANIZATION ( #117, #166 ) ;
#379 = DIRECTION ( 'NONE',  ( 1.000000000000000000, 0.000000000000000000, 0.000000000000000000 ) ) ;
#380 = PERSON_AND_ORGANIZATION ( #117, #166 ) ;
#381 = EDGE_LOOP ( 'NONE', ( #61, #326, #203, #266 ) ) ;
ENDSEC;
END-ISO-10303-21;
