ISO-10303-21;
HEADER;
FILE_DESCRIPTION (( 'STEP AP203' ),
    '1' );
FILE_NAME ('99e9.STEP',
    '2022-07-08T14:21:31',
    ( '' ),
    ( '' ),
    'SwSTEP 2.0',
    'SolidWorks 2019',
    '' );
FILE_SCHEMA (( 'CONFIG_CONTROL_DESIGN' ));
ENDSEC;

DATA;
#1 = DIRECTION ( 'NONE',  ( 0.000000000000000000, 0.000000000000000000, 1.000000000000000000 ) ) ;
#2 = EDGE_CURVE ( 'NONE', #217, #251, #32, .T. ) ;
#3 = DIRECTION ( 'NONE',  ( 0.000000000000000000, 0.000000000000000000, 1.000000000000000000 ) ) ;
#4 = DIRECTION ( 'NONE',  ( -0.000000000000000000, -0.000000000000000000, -1.000000000000000000 ) ) ;
#5 = CIRCLE ( 'NONE', #27, 5.000000000000000000 ) ;
#6 =( NAMED_UNIT ( * ) PLANE_ANGLE_UNIT ( ) SI_UNIT ( $, .RADIAN. ) );
#7 = ORIENTED_EDGE ( 'NONE', *, *, #218, .F. ) ;
#8 = APPLICATION_PROTOCOL_DEFINITION ( 'international standard', 'config_control_design', 1994, #346 ) ;
#9 = DIRECTION ( 'NONE',  ( 0.000000000000000000, 0.000000000000000000, 1.000000000000000000 ) ) ;
#10 = CYLINDRICAL_SURFACE ( 'NONE', #142, 11.00000000000000000 ) ;
#11 = DIRECTION ( 'NONE',  ( -0.000000000000000000, -0.000000000000000000, -1.000000000000000000 ) ) ;
#12 = AXIS2_PLACEMENT_3D ( 'NONE', #66, #152, #19 ) ;
#13 = PERSON_AND_ORGANIZATION ( #104, #129 ) ;
#14 = EDGE_CURVE ( 'NONE', #355, #376, #364, .T. ) ;
#15 = COORDINATED_UNIVERSAL_TIME_OFFSET ( 1, 0, .AHEAD. ) ;
#16 = CIRCLE ( 'NONE', #159, 7.000000000000000888 ) ;
#17 = APPROVAL_DATE_TIME ( #125, #158 ) ;
#18 = CALENDAR_DATE ( 2022, 8, 7 ) ;
#19 = DIRECTION ( 'NONE',  ( -1.000000000000000000, 1.224646799147351975E-16, 0.000000000000000000 ) ) ;
#20 = ORIENTED_EDGE ( 'NONE', *, *, #2, .T. ) ;
#21 = CARTESIAN_POINT ( 'NONE',  ( 7.000000000000000888, 8.572527594031474176E-16, 7.700000000000040146 ) ) ;
#22 = PRODUCT_DEFINITION_FORMATION_WITH_SPECIFIED_SOURCE ( 'LIBOVOLNÝ', '', #93, .NOT_KNOWN. ) ;
#23 = VERTEX_POINT ( 'NONE', #172 ) ;
#24 = CARTESIAN_POINT ( 'NONE',  ( 7.700000000000001066, 0.000000000000000000, 7.700000000000040146 ) ) ;
#25 = EDGE_CURVE ( 'NONE', #251, #217, #210, .T. ) ;
#26 = EDGE_LOOP ( 'NONE', ( #207, #286, #154, #277 ) ) ;
#27 = AXIS2_PLACEMENT_3D ( 'NONE', #308, #200, #83 ) ;
#28 = DIRECTION ( 'NONE',  ( 1.000000000000000000, 0.000000000000000000, 0.000000000000000000 ) ) ;
#29 = FACE_BOUND ( 'NONE', #174, .T. ) ;
#30 = DIRECTION ( 'NONE',  ( 1.000000000000000000, 0.000000000000000000, 0.000000000000000000 ) ) ;
#31 = ORIENTED_EDGE ( 'NONE', *, *, #62, .F. ) ;
#32 = CIRCLE ( 'NONE', #112, 11.00000000000000000 ) ;
#33 = CARTESIAN_POINT ( 'NONE',  ( -7.700000000000001066, 9.429780353434621002E-16, 7.000000000000020428 ) ) ;
#34 = ORIENTED_EDGE ( 'NONE', *, *, #35, .F. ) ;
#35 = EDGE_CURVE ( 'NONE', #340, #368, #80, .T. ) ;
#36 = CARTESIAN_POINT ( 'NONE',  ( -11.00000000000000000, 0.000000000000000000, 0.000000000000000000 ) ) ;
#37 = ORIENTED_EDGE ( 'NONE', *, *, #231, .T. ) ;
#38 = AXIS2_PLACEMENT_3D ( 'NONE', #24, #349, #225 ) ;
#39 = CARTESIAN_POINT ( 'NONE',  ( 5.000000000000000000, 6.123233995736766282E-16, 757.0000000000000000 ) ) ;
#40 = APPROVAL_STATUS ( 'not_yet_approved' ) ;
#41 = APPROVAL_ROLE ( '' ) ;
#42 = AXIS2_PLACEMENT_3D ( 'NONE', #282, #11, #90 ) ;
#43 = ADVANCED_FACE ( 'NONE', ( #29, #91 ), #206, .T. ) ;
#44 = DATE_AND_TIME ( #299, #255 ) ;
#45 = DIRECTION ( 'NONE',  ( 0.000000000000000000, 0.000000000000000000, 1.000000000000000000 ) ) ;
#46 = ORIENTED_EDGE ( 'NONE', *, *, #329, .T. ) ;
#47 = DIRECTION ( 'NONE',  ( 1.000000000000000000, 0.000000000000000000, 0.000000000000000000 ) ) ;
#48 = EDGE_CURVE ( 'NONE', #376, #355, #86, .T. ) ;
#49 = CIRCLE ( 'NONE', #74, 7.700000000000001066 ) ;
#50 = ORIENTED_EDGE ( 'NONE', *, *, #67, .T. ) ;
#51 = DIRECTION ( 'NONE',  ( -0.000000000000000000, -0.000000000000000000, -1.000000000000000000 ) ) ;
#52 = ORIENTED_EDGE ( 'NONE', *, *, #2, .F. ) ;
#53 = DIRECTION ( 'NONE',  ( -0.000000000000000000, -0.000000000000000000, -1.000000000000000000 ) ) ;
#54 = VERTEX_POINT ( 'NONE', #190 ) ;
#55 = ADVANCED_FACE ( 'NONE', ( #211, #245 ), #291, .T. ) ;
#56 = CARTESIAN_POINT ( 'NONE',  ( 0.000000000000000000, 0.000000000000000000, 7.700000000000040146 ) ) ;
#57 = DIRECTION ( 'NONE',  ( 1.000000000000000000, 0.000000000000000000, 0.000000000000000000 ) ) ;
#58 = VECTOR ( 'NONE', #260, 1000.000000000000000 ) ;
#59 = DIRECTION ( 'NONE',  ( 1.000000000000000000, 0.000000000000000000, 0.000000000000000000 ) ) ;
#60 = ORIENTED_EDGE ( 'NONE', *, *, #77, .T. ) ;
#61 = DIRECTION ( 'NONE',  ( 0.000000000000000000, 0.000000000000000000, 1.000000000000000000 ) ) ;
#62 = EDGE_CURVE ( 'NONE', #313, #198, #16, .T. ) ;
#63 = CC_DESIGN_SECURITY_CLASSIFICATION ( #189, ( #22 ) ) ;
#64 = CARTESIAN_POINT ( 'NONE',  ( 0.000000000000000000, 0.000000000000000000, 7.700000000000040146 ) ) ;
#65 = DIRECTION ( 'NONE',  ( 0.000000000000000000, 0.000000000000000000, -1.000000000000000000 ) ) ;
#66 = CARTESIAN_POINT ( 'NONE',  ( -7.700000000000001066, 9.429780353434621002E-16, 7.700000000000040146 ) ) ;
#67 = EDGE_CURVE ( 'NONE', #23, #198, #303, .T. ) ;
#68 = DATE_AND_TIME ( #188, #229 ) ;
#69 = DIRECTION ( 'NONE',  ( -1.000000000000000000, 0.000000000000000000, 0.000000000000000000 ) ) ;
#70 = LOCAL_TIME ( 16, 21, 31.00000000000000000, #163 ) ;
#71 = COORDINATED_UNIVERSAL_TIME_OFFSET ( 1, 0, .AHEAD. ) ;
#72 = EDGE_LOOP ( 'NONE', ( #275, #60, #131, #107 ) ) ;
#73 = PERSON_AND_ORGANIZATION ( #104, #129 ) ;
#74 = AXIS2_PLACEMENT_3D ( 'NONE', #249, #165, #28 ) ;
#75 = ORIENTED_EDGE ( 'NONE', *, *, #14, .T. ) ;
#76 = CYLINDRICAL_SURFACE ( 'NONE', #325, 5.000000000000000000 ) ;
#77 = EDGE_CURVE ( 'NONE', #54, #368, #179, .T. ) ;
#78 = LINE ( 'NONE', #79, #297 ) ;
#79 = CARTESIAN_POINT ( 'NONE',  ( 7.000000000000000888, 8.572527594031474176E-16, 757.0000000000000000 ) ) ;
#80 = CIRCLE ( 'NONE', #288, 5.000000000000000000 ) ;
#81 = AXIS2_PLACEMENT_3D ( 'NONE', #56, #141, #47 ) ;
#82 = ORIENTED_EDGE ( 'NONE', *, *, #102, .F. ) ;
#83 = DIRECTION ( 'NONE',  ( 1.000000000000000000, 0.000000000000000000, 0.000000000000000000 ) ) ;
#84 = CARTESIAN_POINT ( 'NONE',  ( 0.000000000000000000, 0.000000000000000000, 7.000000000000000000 ) ) ;
#85 = ORIENTED_EDGE ( 'NONE', *, *, #48, .T. ) ;
#86 = CIRCLE ( 'NONE', #127, 11.00000000000000000 ) ;
#87 = DIRECTION ( 'NONE',  ( 1.000000000000000000, 0.000000000000000000, 0.000000000000000000 ) ) ;
#88 = AXIS2_PLACEMENT_3D ( 'NONE', #348, #315, #57 ) ;
#89 = CIRCLE ( 'NONE', #266, 7.700000000000001066 ) ;
#90 = DIRECTION ( 'NONE',  ( -1.000000000000000000, 0.000000000000000000, 0.000000000000000000 ) ) ;
#91 = FACE_OUTER_BOUND ( 'NONE', #176, .T. ) ;
#92 = CC_DESIGN_DATE_AND_TIME_ASSIGNMENT ( #100, #215, ( #189 ) ) ;
#93 = PRODUCT ( '99e9', '99e9', '', ( #96 ) ) ;
#94 = ORIENTED_EDGE ( 'NONE', *, *, #35, .T. ) ;
#95 = LOCAL_TIME ( 16, 21, 31.00000000000000000, #15 ) ;
#96 = MECHANICAL_CONTEXT ( 'NONE', #346, 'mechanical' ) ;
#97 = EDGE_CURVE ( 'NONE', #307, #340, #306, .T. ) ;
#98 = CARTESIAN_POINT ( 'NONE',  ( 0.000000000000000000, 0.000000000000000000, 7.000000000000000000 ) ) ;
#99 = DESIGN_CONTEXT ( 'detailed design', #367, 'design' ) ;
#100 = DATE_AND_TIME ( #333, #70 ) ;
#101 = CC_DESIGN_APPROVAL ( #239, ( #189 ) ) ;
#102 = EDGE_CURVE ( 'NONE', #198, #321, #317, .T. ) ;
#103 = DIRECTION ( 'NONE',  ( 1.000000000000000000, 0.000000000000000000, 0.000000000000000000 ) ) ;
#104 = PERSON ( 'NEURÈENÝ', 'NEURÈENÝ', 'NEURÈENÝ', ('NEURÈENÝ'), ('NEURÈENÝ'), ('NEURÈENÝ') ) ;
#105 = DIRECTION ( 'NONE',  ( -1.000000000000000000, 0.000000000000000000, 0.000000000000000000 ) ) ;
#106 = AXIS2_PLACEMENT_3D ( 'NONE', #167, #136, #59 ) ;
#107 = ORIENTED_EDGE ( 'NONE', *, *, #97, .F. ) ;
#108 = EDGE_LOOP ( 'NONE', ( #304, #246 ) ) ;
#109 = FACE_BOUND ( 'NONE', #256, .T. ) ;
#110 = ORIENTED_EDGE ( 'NONE', *, *, #77, .F. ) ;
#111 = DIRECTION ( 'NONE',  ( 1.000000000000000000, 0.000000000000000000, 0.000000000000000000 ) ) ;
#112 = AXIS2_PLACEMENT_3D ( 'NONE', #208, #3, #323 ) ;
#113 = AXIS2_PLACEMENT_3D ( 'NONE', #115, #51, #380 ) ;
#114 = CARTESIAN_POINT ( 'NONE',  ( 0.000000000000000000, 0.000000000000000000, 0.000000000000000000 ) ) ;
#115 = CARTESIAN_POINT ( 'NONE',  ( 0.000000000000000000, 0.000000000000000000, 0.000000000000000000 ) ) ;
#116 = ADVANCED_FACE ( 'NONE', ( #244 ), #261, .F. ) ;
#117 = DIRECTION ( 'NONE',  ( -0.000000000000000000, -0.000000000000000000, -1.000000000000000000 ) ) ;
#118 = LINE ( 'NONE', #316, #58 ) ;
#119 = CARTESIAN_POINT ( 'NONE',  ( 0.000000000000000000, 0.000000000000000000, 0.000000000000000000 ) ) ;
#120 = CIRCLE ( 'NONE', #106, 5.000000000000000000 ) ;
#121 = CC_DESIGN_PERSON_AND_ORGANIZATION_ASSIGNMENT ( #267, #363, ( #22 ) ) ;
#122 = VERTEX_POINT ( 'NONE', #223 ) ;
#123 = VECTOR ( 'NONE', #117, 1000.000000000000000 ) ;
#124 = CALENDAR_DATE ( 2022, 8, 7 ) ;
#125 = DATE_AND_TIME ( #124, #196 ) ;
#126 = EDGE_CURVE ( 'NONE', #321, #122, #89, .T. ) ;
#127 = AXIS2_PLACEMENT_3D ( 'NONE', #119, #335, #103 ) ;
#128 = APPROVAL_DATE_TIME ( #68, #239 ) ;
#129 = ORGANIZATION ( 'NEURÈENÝ', 'NEURÈENÝ', '' ) ;
#130 = APPLICATION_PROTOCOL_DEFINITION ( 'international standard', 'config_control_design', 1994, #367 ) ;
#131 = ORIENTED_EDGE ( 'NONE', *, *, #184, .T. ) ;
#132 = APPROVAL_STATUS ( 'not_yet_approved' ) ;
#133 = DIRECTION ( 'NONE',  ( 0.000000000000000000, 0.000000000000000000, -1.000000000000000000 ) ) ;
#134 = ADVANCED_FACE ( 'NONE', ( #359 ), #76, .F. ) ;
#135 = ORIENTED_EDGE ( 'NONE', *, *, #250, .F. ) ;
#136 = DIRECTION ( 'NONE',  ( 0.000000000000000000, 0.000000000000000000, 1.000000000000000000 ) ) ;
#137 = VECTOR ( 'NONE', #372, 1000.000000000000000 ) ;
#138 = CARTESIAN_POINT ( 'NONE',  ( 0.000000000000000000, 0.000000000000000000, 757.0000000000000000 ) ) ;
#139 = FACE_OUTER_BOUND ( 'NONE', #108, .T. ) ;
#140 = ORIENTED_EDGE ( 'NONE', *, *, #126, .T. ) ;
#141 = DIRECTION ( 'NONE',  ( 0.000000000000000000, 0.000000000000000000, 1.000000000000000000 ) ) ;
#142 = AXIS2_PLACEMENT_3D ( 'NONE', #293, #263, #69 ) ;
#143 = EDGE_LOOP ( 'NONE', ( #7, #342, #147, #192 ) ) ;
#144 = CARTESIAN_POINT ( 'NONE',  ( 11.00000000000000000, 1.347111479062088405E-15, 7.000000000000000000 ) ) ;
#145 = DIRECTION ( 'NONE',  ( 0.000000000000000000, 0.000000000000000000, 1.000000000000000000 ) ) ;
#146 = ADVANCED_FACE ( 'NONE', ( #151 ), #10, .T. ) ;
#147 = ORIENTED_EDGE ( 'NONE', *, *, #262, .F. ) ;
#148 = VERTEX_POINT ( 'NONE', #264 ) ;
#149 = AXIS2_PLACEMENT_3D ( 'NONE', #195, #53, #171 ) ;
#150 = FACE_OUTER_BOUND ( 'NONE', #143, .T. ) ;
#151 = FACE_OUTER_BOUND ( 'NONE', #253, .T. ) ;
#152 = DIRECTION ( 'NONE',  ( 1.224646799147353207E-16, 1.000000000000000000, -0.000000000000000000 ) ) ;
#153 = ADVANCED_FACE ( 'NONE', ( #109, #139 ), #230, .F. ) ;
#154 = ORIENTED_EDGE ( 'NONE', *, *, #62, .T. ) ;
#155 = TOROIDAL_SURFACE ( 'NONE', #212, 7.700000000000001066, 0.6999999999999999556 ) ;
#156 = SECURITY_CLASSIFICATION_LEVEL ( 'unclassified' ) ;
#157 = CARTESIAN_POINT ( 'NONE',  ( 0.000000000000000000, 0.000000000000000000, 757.0000000000000000 ) ) ;
#158 = APPROVAL ( #242, 'NEURÈENÝ' ) ;
#159 = AXIS2_PLACEMENT_3D ( 'NONE', #270, #9, #178 ) ;
#160 = COORDINATED_UNIVERSAL_TIME_OFFSET ( 1, 0, .AHEAD. ) ;
#161 = AXIS2_PLACEMENT_3D ( 'NONE', #84, #311, #228 ) ;
#162 = ORIENTED_EDGE ( 'NONE', *, *, #292, .F. ) ;
#163 = COORDINATED_UNIVERSAL_TIME_OFFSET ( 1, 0, .AHEAD. ) ;
#164 = UNCERTAINTY_MEASURE_WITH_UNIT (LENGTH_MEASURE( 1.000000000000000082E-05 ), #327, 'distance_accuracy_value', 'NONE');
#165 = DIRECTION ( 'NONE',  ( -0.000000000000000000, -0.000000000000000000, -1.000000000000000000 ) ) ;
#166 = EDGE_LOOP ( 'NONE', ( #110, #170, #309, #94 ) ) ;
#167 = CARTESIAN_POINT ( 'NONE',  ( 0.000000000000000000, 0.000000000000000000, 757.0000000000000000 ) ) ;
#168 = AXIS2_PLACEMENT_3D ( 'NONE', #138, #350, #341 ) ;
#169 = EDGE_LOOP ( 'NONE', ( #82, #31, #232, #227 ) ) ;
#170 = ORIENTED_EDGE ( 'NONE', *, *, #292, .T. ) ;
#171 = DIRECTION ( 'NONE',  ( -1.000000000000000000, 0.000000000000000000, 0.000000000000000000 ) ) ;
#172 = CARTESIAN_POINT ( 'NONE',  ( -7.000000000000000888, 0.000000000000000000, 757.0000000000000000 ) ) ;
#173 = CARTESIAN_POINT ( 'NONE',  ( -5.000000000000000000, 0.000000000000000000, 0.000000000000000000 ) ) ;
#174 = EDGE_LOOP ( 'NONE', ( #294, #140 ) ) ;
#175 = PERSON_AND_ORGANIZATION_ROLE ( 'design_owner' ) ;
#176 = EDGE_LOOP ( 'NONE', ( #241, #20 ) ) ;
#177 = VECTOR ( 'NONE', #65, 1000.000000000000000 ) ;
#178 = DIRECTION ( 'NONE',  ( 1.000000000000000000, 0.000000000000000000, 0.000000000000000000 ) ) ;
#179 = LINE ( 'NONE', #39, #177 ) ;
#180 = PERSON_AND_ORGANIZATION ( #104, #129 ) ;
#181 = CARTESIAN_POINT ( 'NONE',  ( 0.000000000000000000, 0.000000000000000000, 757.0000000000000000 ) ) ;
#182 =( GEOMETRIC_REPRESENTATION_CONTEXT ( 3 ) GLOBAL_UNCERTAINTY_ASSIGNED_CONTEXT ( ( #164 ) ) GLOBAL_UNIT_ASSIGNED_CONTEXT ( ( #327, #6, #354 ) ) REPRESENTATION_CONTEXT ( 'NONE', 'WORKASPACE' ) );
#183 = APPROVAL_DATE_TIME ( #44, #285 ) ;
#184 = EDGE_CURVE ( 'NONE', #368, #340, #240, .T. ) ;
#185 = PERSON_AND_ORGANIZATION_ROLE ( 'creator' ) ;
#186 = PERSON_AND_ORGANIZATION ( #104, #129 ) ;
#187 = ORIENTED_EDGE ( 'NONE', *, *, #336, .F. ) ;
#188 = CALENDAR_DATE ( 2022, 8, 7 ) ;
#189 = SECURITY_CLASSIFICATION ( '', '', #156 ) ;
#190 = CARTESIAN_POINT ( 'NONE',  ( 5.000000000000000000, 6.123233995736766282E-16, 757.0000000000000000 ) ) ;
#191 = DIRECTION ( 'NONE',  ( -1.000000000000000000, 0.000000000000000000, 0.000000000000000000 ) ) ;
#192 = ORIENTED_EDGE ( 'NONE', *, *, #197, .F. ) ;
#193 = CYLINDRICAL_SURFACE ( 'NONE', #149, 7.000000000000000888 ) ;
#194 = EDGE_LOOP ( 'NONE', ( #52, #373, #75, #187 ) ) ;
#195 = CARTESIAN_POINT ( 'NONE',  ( 0.000000000000000000, 0.000000000000000000, 757.0000000000000000 ) ) ;
#196 = LOCAL_TIME ( 16, 21, 31.00000000000000000, #71 ) ;
#197 = EDGE_CURVE ( 'NONE', #313, #122, #237, .T. ) ;
#198 = VERTEX_POINT ( 'NONE', #252 ) ;
#199 = DIRECTION ( 'NONE',  ( 0.000000000000000000, 0.000000000000000000, 1.000000000000000000 ) ) ;
#200 = DIRECTION ( 'NONE',  ( 0.000000000000000000, 0.000000000000000000, 1.000000000000000000 ) ) ;
#201 = ORIENTED_EDGE ( 'NONE', *, *, #184, .F. ) ;
#202 = CC_DESIGN_PERSON_AND_ORGANIZATION_ASSIGNMENT ( #290, #175, ( #93 ) ) ;
#203 = CYLINDRICAL_SURFACE ( 'NONE', #161, 11.00000000000000000 ) ;
#204 = CLOSED_SHELL ( 'NONE', ( #134, #377, #362, #243, #146, #43, #153, #259, #55, #298, #116 ) ) ;
#205 = AXIS2_PLACEMENT_3D ( 'NONE', #279, #276, #378 ) ;
#206 = PLANE ( 'NONE',  #296 ) ;
#207 = ORIENTED_EDGE ( 'NONE', *, *, #231, .F. ) ;
#208 = CARTESIAN_POINT ( 'NONE',  ( 0.000000000000000000, 0.000000000000000000, 7.000000000000000000 ) ) ;
#209 = CC_DESIGN_PERSON_AND_ORGANIZATION_ASSIGNMENT ( #219, #185, ( #370 ) ) ;
#210 = CIRCLE ( 'NONE', #88, 11.00000000000000000 ) ;
#211 = FACE_BOUND ( 'NONE', #268, .T. ) ;
#212 = AXIS2_PLACEMENT_3D ( 'NONE', #64, #352, #233 ) ;
#213 = CYLINDRICAL_SURFACE ( 'NONE', #42, 7.000000000000000888 ) ;
#214 = DIRECTION ( 'NONE',  ( -0.000000000000000000, -0.000000000000000000, -1.000000000000000000 ) ) ;
#215 = DATE_TIME_ROLE ( 'classification_date' ) ;
#216 = DIRECTION ( 'NONE',  ( -0.000000000000000000, -0.000000000000000000, -1.000000000000000000 ) ) ;
#217 = VERTEX_POINT ( 'NONE', #312 ) ;
#218 = EDGE_CURVE ( 'NONE', #198, #313, #357, .T. ) ;
#219 = PERSON_AND_ORGANIZATION ( #104, #129 ) ;
#220 = COORDINATED_UNIVERSAL_TIME_OFFSET ( 1, 0, .AHEAD. ) ;
#221 = DIRECTION ( 'NONE',  ( 1.000000000000000000, 0.000000000000000000, -0.000000000000000000 ) ) ;
#222 = AXIS2_PLACEMENT_3D ( 'NONE', #287, #324, #258 ) ;
#223 = CARTESIAN_POINT ( 'NONE',  ( 7.700000000000001066, 0.000000000000000000, 7.000000000000020428 ) ) ;
#224 = EDGE_LOOP ( 'NONE', ( #135, #272, #50, #337 ) ) ;
#225 = DIRECTION ( 'NONE',  ( 0.000000000000000000, 0.000000000000000000, -1.000000000000000000 ) ) ;
#226 = CC_DESIGN_DATE_AND_TIME_ASSIGNMENT ( #369, #331, ( #370 ) ) ;
#227 = ORIENTED_EDGE ( 'NONE', *, *, #126, .F. ) ;
#228 = DIRECTION ( 'NONE',  ( -1.000000000000000000, 0.000000000000000000, 0.000000000000000000 ) ) ;
#229 = LOCAL_TIME ( 16, 21, 31.00000000000000000, #220 ) ;
#230 = PLANE ( 'NONE',  #205 ) ;
#231 = EDGE_CURVE ( 'NONE', #148, #23, #379, .T. ) ;
#232 = ORIENTED_EDGE ( 'NONE', *, *, #197, .T. ) ;
#233 = DIRECTION ( 'NONE',  ( 1.000000000000000000, 0.000000000000000000, 0.000000000000000000 ) ) ;
#234 = AXIS2_PLACEMENT_3D ( 'NONE', #236, #61, #356 ) ;
#235 = CC_DESIGN_PERSON_AND_ORGANIZATION_ASSIGNMENT ( #302, #371, ( #189 ) ) ;
#236 = CARTESIAN_POINT ( 'NONE',  ( 0.000000000000000000, 0.000000000000000000, 0.000000000000000000 ) ) ;
#237 = CIRCLE ( 'NONE', #38, 0.7000000000000000666 ) ;
#238 = FACE_OUTER_BOUND ( 'NONE', #26, .T. ) ;
#239 = APPROVAL ( #132, 'NEURÈENÝ' ) ;
#240 = CIRCLE ( 'NONE', #113, 5.000000000000000000 ) ;
#241 = ORIENTED_EDGE ( 'NONE', *, *, #25, .T. ) ;
#242 = APPROVAL_STATUS ( 'not_yet_approved' ) ;
#243 = ADVANCED_FACE ( 'NONE', ( #254 ), #203, .T. ) ;
#244 = FACE_OUTER_BOUND ( 'NONE', #166, .T. ) ;
#245 = FACE_OUTER_BOUND ( 'NONE', #257, .T. ) ;
#246 = ORIENTED_EDGE ( 'NONE', *, *, #14, .F. ) ;
#247 = AXIS2_PLACEMENT_3D ( 'NONE', #114, #199, #87 ) ;
#248 = AXIS2_PLACEMENT_3D ( 'NONE', #274, #1, #111 ) ;
#249 = CARTESIAN_POINT ( 'NONE',  ( 0.000000000000000000, 0.000000000000000000, 7.000000000000000000 ) ) ;
#250 = EDGE_CURVE ( 'NONE', #148, #313, #78, .T. ) ;
#251 = VERTEX_POINT ( 'NONE', #375 ) ;
#252 = CARTESIAN_POINT ( 'NONE',  ( -7.000000000000000888, 0.000000000000000000, 7.700000000000040146 ) ) ;
#253 = EDGE_LOOP ( 'NONE', ( #300, #289, #381, #85 ) ) ;
#254 = FACE_OUTER_BOUND ( 'NONE', #194, .T. ) ;
#255 = LOCAL_TIME ( 16, 21, 31.00000000000000000, #160 ) ;
#256 = EDGE_LOOP ( 'NONE', ( #34, #201 ) ) ;
#257 = EDGE_LOOP ( 'NONE', ( #46, #37 ) ) ;
#258 = DIRECTION ( 'NONE',  ( 1.000000000000000000, 0.000000000000000000, 0.000000000000000000 ) ) ;
#259 = ADVANCED_FACE ( 'NONE', ( #343 ), #193, .T. ) ;
#260 = DIRECTION ( 'NONE',  ( -0.000000000000000000, -0.000000000000000000, -1.000000000000000000 ) ) ;
#261 = CYLINDRICAL_SURFACE ( 'NONE', #374, 5.000000000000000000 ) ;
#262 = EDGE_CURVE ( 'NONE', #122, #321, #49, .T. ) ;
#263 = DIRECTION ( 'NONE',  ( -0.000000000000000000, -0.000000000000000000, -1.000000000000000000 ) ) ;
#264 = CARTESIAN_POINT ( 'NONE',  ( 7.000000000000000888, 8.572527594031474176E-16, 757.0000000000000000 ) ) ;
#265 = APPROVAL_ROLE ( '' ) ;
#266 = AXIS2_PLACEMENT_3D ( 'NONE', #98, #214, #339 ) ;
#267 = PERSON_AND_ORGANIZATION ( #104, #129 ) ;
#268 = EDGE_LOOP ( 'NONE', ( #351, #162 ) ) ;
#269 = SHAPE_DEFINITION_REPRESENTATION ( #322, #353 ) ;
#270 = CARTESIAN_POINT ( 'NONE',  ( 0.000000000000000000, 0.000000000000000000, 7.700000000000040146 ) ) ;
#271 = CARTESIAN_POINT ( 'NONE',  ( -5.000000000000000000, 0.000000000000000000, 757.0000000000000000 ) ) ;
#272 = ORIENTED_EDGE ( 'NONE', *, *, #329, .F. ) ;
#273 = TOROIDAL_SURFACE ( 'NONE', #81, 7.700000000000001066, 0.6999999999999999556 ) ;
#274 = CARTESIAN_POINT ( 'NONE',  ( 0.000000000000000000, 0.000000000000000000, 7.700000000000040146 ) ) ;
#275 = ORIENTED_EDGE ( 'NONE', *, *, #319, .T. ) ;
#276 = DIRECTION ( 'NONE',  ( 0.000000000000000000, 0.000000000000000000, 1.000000000000000000 ) ) ;
#277 = ORIENTED_EDGE ( 'NONE', *, *, #67, .F. ) ;
#278 = FACE_OUTER_BOUND ( 'NONE', #169, .T. ) ;
#279 = CARTESIAN_POINT ( 'NONE',  ( 0.000000000000000000, 0.000000000000000000, 0.000000000000000000 ) ) ;
#280 = VECTOR ( 'NONE', #216, 1000.000000000000000 ) ;
#281 = CARTESIAN_POINT ( 'NONE',  ( 0.000000000000000000, 0.000000000000000000, 0.000000000000000000 ) ) ;
#282 = CARTESIAN_POINT ( 'NONE',  ( 0.000000000000000000, 0.000000000000000000, 757.0000000000000000 ) ) ;
#283 = DIRECTION ( 'NONE',  ( 1.000000000000000000, 0.000000000000000000, -0.000000000000000000 ) ) ;
#284 = CARTESIAN_POINT ( 'NONE',  ( 11.00000000000000000, 1.347111479062088405E-15, 0.000000000000000000 ) ) ;
#285 = APPROVAL ( #40, 'NEURÈENÝ' ) ;
#286 = ORIENTED_EDGE ( 'NONE', *, *, #250, .T. ) ;
#287 = CARTESIAN_POINT ( 'NONE',  ( 0.000000000000000000, 0.000000000000000000, 757.0000000000000000 ) ) ;
#288 = AXIS2_PLACEMENT_3D ( 'NONE', #281, #4, #30 ) ;
#289 = ORIENTED_EDGE ( 'NONE', *, *, #25, .F. ) ;
#290 = PERSON_AND_ORGANIZATION ( #104, #129 ) ;
#291 = PLANE ( 'NONE',  #344 ) ;
#292 = EDGE_CURVE ( 'NONE', #54, #307, #5, .T. ) ;
#293 = CARTESIAN_POINT ( 'NONE',  ( 0.000000000000000000, 0.000000000000000000, 7.000000000000000000 ) ) ;
#294 = ORIENTED_EDGE ( 'NONE', *, *, #262, .T. ) ;
#295 = APPROVAL_ROLE ( '' ) ;
#296 = AXIS2_PLACEMENT_3D ( 'NONE', #318, #145, #283 ) ;
#297 = VECTOR ( 'NONE', #347, 1000.000000000000000 ) ;
#298 = ADVANCED_FACE ( 'NONE', ( #278 ), #273, .F. ) ;
#299 = CALENDAR_DATE ( 2022, 8, 7 ) ;
#300 = ORIENTED_EDGE ( 'NONE', *, *, #305, .F. ) ;
#301 = APPROVAL_PERSON_ORGANIZATION ( #13, #158, #265 ) ;
#302 = PERSON_AND_ORGANIZATION ( #104, #129 ) ;
#303 = LINE ( 'NONE', #361, #280 ) ;
#304 = ORIENTED_EDGE ( 'NONE', *, *, #48, .F. ) ;
#305 = EDGE_CURVE ( 'NONE', #217, #355, #314, .T. ) ;
#306 = LINE ( 'NONE', #328, #137 ) ;
#307 = VERTEX_POINT ( 'NONE', #271 ) ;
#308 = CARTESIAN_POINT ( 'NONE',  ( 0.000000000000000000, 0.000000000000000000, 757.0000000000000000 ) ) ;
#309 = ORIENTED_EDGE ( 'NONE', *, *, #97, .T. ) ;
#310 = APPROVAL_PERSON_ORGANIZATION ( #180, #239, #41 ) ;
#311 = DIRECTION ( 'NONE',  ( -0.000000000000000000, -0.000000000000000000, -1.000000000000000000 ) ) ;
#312 = CARTESIAN_POINT ( 'NONE',  ( 11.00000000000000000, 1.347111479062088405E-15, 7.000000000000000000 ) ) ;
#313 = VERTEX_POINT ( 'NONE', #21 ) ;
#314 = LINE ( 'NONE', #144, #123 ) ;
#315 = DIRECTION ( 'NONE',  ( 0.000000000000000000, 0.000000000000000000, 1.000000000000000000 ) ) ;
#316 = CARTESIAN_POINT ( 'NONE',  ( -11.00000000000000000, 0.000000000000000000, 7.000000000000000000 ) ) ;
#317 = CIRCLE ( 'NONE', #12, 0.7000000000000000666 ) ;
#318 = CARTESIAN_POINT ( 'NONE',  ( 0.000000000000000000, 0.000000000000000000, 7.000000000000000000 ) ) ;
#319 = EDGE_CURVE ( 'NONE', #307, #54, #120, .T. ) ;
#320 = MANIFOLD_SOLID_BREP ( 'Odebrat vysunutím3', #204 ) ;
#321 = VERTEX_POINT ( 'NONE', #33 ) ;
#322 = PRODUCT_DEFINITION_SHAPE ( 'NONE', 'NONE',  #370 ) ;
#323 = DIRECTION ( 'NONE',  ( 1.000000000000000000, 0.000000000000000000, 0.000000000000000000 ) ) ;
#324 = DIRECTION ( 'NONE',  ( 0.000000000000000000, 0.000000000000000000, 1.000000000000000000 ) ) ;
#325 = AXIS2_PLACEMENT_3D ( 'NONE', #157, #330, #191 ) ;
#326 = CARTESIAN_POINT ( 'NONE',  ( 0.000000000000000000, 0.000000000000000000, 757.0000000000000000 ) ) ;
#327 =( LENGTH_UNIT ( ) NAMED_UNIT ( * ) SI_UNIT ( .MILLI., .METRE. ) );
#328 = CARTESIAN_POINT ( 'NONE',  ( -5.000000000000000000, 0.000000000000000000, 757.0000000000000000 ) ) ;
#329 = EDGE_CURVE ( 'NONE', #23, #148, #332, .T. ) ;
#330 = DIRECTION ( 'NONE',  ( 0.000000000000000000, 0.000000000000000000, -1.000000000000000000 ) ) ;
#331 = DATE_TIME_ROLE ( 'creation_date' ) ;
#332 = CIRCLE ( 'NONE', #222, 7.000000000000000888 ) ;
#333 = CALENDAR_DATE ( 2022, 8, 7 ) ;
#334 = PRODUCT_RELATED_PRODUCT_CATEGORY ( 'detail', '', ( #93 ) ) ;
#335 = DIRECTION ( 'NONE',  ( 0.000000000000000000, 0.000000000000000000, 1.000000000000000000 ) ) ;
#336 = EDGE_CURVE ( 'NONE', #251, #376, #118, .T. ) ;
#337 = ORIENTED_EDGE ( 'NONE', *, *, #218, .T. ) ;
#338 = CC_DESIGN_APPROVAL ( #285, ( #370 ) ) ;
#339 = DIRECTION ( 'NONE',  ( 1.000000000000000000, 0.000000000000000000, 0.000000000000000000 ) ) ;
#340 = VERTEX_POINT ( 'NONE', #173 ) ;
#341 = DIRECTION ( 'NONE',  ( 1.000000000000000000, 0.000000000000000000, 0.000000000000000000 ) ) ;
#342 = ORIENTED_EDGE ( 'NONE', *, *, #102, .T. ) ;
#343 = FACE_OUTER_BOUND ( 'NONE', #224, .T. ) ;
#344 = AXIS2_PLACEMENT_3D ( 'NONE', #326, #45, #221 ) ;
#345 = CC_DESIGN_APPROVAL ( #158, ( #22 ) ) ;
#346 = APPLICATION_CONTEXT ( 'configuration controlled 3d designs of mechanical parts and assemblies' ) ;
#347 = DIRECTION ( 'NONE',  ( -0.000000000000000000, -0.000000000000000000, -1.000000000000000000 ) ) ;
#348 = CARTESIAN_POINT ( 'NONE',  ( 0.000000000000000000, 0.000000000000000000, 7.000000000000000000 ) ) ;
#349 = DIRECTION ( 'NONE',  ( 0.000000000000000000, -1.000000000000000000, 0.000000000000000000 ) ) ;
#350 = DIRECTION ( 'NONE',  ( 0.000000000000000000, 0.000000000000000000, 1.000000000000000000 ) ) ;
#351 = ORIENTED_EDGE ( 'NONE', *, *, #319, .F. ) ;
#352 = DIRECTION ( 'NONE',  ( 0.000000000000000000, 0.000000000000000000, 1.000000000000000000 ) ) ;
#353 = ADVANCED_BREP_SHAPE_REPRESENTATION ( '99e9', ( #320, #234 ), #182 ) ;
#354 =( NAMED_UNIT ( * ) SI_UNIT ( $, .STERADIAN. ) SOLID_ANGLE_UNIT ( ) );
#355 = VERTEX_POINT ( 'NONE', #284 ) ;
#356 = DIRECTION ( 'NONE',  ( 1.000000000000000000, 0.000000000000000000, 0.000000000000000000 ) ) ;
#357 = CIRCLE ( 'NONE', #248, 7.000000000000000888 ) ;
#358 = CC_DESIGN_PERSON_AND_ORGANIZATION_ASSIGNMENT ( #186, #366, ( #22 ) ) ;
#359 = FACE_OUTER_BOUND ( 'NONE', #72, .T. ) ;
#360 = CARTESIAN_POINT ( 'NONE',  ( 5.000000000000000000, 6.123233995736766282E-16, 0.000000000000000000 ) ) ;
#361 = CARTESIAN_POINT ( 'NONE',  ( -7.000000000000000888, 0.000000000000000000, 757.0000000000000000 ) ) ;
#362 = ADVANCED_FACE ( 'NONE', ( #238 ), #213, .T. ) ;
#363 = PERSON_AND_ORGANIZATION_ROLE ( 'design_supplier' ) ;
#364 = CIRCLE ( 'NONE', #247, 11.00000000000000000 ) ;
#365 = APPROVAL_PERSON_ORGANIZATION ( #73, #285, #295 ) ;
#366 = PERSON_AND_ORGANIZATION_ROLE ( 'creator' ) ;
#367 = APPLICATION_CONTEXT ( 'configuration controlled 3d designs of mechanical parts and assemblies' ) ;
#368 = VERTEX_POINT ( 'NONE', #360 ) ;
#369 = DATE_AND_TIME ( #18, #95 ) ;
#370 = PRODUCT_DEFINITION ( 'NEZNÁMÝ', '', #22, #99 ) ;
#371 = PERSON_AND_ORGANIZATION_ROLE ( 'classification_officer' ) ;
#372 = DIRECTION ( 'NONE',  ( 0.000000000000000000, 0.000000000000000000, -1.000000000000000000 ) ) ;
#373 = ORIENTED_EDGE ( 'NONE', *, *, #305, .T. ) ;
#374 = AXIS2_PLACEMENT_3D ( 'NONE', #181, #133, #105 ) ;
#375 = CARTESIAN_POINT ( 'NONE',  ( -11.00000000000000000, 0.000000000000000000, 7.000000000000000000 ) ) ;
#376 = VERTEX_POINT ( 'NONE', #36 ) ;
#377 = ADVANCED_FACE ( 'NONE', ( #150 ), #155, .F. ) ;
#378 = DIRECTION ( 'NONE',  ( 1.000000000000000000, 0.000000000000000000, -0.000000000000000000 ) ) ;
#379 = CIRCLE ( 'NONE', #168, 7.000000000000000888 ) ;
#380 = DIRECTION ( 'NONE',  ( 1.000000000000000000, 0.000000000000000000, 0.000000000000000000 ) ) ;
#381 = ORIENTED_EDGE ( 'NONE', *, *, #336, .T. ) ;
ENDSEC;
END-ISO-10303-21;
