ISO-10303-21;
HEADER;
FILE_DESCRIPTION (( 'STEP AP203' ),
    '1' );
FILE_NAME ('4839.STEP',
    '2022-07-08T15:23:16',
    ( '' ),
    ( '' ),
    'SwSTEP 2.0',
    'SolidWorks 2019',
    '' );
FILE_SCHEMA (( 'CONFIG_CONTROL_DESIGN' ));
ENDSEC;

DATA;
#1 = FACE_OUTER_BOUND ( 'NONE', #197, .T. ) ;
#2 = SHAPE_DEFINITION_REPRESENTATION ( #23, #14 ) ;
#3 = APPROVAL ( #236, 'NEURÈENÝ' ) ;
#4 = PLANE ( 'NONE',  #356 ) ;
#5 = PERSON_AND_ORGANIZATION ( #301, #349 ) ;
#6 = CARTESIAN_POINT ( 'NONE',  ( 0.000000000000000000, 0.000000000000000000, 5.000000000000000000 ) ) ;
#7 = CIRCLE ( 'NONE', #231, 2.250000000000000000 ) ;
#8 = PERSON_AND_ORGANIZATION ( #301, #349 ) ;
#9 = CARTESIAN_POINT ( 'NONE',  ( 0.000000000000000000, 0.000000000000000000, 5.500000000000005329 ) ) ;
#10 = EDGE_CURVE ( 'NONE', #158, #149, #295, .T. ) ;
#11 = PERSON_AND_ORGANIZATION_ROLE ( 'creator' ) ;
#12 = VERTEX_POINT ( 'NONE', #145 ) ;
#13 = APPROVAL_ROLE ( '' ) ;
#14 = ADVANCED_BREP_SHAPE_REPRESENTATION ( '4839', ( #183, #239 ), #376 ) ;
#15 = CARTESIAN_POINT ( 'NONE',  ( 0.000000000000000000, 0.000000000000000000, 405.0000000000000000 ) ) ;
#16 = LOCAL_TIME ( 17, 23, 16.00000000000000000, #291 ) ;
#17 = DIRECTION ( 'NONE',  ( 0.000000000000000000, 0.000000000000000000, -1.000000000000000000 ) ) ;
#18 = VERTEX_POINT ( 'NONE', #144 ) ;
#19 = PLANE ( 'NONE',  #83 ) ;
#20 = ORIENTED_EDGE ( 'NONE', *, *, #52, .F. ) ;
#21 =( NAMED_UNIT ( * ) PLANE_ANGLE_UNIT ( ) SI_UNIT ( $, .RADIAN. ) );
#22 = VERTEX_POINT ( 'NONE', #261 ) ;
#23 = PRODUCT_DEFINITION_SHAPE ( 'NONE', 'NONE',  #292 ) ;
#24 = VECTOR ( 'NONE', #289, 1000.000000000000000 ) ;
#25 = LOCAL_TIME ( 17, 23, 16.00000000000000000, #208 ) ;
#26 =( NAMED_UNIT ( * ) SI_UNIT ( $, .STERADIAN. ) SOLID_ANGLE_UNIT ( ) );
#27 = EDGE_LOOP ( 'NONE', ( #314, #338, #161, #165 ) ) ;
#28 = EDGE_CURVE ( 'NONE', #199, #366, #139, .T. ) ;
#29 = ORIENTED_EDGE ( 'NONE', *, *, #252, .F. ) ;
#30 = DIRECTION ( 'NONE',  ( 0.000000000000000000, 0.000000000000000000, 1.000000000000000000 ) ) ;
#31 = CIRCLE ( 'NONE', #97, 0.5000000000000004441 ) ;
#32 = CARTESIAN_POINT ( 'NONE',  ( 0.000000000000000000, 0.000000000000000000, 405.0000000000000000 ) ) ;
#33 = DIRECTION ( 'NONE',  ( -0.000000000000000000, -0.000000000000000000, -1.000000000000000000 ) ) ;
#34 = EDGE_CURVE ( 'NONE', #374, #22, #348, .T. ) ;
#35 = APPROVAL_STATUS ( 'not_yet_approved' ) ;
#36 = CARTESIAN_POINT ( 'NONE',  ( -4.000000000000000000, 0.000000000000000000, 405.0000000000000000 ) ) ;
#37 = ORIENTED_EDGE ( 'NONE', *, *, #170, .F. ) ;
#38 = UNCERTAINTY_MEASURE_WITH_UNIT (LENGTH_MEASURE( 1.000000000000000082E-05 ), #345, 'distance_accuracy_value', 'NONE');
#39 = PERSON_AND_ORGANIZATION ( #301, #349 ) ;
#40 = DATE_TIME_ROLE ( 'creation_date' ) ;
#41 = ADVANCED_FACE ( 'NONE', ( #93 ), #254, .T. ) ;
#42 = FACE_OUTER_BOUND ( 'NONE', #49, .T. ) ;
#43 = VECTOR ( 'NONE', #33, 1000.000000000000000 ) ;
#44 = PRODUCT_DEFINITION_FORMATION_WITH_SPECIFIED_SOURCE ( 'LIBOVOLNÝ', '', #325, .NOT_KNOWN. ) ;
#45 = DIRECTION ( 'NONE',  ( 0.000000000000000000, 0.000000000000000000, -1.000000000000000000 ) ) ;
#46 = ORIENTED_EDGE ( 'NONE', *, *, #257, .F. ) ;
#47 = CALENDAR_DATE ( 2022, 8, 7 ) ;
#48 = CARTESIAN_POINT ( 'NONE',  ( 0.000000000000000000, 0.000000000000000000, 405.0000000000000000 ) ) ;
#49 = EDGE_LOOP ( 'NONE', ( #217, #63, #29, #189 ) ) ;
#50 = DIRECTION ( 'NONE',  ( 1.000000000000000000, 0.000000000000000000, 0.000000000000000000 ) ) ;
#51 = CIRCLE ( 'NONE', #206, 2.250000000000000000 ) ;
#52 = EDGE_CURVE ( 'NONE', #158, #22, #285, .T. ) ;
#53 = DIRECTION ( 'NONE',  ( 0.000000000000000000, 0.000000000000000000, 1.000000000000000000 ) ) ;
#54 = CARTESIAN_POINT ( 'NONE',  ( 2.250000000000000000, 2.755455298081544285E-16, 405.0000000000000000 ) ) ;
#55 = ORIENTED_EDGE ( 'NONE', *, *, #64, .F. ) ;
#56 = ADVANCED_FACE ( 'NONE', ( #259, #1 ), #4, .T. ) ;
#57 = DIRECTION ( 'NONE',  ( -0.000000000000000000, -0.000000000000000000, -1.000000000000000000 ) ) ;
#58 = ORIENTED_EDGE ( 'NONE', *, *, #64, .T. ) ;
#59 = DIRECTION ( 'NONE',  ( 1.000000000000000000, 0.000000000000000000, 0.000000000000000000 ) ) ;
#60 = ORIENTED_EDGE ( 'NONE', *, *, #10, .F. ) ;
#61 = ADVANCED_FACE ( 'NONE', ( #121, #353 ), #174, .F. ) ;
#62 = VECTOR ( 'NONE', #17, 1000.000000000000000 ) ;
#63 = ORIENTED_EDGE ( 'NONE', *, *, #316, .T. ) ;
#64 = EDGE_CURVE ( 'NONE', #149, #374, #350, .T. ) ;
#65 = DIRECTION ( 'NONE',  ( -1.000000000000000000, 0.000000000000000000, 0.000000000000000000 ) ) ;
#66 = DESIGN_CONTEXT ( 'detailed design', #322, 'design' ) ;
#67 = CALENDAR_DATE ( 2022, 8, 7 ) ;
#68 = CIRCLE ( 'NONE', #115, 7.000000000000000000 ) ;
#69 = APPROVAL_PERSON_ORGANIZATION ( #298, #131, #324 ) ;
#70 = CARTESIAN_POINT ( 'NONE',  ( 4.000000000000000000, 4.898587196589412829E-16, 405.0000000000000000 ) ) ;
#71 = DIRECTION ( 'NONE',  ( 0.000000000000000000, 0.000000000000000000, 1.000000000000000000 ) ) ;
#72 = DIRECTION ( 'NONE',  ( 1.000000000000000000, 0.000000000000000000, -0.000000000000000000 ) ) ;
#73 = MECHANICAL_CONTEXT ( 'NONE', #305, 'mechanical' ) ;
#74 = DIRECTION ( 'NONE',  ( 0.000000000000000000, 0.000000000000000000, 1.000000000000000000 ) ) ;
#75 = APPROVAL_STATUS ( 'not_yet_approved' ) ;
#76 = AXIS2_PLACEMENT_3D ( 'NONE', #216, #153, #242 ) ;
#77 = CARTESIAN_POINT ( 'NONE',  ( 4.000000000000000000, 4.898587196589412829E-16, 5.500000000000005329 ) ) ;
#78 = DIRECTION ( 'NONE',  ( 1.000000000000000000, 0.000000000000000000, 0.000000000000000000 ) ) ;
#79 = ORIENTED_EDGE ( 'NONE', *, *, #187, .F. ) ;
#80 = CARTESIAN_POINT ( 'NONE',  ( 2.250000000000000000, 2.755455298081544285E-16, 405.0000000000000000 ) ) ;
#81 = PRODUCT_RELATED_PRODUCT_CATEGORY ( 'detail', '', ( #325 ) ) ;
#82 = DIRECTION ( 'NONE',  ( 1.000000000000000000, 0.000000000000000000, -0.000000000000000000 ) ) ;
#83 = AXIS2_PLACEMENT_3D ( 'NONE', #48, #135, #82 ) ;
#84 = CYLINDRICAL_SURFACE ( 'NONE', #223, 7.000000000000000000 ) ;
#85 = ORIENTED_EDGE ( 'NONE', *, *, #372, .T. ) ;
#86 = DIRECTION ( 'NONE',  ( 0.000000000000000000, 0.000000000000000000, 1.000000000000000000 ) ) ;
#87 = AXIS2_PLACEMENT_3D ( 'NONE', #6, #293, #65 ) ;
#88 = ORIENTED_EDGE ( 'NONE', *, *, #368, .T. ) ;
#89 = CARTESIAN_POINT ( 'NONE',  ( 0.000000000000000000, 0.000000000000000000, 405.0000000000000000 ) ) ;
#90 = EDGE_LOOP ( 'NONE', ( #166, #243 ) ) ;
#91 = AXIS2_PLACEMENT_3D ( 'NONE', #9, #53, #306 ) ;
#92 = EDGE_CURVE ( 'NONE', #18, #199, #319, .T. ) ;
#93 = FACE_OUTER_BOUND ( 'NONE', #358, .T. ) ;
#94 = DIRECTION ( 'NONE',  ( -1.000000000000000000, 0.000000000000000000, 0.000000000000000000 ) ) ;
#95 = CARTESIAN_POINT ( 'NONE',  ( -7.000000000000000000, 0.000000000000000000, 5.000000000000000000 ) ) ;
#96 = PERSON_AND_ORGANIZATION ( #301, #349 ) ;
#97 = AXIS2_PLACEMENT_3D ( 'NONE', #211, #273, #276 ) ;
#98 = CARTESIAN_POINT ( 'NONE',  ( 0.000000000000000000, 0.000000000000000000, 5.000000000000000000 ) ) ;
#99 = SECURITY_CLASSIFICATION_LEVEL ( 'unclassified' ) ;
#100 = DIRECTION ( 'NONE',  ( 1.000000000000000000, 0.000000000000000000, -0.000000000000000000 ) ) ;
#101 = PERSON_AND_ORGANIZATION_ROLE ( 'design_supplier' ) ;
#102 = DIRECTION ( 'NONE',  ( 1.000000000000000000, 0.000000000000000000, 0.000000000000000000 ) ) ;
#103 = CIRCLE ( 'NONE', #311, 4.000000000000000000 ) ;
#104 = CARTESIAN_POINT ( 'NONE',  ( 7.000000000000000000, 8.572527594031473190E-16, 5.000000000000000000 ) ) ;
#105 = CC_DESIGN_SECURITY_CLASSIFICATION ( #179, ( #44 ) ) ;
#106 = VERTEX_POINT ( 'NONE', #36 ) ;
#107 = ADVANCED_FACE ( 'NONE', ( #207 ), #290, .F. ) ;
#108 = CARTESIAN_POINT ( 'NONE',  ( -7.000000000000000000, 0.000000000000000000, 5.000000000000000000 ) ) ;
#109 = CYLINDRICAL_SURFACE ( 'NONE', #272, 2.250000000000000000 ) ;
#110 = CARTESIAN_POINT ( 'NONE',  ( 0.000000000000000000, 0.000000000000000000, 0.000000000000000000 ) ) ;
#111 = CIRCLE ( 'NONE', #200, 4.000000000000000000 ) ;
#112 = CC_DESIGN_APPROVAL ( #3, ( #44 ) ) ;
#113 = EDGE_LOOP ( 'NONE', ( #224, #307 ) ) ;
#114 = DIRECTION ( 'NONE',  ( 0.000000000000000000, 0.000000000000000000, 1.000000000000000000 ) ) ;
#115 = AXIS2_PLACEMENT_3D ( 'NONE', #141, #246, #190 ) ;
#116 = ADVANCED_FACE ( 'NONE', ( #297 ), #155, .T. ) ;
#117 = VERTEX_POINT ( 'NONE', #267 ) ;
#118 = EDGE_CURVE ( 'NONE', #12, #274, #188, .T. ) ;
#119 = AXIS2_PLACEMENT_3D ( 'NONE', #167, #163, #143 ) ;
#120 = DIRECTION ( 'NONE',  ( 1.000000000000000000, 0.000000000000000000, 0.000000000000000000 ) ) ;
#121 = FACE_BOUND ( 'NONE', #113, .T. ) ;
#122 = ORIENTED_EDGE ( 'NONE', *, *, #372, .F. ) ;
#123 = COORDINATED_UNIVERSAL_TIME_OFFSET ( 1, 0, .AHEAD. ) ;
#124 = VECTOR ( 'NONE', #205, 1000.000000000000000 ) ;
#125 = ADVANCED_FACE ( 'NONE', ( #42 ), #256, .F. ) ;
#126 = EDGE_LOOP ( 'NONE', ( #219, #225, #241, #283 ) ) ;
#127 = DIRECTION ( 'NONE',  ( 1.000000000000000000, 0.000000000000000000, 0.000000000000000000 ) ) ;
#128 = COORDINATED_UNIVERSAL_TIME_OFFSET ( 1, 0, .AHEAD. ) ;
#129 = DIRECTION ( 'NONE',  ( -1.000000000000000000, 0.000000000000000000, 0.000000000000000000 ) ) ;
#130 = EDGE_LOOP ( 'NONE', ( #46, #253, #194, #315 ) ) ;
#131 = APPROVAL ( #35, 'NEURÈENÝ' ) ;
#132 = DATE_AND_TIME ( #332, #233 ) ;
#133 = CIRCLE ( 'NONE', #304, 0.5000000000000004441 ) ;
#134 = DIRECTION ( 'NONE',  ( -0.000000000000000000, -0.000000000000000000, -1.000000000000000000 ) ) ;
#135 = DIRECTION ( 'NONE',  ( 0.000000000000000000, 0.000000000000000000, 1.000000000000000000 ) ) ;
#136 = ORIENTED_EDGE ( 'NONE', *, *, #343, .T. ) ;
#137 = FACE_OUTER_BOUND ( 'NONE', #157, .T. ) ;
#138 = ORIENTED_EDGE ( 'NONE', *, *, #34, .F. ) ;
#139 = CIRCLE ( 'NONE', #294, 4.000000000000000000 ) ;
#140 = CLOSED_SHELL ( 'NONE', ( #271, #125, #116, #284, #41, #56, #61, #355, #282, #378, #107 ) ) ;
#141 = CARTESIAN_POINT ( 'NONE',  ( 0.000000000000000000, 0.000000000000000000, 5.000000000000000000 ) ) ;
#142 = CC_DESIGN_PERSON_AND_ORGANIZATION_ASSIGNMENT ( #96, #357, ( #44 ) ) ;
#143 = DIRECTION ( 'NONE',  ( 1.000000000000000000, 0.000000000000000000, 0.000000000000000000 ) ) ;
#144 = CARTESIAN_POINT ( 'NONE',  ( 4.000000000000000000, 4.898587196589412829E-16, 405.0000000000000000 ) ) ;
#145 = CARTESIAN_POINT ( 'NONE',  ( -2.250000000000000000, 0.000000000000000000, 405.0000000000000000 ) ) ;
#146 = ORIENTED_EDGE ( 'NONE', *, *, #28, .F. ) ;
#147 = AXIS2_PLACEMENT_3D ( 'NONE', #218, #340, #102 ) ;
#148 = CALENDAR_DATE ( 2022, 8, 7 ) ;
#149 = VERTEX_POINT ( 'NONE', #108 ) ;
#150 = COORDINATED_UNIVERSAL_TIME_OFFSET ( 1, 0, .AHEAD. ) ;
#151 = DATE_AND_TIME ( #327, #16 ) ;
#152 = APPROVAL_PERSON_ORGANIZATION ( #5, #3, #238 ) ;
#153 = DIRECTION ( 'NONE',  ( -0.000000000000000000, -0.000000000000000000, -1.000000000000000000 ) ) ;
#154 = DATE_AND_TIME ( #148, #25 ) ;
#155 = CYLINDRICAL_SURFACE ( 'NONE', #76, 4.000000000000000000 ) ;
#156 = CC_DESIGN_DATE_AND_TIME_ASSIGNMENT ( #320, #40, ( #292 ) ) ;
#157 = EDGE_LOOP ( 'NONE', ( #60, #300, #371, #55 ) ) ;
#158 = VERTEX_POINT ( 'NONE', #104 ) ;
#159 = CIRCLE ( 'NONE', #168, 2.250000000000000000 ) ;
#160 = CARTESIAN_POINT ( 'NONE',  ( 0.000000000000000000, 0.000000000000000000, 5.000000000000000000 ) ) ;
#161 = ORIENTED_EDGE ( 'NONE', *, *, #28, .T. ) ;
#162 = CARTESIAN_POINT ( 'NONE',  ( 0.000000000000000000, 0.000000000000000000, 405.0000000000000000 ) ) ;
#163 = DIRECTION ( 'NONE',  ( 0.000000000000000000, 0.000000000000000000, 1.000000000000000000 ) ) ;
#164 = DIRECTION ( 'NONE',  ( 1.000000000000000000, 0.000000000000000000, 0.000000000000000000 ) ) ;
#165 = ORIENTED_EDGE ( 'NONE', *, *, #343, .F. ) ;
#166 = ORIENTED_EDGE ( 'NONE', *, *, #333, .F. ) ;
#167 = CARTESIAN_POINT ( 'NONE',  ( 0.000000000000000000, 0.000000000000000000, 5.500000000000005329 ) ) ;
#168 = AXIS2_PLACEMENT_3D ( 'NONE', #89, #313, #120 ) ;
#169 = CC_DESIGN_APPROVAL ( #131, ( #179 ) ) ;
#170 = EDGE_CURVE ( 'NONE', #22, #374, #185, .T. ) ;
#171 = DIRECTION ( 'NONE',  ( 1.000000000000000000, 0.000000000000000000, 0.000000000000000000 ) ) ;
#172 = AXIS2_PLACEMENT_3D ( 'NONE', #160, #244, #127 ) ;
#173 = DATE_AND_TIME ( #67, #312 ) ;
#174 = PLANE ( 'NONE',  #177 ) ;
#175 = PERSON_AND_ORGANIZATION_ROLE ( 'design_owner' ) ;
#176 = DIRECTION ( 'NONE',  ( 0.000000000000000000, 0.000000000000000000, 1.000000000000000000 ) ) ;
#177 = AXIS2_PLACEMENT_3D ( 'NONE', #230, #226, #72 ) ;
#178 = EDGE_CURVE ( 'NONE', #199, #117, #133, .T. ) ;
#179 = SECURITY_CLASSIFICATION ( '', '', #99 ) ;
#180 = LINE ( 'NONE', #80, #62 ) ;
#181 = ORIENTED_EDGE ( 'NONE', *, *, #92, .F. ) ;
#182 = DIRECTION ( 'NONE',  ( -1.000000000000000000, 0.000000000000000000, 0.000000000000000000 ) ) ;
#183 = MANIFOLD_SOLID_BREP ( 'Odebrat vysunutím3', #140 ) ;
#184 = DIRECTION ( 'NONE',  ( -1.000000000000000000, 0.000000000000000000, 0.000000000000000000 ) ) ;
#185 = CIRCLE ( 'NONE', #193, 7.000000000000000000 ) ;
#186 = CARTESIAN_POINT ( 'NONE',  ( 0.000000000000000000, 0.000000000000000000, 5.000000000000000000 ) ) ;
#187 = EDGE_CURVE ( 'NONE', #336, #117, #362, .T. ) ;
#188 = LINE ( 'NONE', #361, #227 ) ;
#189 = ORIENTED_EDGE ( 'NONE', *, *, #178, .F. ) ;
#190 = DIRECTION ( 'NONE',  ( 1.000000000000000000, 0.000000000000000000, 0.000000000000000000 ) ) ;
#191 = CC_DESIGN_PERSON_AND_ORGANIZATION_ASSIGNMENT ( #8, #101, ( #44 ) ) ;
#192 = FACE_OUTER_BOUND ( 'NONE', #221, .T. ) ;
#193 = AXIS2_PLACEMENT_3D ( 'NONE', #110, #213, #266 ) ;
#194 = ORIENTED_EDGE ( 'NONE', *, *, #118, .T. ) ;
#195 = APPLICATION_PROTOCOL_DEFINITION ( 'international standard', 'config_control_design', 1994, #305 ) ;
#196 = CARTESIAN_POINT ( 'NONE',  ( 0.000000000000000000, 0.000000000000000000, 405.0000000000000000 ) ) ;
#197 = EDGE_LOOP ( 'NONE', ( #214, #270 ) ) ;
#198 = EDGE_CURVE ( 'NONE', #18, #106, #103, .T. ) ;
#199 = VERTEX_POINT ( 'NONE', #77 ) ;
#200 = AXIS2_PLACEMENT_3D ( 'NONE', #32, #114, #59 ) ;
#201 = DIRECTION ( 'NONE',  ( 1.000000000000000000, 0.000000000000000000, 0.000000000000000000 ) ) ;
#202 = CARTESIAN_POINT ( 'NONE',  ( 0.000000000000000000, 0.000000000000000000, 5.500000000000005329 ) ) ;
#203 = DIRECTION ( 'NONE',  ( 1.000000000000000000, 0.000000000000000000, 0.000000000000000000 ) ) ;
#204 = CC_DESIGN_PERSON_AND_ORGANIZATION_ASSIGNMENT ( #210, #11, ( #292 ) ) ;
#205 = DIRECTION ( 'NONE',  ( -0.000000000000000000, -0.000000000000000000, -1.000000000000000000 ) ) ;
#206 = AXIS2_PLACEMENT_3D ( 'NONE', #196, #30, #341 ) ;
#207 = FACE_OUTER_BOUND ( 'NONE', #130, .T. ) ;
#208 = COORDINATED_UNIVERSAL_TIME_OFFSET ( 1, 0, .AHEAD. ) ;
#209 = CARTESIAN_POINT ( 'NONE',  ( 0.000000000000000000, 0.000000000000000000, 0.000000000000000000 ) ) ;
#210 = PERSON_AND_ORGANIZATION ( #301, #349 ) ;
#211 = CARTESIAN_POINT ( 'NONE',  ( -4.500000000000000888, 5.510910596163089556E-16, 5.500000000000005329 ) ) ;
#212 = AXIS2_PLACEMENT_3D ( 'NONE', #234, #45, #129 ) ;
#213 = DIRECTION ( 'NONE',  ( 0.000000000000000000, 0.000000000000000000, 1.000000000000000000 ) ) ;
#214 = ORIENTED_EDGE ( 'NONE', *, *, #323, .T. ) ;
#215 = DIRECTION ( 'NONE',  ( 0.000000000000000000, -1.000000000000000000, 0.000000000000000000 ) ) ;
#216 = CARTESIAN_POINT ( 'NONE',  ( 0.000000000000000000, 0.000000000000000000, 405.0000000000000000 ) ) ;
#217 = ORIENTED_EDGE ( 'NONE', *, *, #368, .F. ) ;
#218 = CARTESIAN_POINT ( 'NONE',  ( 0.000000000000000000, 0.000000000000000000, 0.000000000000000000 ) ) ;
#219 = ORIENTED_EDGE ( 'NONE', *, *, #333, .T. ) ;
#220 = CARTESIAN_POINT ( 'NONE',  ( -4.500000000000000888, 5.510910596163088569E-16, 5.000000000000002665 ) ) ;
#221 = EDGE_LOOP ( 'NONE', ( #346, #146, #237, #79 ) ) ;
#222 = APPROVAL ( #75, 'NEURÈENÝ' ) ;
#223 = AXIS2_PLACEMENT_3D ( 'NONE', #335, #134, #184 ) ;
#224 = ORIENTED_EDGE ( 'NONE', *, *, #339, .F. ) ;
#225 = ORIENTED_EDGE ( 'NONE', *, *, #257, .T. ) ;
#226 = DIRECTION ( 'NONE',  ( 0.000000000000000000, 0.000000000000000000, 1.000000000000000000 ) ) ;
#227 = VECTOR ( 'NONE', #275, 1000.000000000000000 ) ;
#228 = CARTESIAN_POINT ( 'NONE',  ( 0.000000000000000000, 0.000000000000000000, 5.000000000000000000 ) ) ;
#229 = DIRECTION ( 'NONE',  ( 1.000000000000000000, 0.000000000000000000, 0.000000000000000000 ) ) ;
#230 = CARTESIAN_POINT ( 'NONE',  ( 0.000000000000000000, 0.000000000000000000, 0.000000000000000000 ) ) ;
#231 = AXIS2_PLACEMENT_3D ( 'NONE', #249, #373, #229 ) ;
#232 = APPROVAL_DATE_TIME ( #173, #3 ) ;
#233 = LOCAL_TIME ( 17, 23, 16.00000000000000000, #150 ) ;
#234 = CARTESIAN_POINT ( 'NONE',  ( 0.000000000000000000, 0.000000000000000000, 405.0000000000000000 ) ) ;
#235 = DIRECTION ( 'NONE',  ( 0.000000000000000000, 0.000000000000000000, -1.000000000000000000 ) ) ;
#236 = APPROVAL_STATUS ( 'not_yet_approved' ) ;
#237 = ORIENTED_EDGE ( 'NONE', *, *, #178, .T. ) ;
#238 = APPROVAL_ROLE ( '' ) ;
#239 = AXIS2_PLACEMENT_3D ( 'NONE', #269, #71, #203 ) ;
#240 = FACE_OUTER_BOUND ( 'NONE', #287, .T. ) ;
#241 = ORIENTED_EDGE ( 'NONE', *, *, #247, .T. ) ;
#242 = DIRECTION ( 'NONE',  ( -1.000000000000000000, 0.000000000000000000, 0.000000000000000000 ) ) ;
#243 = ORIENTED_EDGE ( 'NONE', *, *, #360, .F. ) ;
#244 = DIRECTION ( 'NONE',  ( -0.000000000000000000, -0.000000000000000000, -1.000000000000000000 ) ) ;
#245 = TOROIDAL_SURFACE ( 'NONE', #119, 4.500000000000000888, 0.5000000000000000000 ) ;
#246 = DIRECTION ( 'NONE',  ( 0.000000000000000000, 0.000000000000000000, 1.000000000000000000 ) ) ;
#247 = EDGE_CURVE ( 'NONE', #303, #274, #278, .T. ) ;
#248 = FACE_OUTER_BOUND ( 'NONE', #326, .T. ) ;
#249 = CARTESIAN_POINT ( 'NONE',  ( 0.000000000000000000, 0.000000000000000000, 0.000000000000000000 ) ) ;
#250 = LINE ( 'NONE', #352, #375 ) ;
#251 = CIRCLE ( 'NONE', #330, 4.000000000000000000 ) ;
#252 = EDGE_CURVE ( 'NONE', #117, #336, #286, .T. ) ;
#253 = ORIENTED_EDGE ( 'NONE', *, *, #360, .T. ) ;
#254 = CYLINDRICAL_SURFACE ( 'NONE', #87, 7.000000000000000000 ) ;
#255 = ORIENTED_EDGE ( 'NONE', *, *, #198, .T. ) ;
#256 = TOROIDAL_SURFACE ( 'NONE', #91, 4.500000000000000888, 0.5000000000000000000 ) ;
#257 = EDGE_CURVE ( 'NONE', #342, #303, #180, .T. ) ;
#258 = CC_DESIGN_APPROVAL ( #222, ( #292 ) ) ;
#259 = FACE_BOUND ( 'NONE', #268, .T. ) ;
#260 = APPROVAL_DATE_TIME ( #151, #131 ) ;
#261 = CARTESIAN_POINT ( 'NONE',  ( 7.000000000000000000, 8.572527594031473190E-16, 0.000000000000000000 ) ) ;
#262 = APPROVAL_DATE_TIME ( #132, #222 ) ;
#263 = CC_DESIGN_DATE_AND_TIME_ASSIGNMENT ( #154, #296, ( #179 ) ) ;
#264 = AXIS2_PLACEMENT_3D ( 'NONE', #228, #74, #171 ) ;
#265 = APPLICATION_PROTOCOL_DEFINITION ( 'international standard', 'config_control_design', 1994, #322 ) ;
#266 = DIRECTION ( 'NONE',  ( 1.000000000000000000, 0.000000000000000000, 0.000000000000000000 ) ) ;
#267 = CARTESIAN_POINT ( 'NONE',  ( 4.500000000000000888, 0.000000000000000000, 5.000000000000002665 ) ) ;
#268 = EDGE_LOOP ( 'NONE', ( #365, #370 ) ) ;
#269 = CARTESIAN_POINT ( 'NONE',  ( 0.000000000000000000, 0.000000000000000000, 0.000000000000000000 ) ) ;
#270 = ORIENTED_EDGE ( 'NONE', *, *, #10, .T. ) ;
#271 = ADVANCED_FACE ( 'NONE', ( #367 ), #109, .F. ) ;
#272 = AXIS2_PLACEMENT_3D ( 'NONE', #15, #235, #182 ) ;
#273 = DIRECTION ( 'NONE',  ( 1.224646799147353207E-16, 1.000000000000000000, -0.000000000000000000 ) ) ;
#274 = VERTEX_POINT ( 'NONE', #337 ) ;
#275 = DIRECTION ( 'NONE',  ( 0.000000000000000000, 0.000000000000000000, -1.000000000000000000 ) ) ;
#276 = DIRECTION ( 'NONE',  ( -1.000000000000000000, 1.224646799147351482E-16, 0.000000000000000000 ) ) ;
#277 = ORIENTED_EDGE ( 'NONE', *, *, #323, .F. ) ;
#278 = CIRCLE ( 'NONE', #147, 2.250000000000000000 ) ;
#279 = CARTESIAN_POINT ( 'NONE',  ( -7.000000000000000000, 0.000000000000000000, 0.000000000000000000 ) ) ;
#280 = ORIENTED_EDGE ( 'NONE', *, *, #34, .T. ) ;
#281 = DIRECTION ( 'NONE',  ( -0.000000000000000000, -0.000000000000000000, -1.000000000000000000 ) ) ;
#282 = ADVANCED_FACE ( 'NONE', ( #299, #240 ), #19, .T. ) ;
#283 = ORIENTED_EDGE ( 'NONE', *, *, #118, .F. ) ;
#284 = ADVANCED_FACE ( 'NONE', ( #137 ), #84, .T. ) ;
#285 = LINE ( 'NONE', #379, #43 ) ;
#286 = CIRCLE ( 'NONE', #172, 4.500000000000000888 ) ;
#287 = EDGE_LOOP ( 'NONE', ( #85, #255 ) ) ;
#288 = PERSON_AND_ORGANIZATION_ROLE ( 'classification_officer' ) ;
#289 = DIRECTION ( 'NONE',  ( -0.000000000000000000, -0.000000000000000000, -1.000000000000000000 ) ) ;
#290 = CYLINDRICAL_SURFACE ( 'NONE', #212, 2.250000000000000000 ) ;
#291 = COORDINATED_UNIVERSAL_TIME_OFFSET ( 1, 0, .AHEAD. ) ;
#292 = PRODUCT_DEFINITION ( 'NEZNÁMÝ', '', #44, #66 ) ;
#293 = DIRECTION ( 'NONE',  ( -0.000000000000000000, -0.000000000000000000, -1.000000000000000000 ) ) ;
#294 = AXIS2_PLACEMENT_3D ( 'NONE', #202, #381, #351 ) ;
#295 = CIRCLE ( 'NONE', #264, 7.000000000000000000 ) ;
#296 = DATE_TIME_ROLE ( 'classification_date' ) ;
#297 = FACE_OUTER_BOUND ( 'NONE', #27, .T. ) ;
#298 = PERSON_AND_ORGANIZATION ( #301, #349 ) ;
#299 = FACE_BOUND ( 'NONE', #90, .T. ) ;
#300 = ORIENTED_EDGE ( 'NONE', *, *, #52, .T. ) ;
#301 = PERSON ( 'NEURÈENÝ', 'NEURÈENÝ', 'NEURÈENÝ', ('NEURÈENÝ'), ('NEURÈENÝ'), ('NEURÈENÝ') ) ;
#302 = CARTESIAN_POINT ( 'NONE',  ( 4.500000000000000888, 0.000000000000000000, 5.500000000000005329 ) ) ;
#303 = VERTEX_POINT ( 'NONE', #359 ) ;
#304 = AXIS2_PLACEMENT_3D ( 'NONE', #302, #215, #334 ) ;
#305 = APPLICATION_CONTEXT ( 'configuration controlled 3d designs of mechanical parts and assemblies' ) ;
#306 = DIRECTION ( 'NONE',  ( 1.000000000000000000, 0.000000000000000000, 0.000000000000000000 ) ) ;
#307 = ORIENTED_EDGE ( 'NONE', *, *, #247, .F. ) ;
#308 = CC_DESIGN_PERSON_AND_ORGANIZATION_ASSIGNMENT ( #363, #175, ( #325 ) ) ;
#309 = CARTESIAN_POINT ( 'NONE',  ( -4.000000000000000000, 0.000000000000000000, 5.500000000000005329 ) ) ;
#310 = CARTESIAN_POINT ( 'NONE',  ( 0.000000000000000000, 0.000000000000000000, 405.0000000000000000 ) ) ;
#311 = AXIS2_PLACEMENT_3D ( 'NONE', #162, #328, #50 ) ;
#312 = LOCAL_TIME ( 17, 23, 16.00000000000000000, #123 ) ;
#313 = DIRECTION ( 'NONE',  ( 0.000000000000000000, 0.000000000000000000, 1.000000000000000000 ) ) ;
#314 = ORIENTED_EDGE ( 'NONE', *, *, #198, .F. ) ;
#315 = ORIENTED_EDGE ( 'NONE', *, *, #339, .T. ) ;
#316 = EDGE_CURVE ( 'NONE', #366, #336, #31, .T. ) ;
#317 = CARTESIAN_POINT ( 'NONE',  ( 0.000000000000000000, 0.000000000000000000, 5.500000000000005329 ) ) ;
#318 = AXIS2_PLACEMENT_3D ( 'NONE', #310, #281, #94 ) ;
#319 = LINE ( 'NONE', #70, #24 ) ;
#320 = DATE_AND_TIME ( #47, #344 ) ;
#321 = DIRECTION ( 'NONE',  ( 0.000000000000000000, 0.000000000000000000, 1.000000000000000000 ) ) ;
#322 = APPLICATION_CONTEXT ( 'configuration controlled 3d designs of mechanical parts and assemblies' ) ;
#323 = EDGE_CURVE ( 'NONE', #149, #158, #68, .T. ) ;
#324 = APPROVAL_ROLE ( '' ) ;
#325 = PRODUCT ( '4839', '4839', '', ( #73 ) ) ;
#326 = EDGE_LOOP ( 'NONE', ( #181, #122, #136, #88 ) ) ;
#327 = CALENDAR_DATE ( 2022, 8, 7 ) ;
#328 = DIRECTION ( 'NONE',  ( 0.000000000000000000, 0.000000000000000000, 1.000000000000000000 ) ) ;
#329 = EDGE_LOOP ( 'NONE', ( #138, #37 ) ) ;
#330 = AXIS2_PLACEMENT_3D ( 'NONE', #317, #86, #164 ) ;
#331 = APPROVAL_PERSON_ORGANIZATION ( #39, #222, #13 ) ;
#332 = CALENDAR_DATE ( 2022, 8, 7 ) ;
#333 = EDGE_CURVE ( 'NONE', #12, #342, #159, .T. ) ;
#334 = DIRECTION ( 'NONE',  ( 0.000000000000000000, 0.000000000000000000, -1.000000000000000000 ) ) ;
#335 = CARTESIAN_POINT ( 'NONE',  ( 0.000000000000000000, 0.000000000000000000, 5.000000000000000000 ) ) ;
#336 = VERTEX_POINT ( 'NONE', #220 ) ;
#337 = CARTESIAN_POINT ( 'NONE',  ( -2.250000000000000000, 0.000000000000000000, 0.000000000000000000 ) ) ;
#338 = ORIENTED_EDGE ( 'NONE', *, *, #92, .T. ) ;
#339 = EDGE_CURVE ( 'NONE', #274, #303, #7, .T. ) ;
#340 = DIRECTION ( 'NONE',  ( -0.000000000000000000, -0.000000000000000000, -1.000000000000000000 ) ) ;
#341 = DIRECTION ( 'NONE',  ( 1.000000000000000000, 0.000000000000000000, 0.000000000000000000 ) ) ;
#342 = VERTEX_POINT ( 'NONE', #54 ) ;
#343 = EDGE_CURVE ( 'NONE', #106, #366, #250, .T. ) ;
#344 = LOCAL_TIME ( 17, 23, 16.00000000000000000, #128 ) ;
#345 =( LENGTH_UNIT ( ) NAMED_UNIT ( * ) SI_UNIT ( .MILLI., .METRE. ) );
#346 = ORIENTED_EDGE ( 'NONE', *, *, #316, .F. ) ;
#347 = CC_DESIGN_PERSON_AND_ORGANIZATION_ASSIGNMENT ( #354, #288, ( #179 ) ) ;
#348 = CIRCLE ( 'NONE', #380, 7.000000000000000000 ) ;
#349 = ORGANIZATION ( 'NEURÈENÝ', 'NEURÈENÝ', '' ) ;
#350 = LINE ( 'NONE', #95, #124 ) ;
#351 = DIRECTION ( 'NONE',  ( 1.000000000000000000, 0.000000000000000000, 0.000000000000000000 ) ) ;
#352 = CARTESIAN_POINT ( 'NONE',  ( -4.000000000000000000, 0.000000000000000000, 405.0000000000000000 ) ) ;
#353 = FACE_OUTER_BOUND ( 'NONE', #329, .T. ) ;
#354 = PERSON_AND_ORGANIZATION ( #301, #349 ) ;
#355 = ADVANCED_FACE ( 'NONE', ( #248 ), #377, .T. ) ;
#356 = AXIS2_PLACEMENT_3D ( 'NONE', #98, #321, #100 ) ;
#357 = PERSON_AND_ORGANIZATION_ROLE ( 'creator' ) ;
#358 = EDGE_LOOP ( 'NONE', ( #20, #277, #58, #280 ) ) ;
#359 = CARTESIAN_POINT ( 'NONE',  ( 2.250000000000000000, 2.755455298081544285E-16, 0.000000000000000000 ) ) ;
#360 = EDGE_CURVE ( 'NONE', #342, #12, #51, .T. ) ;
#361 = CARTESIAN_POINT ( 'NONE',  ( -2.250000000000000000, 0.000000000000000000, 405.0000000000000000 ) ) ;
#362 = CIRCLE ( 'NONE', #369, 4.500000000000000888 ) ;
#363 = PERSON_AND_ORGANIZATION ( #301, #349 ) ;
#364 = DIRECTION ( 'NONE',  ( -0.000000000000000000, -0.000000000000000000, -1.000000000000000000 ) ) ;
#365 = ORIENTED_EDGE ( 'NONE', *, *, #252, .T. ) ;
#366 = VERTEX_POINT ( 'NONE', #309 ) ;
#367 = FACE_OUTER_BOUND ( 'NONE', #126, .T. ) ;
#368 = EDGE_CURVE ( 'NONE', #366, #199, #251, .T. ) ;
#369 = AXIS2_PLACEMENT_3D ( 'NONE', #186, #364, #78 ) ;
#370 = ORIENTED_EDGE ( 'NONE', *, *, #187, .T. ) ;
#371 = ORIENTED_EDGE ( 'NONE', *, *, #170, .T. ) ;
#372 = EDGE_CURVE ( 'NONE', #106, #18, #111, .T. ) ;
#373 = DIRECTION ( 'NONE',  ( -0.000000000000000000, -0.000000000000000000, -1.000000000000000000 ) ) ;
#374 = VERTEX_POINT ( 'NONE', #279 ) ;
#375 = VECTOR ( 'NONE', #57, 1000.000000000000000 ) ;
#376 =( GEOMETRIC_REPRESENTATION_CONTEXT ( 3 ) GLOBAL_UNCERTAINTY_ASSIGNED_CONTEXT ( ( #38 ) ) GLOBAL_UNIT_ASSIGNED_CONTEXT ( ( #345, #21, #26 ) ) REPRESENTATION_CONTEXT ( 'NONE', 'WORKASPACE' ) );
#377 = CYLINDRICAL_SURFACE ( 'NONE', #318, 4.000000000000000000 ) ;
#378 = ADVANCED_FACE ( 'NONE', ( #192 ), #245, .F. ) ;
#379 = CARTESIAN_POINT ( 'NONE',  ( 7.000000000000000000, 8.572527594031473190E-16, 5.000000000000000000 ) ) ;
#380 = AXIS2_PLACEMENT_3D ( 'NONE', #209, #176, #201 ) ;
#381 = DIRECTION ( 'NONE',  ( 0.000000000000000000, 0.000000000000000000, 1.000000000000000000 ) ) ;
ENDSEC;
END-ISO-10303-21;
