ISO-10303-21;
HEADER;
FILE_DESCRIPTION (( 'STEP AP203' ),
    '1' );
FILE_NAME ('ec36.STEP',
    '2022-07-08T15:45:51',
    ( '' ),
    ( '' ),
    'SwSTEP 2.0',
    'SolidWorks 2019',
    '' );
FILE_SCHEMA (( 'CONFIG_CONTROL_DESIGN' ));
ENDSEC;

DATA;
#1 = ORIENTED_EDGE ( 'NONE', *, *, #119, .T. ) ;
#2 = DIRECTION ( 'NONE',  ( 0.000000000000000000, 0.000000000000000000, 1.000000000000000000 ) ) ;
#3 = AXIS2_PLACEMENT_3D ( 'NONE', #202, #362, #327 ) ;
#4 = SECURITY_CLASSIFICATION_LEVEL ( 'unclassified' ) ;
#5 = CIRCLE ( 'NONE', #363, 2.500000000000000000 ) ;
#6 = CARTESIAN_POINT ( 'NONE',  ( -2.500000000000000000, 0.000000000000000000, 128.0000000000000000 ) ) ;
#7 =( NAMED_UNIT ( * ) SI_UNIT ( $, .STERADIAN. ) SOLID_ANGLE_UNIT ( ) );
#8 = EDGE_CURVE ( 'NONE', #56, #152, #188, .T. ) ;
#9 = CARTESIAN_POINT ( 'NONE',  ( 0.000000000000000000, 0.000000000000000000, 0.000000000000000000 ) ) ;
#10 = ORIENTED_EDGE ( 'NONE', *, *, #376, .F. ) ;
#11 = AXIS2_PLACEMENT_3D ( 'NONE', #233, #357, #323 ) ;
#12 = DIRECTION ( 'NONE',  ( -0.000000000000000000, -0.000000000000000000, -1.000000000000000000 ) ) ;
#13 = AXIS2_PLACEMENT_3D ( 'NONE', #373, #24, #221 ) ;
#14 = ORIENTED_EDGE ( 'NONE', *, *, #61, .T. ) ;
#15 = APPROVAL_ROLE ( '' ) ;
#16 = CYLINDRICAL_SURFACE ( 'NONE', #127, 5.000000000000000000 ) ;
#17 = ORIENTED_EDGE ( 'NONE', *, *, #314, .F. ) ;
#18 = AXIS2_PLACEMENT_3D ( 'NONE', #374, #206, #235 ) ;
#19 = FACE_OUTER_BOUND ( 'NONE', #340, .T. ) ;
#20 = LOCAL_TIME ( 17, 45, 51.00000000000000000, #353 ) ;
#21 = DIRECTION ( 'NONE',  ( 0.000000000000000000, 0.000000000000000000, 1.000000000000000000 ) ) ;
#22 = DIRECTION ( 'NONE',  ( 1.000000000000000000, 0.000000000000000000, 0.000000000000000000 ) ) ;
#23 = ORIENTED_EDGE ( 'NONE', *, *, #307, .F. ) ;
#24 = DIRECTION ( 'NONE',  ( 0.000000000000000000, 0.000000000000000000, 1.000000000000000000 ) ) ;
#25 = TOROIDAL_SURFACE ( 'NONE', #293, 2.799999999999999822, 0.2999999999999999889 ) ;
#26 = ORIENTED_EDGE ( 'NONE', *, *, #262, .T. ) ;
#27 = MANIFOLD_SOLID_BREP ( 'Odebrat vysunutím3', #324 ) ;
#28 = CIRCLE ( 'NONE', #35, 1.500000000000000222 ) ;
#29 = ADVANCED_FACE ( 'NONE', ( #90 ), #25, .F. ) ;
#30 = CARTESIAN_POINT ( 'NONE',  ( 0.000000000000000000, 0.000000000000000000, 128.0000000000000000 ) ) ;
#31 = DIRECTION ( 'NONE',  ( 0.000000000000000000, 0.000000000000000000, -1.000000000000000000 ) ) ;
#32 = ORIENTED_EDGE ( 'NONE', *, *, #40, .T. ) ;
#33 = PRODUCT_DEFINITION ( 'NEZNÁMÝ', '', #174, #338 ) ;
#34 = PRODUCT_DEFINITION_SHAPE ( 'NONE', 'NONE',  #33 ) ;
#35 = AXIS2_PLACEMENT_3D ( 'NONE', #136, #226, #141 ) ;
#36 = LINE ( 'NONE', #166, #368 ) ;
#37 = APPLICATION_PROTOCOL_DEFINITION ( 'international standard', 'config_control_design', 1994, #337 ) ;
#38 = DIRECTION ( 'NONE',  ( -0.000000000000000000, -0.000000000000000000, -1.000000000000000000 ) ) ;
#39 = PERSON_AND_ORGANIZATION ( #316, #58 ) ;
#40 = EDGE_CURVE ( 'NONE', #99, #326, #179, .T. ) ;
#41 = LOCAL_TIME ( 17, 45, 51.00000000000000000, #210 ) ;
#42 = CARTESIAN_POINT ( 'NONE',  ( 0.000000000000000000, 0.000000000000000000, 3.299999999999997158 ) ) ;
#43 = DIRECTION ( 'NONE',  ( 0.000000000000000000, 0.000000000000000000, 1.000000000000000000 ) ) ;
#44 = ORIENTED_EDGE ( 'NONE', *, *, #134, .F. ) ;
#45 = DIRECTION ( 'NONE',  ( -1.000000000000000000, 0.000000000000000000, 0.000000000000000000 ) ) ;
#46 = EDGE_CURVE ( 'NONE', #89, #56, #209, .T. ) ;
#47 = CARTESIAN_POINT ( 'NONE',  ( 0.000000000000000000, 0.000000000000000000, 3.000000000000000000 ) ) ;
#48 = EDGE_LOOP ( 'NONE', ( #140, #364 ) ) ;
#49 = EDGE_LOOP ( 'NONE', ( #236, #128, #197, #17 ) ) ;
#50 = CC_DESIGN_PERSON_AND_ORGANIZATION_ASSIGNMENT ( #232, #356, ( #286 ) ) ;
#51 = DIRECTION ( 'NONE',  ( 1.000000000000000000, 0.000000000000000000, 0.000000000000000000 ) ) ;
#52 = AXIS2_PLACEMENT_3D ( 'NONE', #138, #282, #254 ) ;
#53 = VERTEX_POINT ( 'NONE', #330 ) ;
#54 = EDGE_CURVE ( 'NONE', #185, #318, #223, .T. ) ;
#55 = DIRECTION ( 'NONE',  ( -0.000000000000000000, -0.000000000000000000, -1.000000000000000000 ) ) ;
#56 = VERTEX_POINT ( 'NONE', #122 ) ;
#57 = CIRCLE ( 'NONE', #230, 5.000000000000000000 ) ;
#58 = ORGANIZATION ( 'NEURÈENÝ', 'NEURÈENÝ', '' ) ;
#59 = EDGE_LOOP ( 'NONE', ( #207, #87, #79, #129 ) ) ;
#60 = CARTESIAN_POINT ( 'NONE',  ( -2.799999999999999822, 3.429011037612588783E-16, 3.299999999999997158 ) ) ;
#61 = EDGE_CURVE ( 'NONE', #66, #89, #161, .T. ) ;
#62 = COORDINATED_UNIVERSAL_TIME_OFFSET ( 1, 0, .AHEAD. ) ;
#63 = LINE ( 'NONE', #6, #205 ) ;
#64 = APPROVAL_ROLE ( '' ) ;
#65 = DIRECTION ( 'NONE',  ( 1.000000000000000000, 0.000000000000000000, 0.000000000000000000 ) ) ;
#66 = VERTEX_POINT ( 'NONE', #147 ) ;
#67 = COORDINATED_UNIVERSAL_TIME_OFFSET ( 1, 0, .AHEAD. ) ;
#68 = CC_DESIGN_PERSON_AND_ORGANIZATION_ASSIGNMENT ( #183, #144, ( #33 ) ) ;
#69 = CARTESIAN_POINT ( 'NONE',  ( 5.000000000000000000, 6.123233995736766282E-16, 0.000000000000000000 ) ) ;
#70 = EDGE_LOOP ( 'NONE', ( #23, #299, #26, #227 ) ) ;
#71 = CARTESIAN_POINT ( 'NONE',  ( 0.000000000000000000, 0.000000000000000000, 128.0000000000000000 ) ) ;
#72 = ORIENTED_EDGE ( 'NONE', *, *, #134, .T. ) ;
#73 = VECTOR ( 'NONE', #154, 1000.000000000000000 ) ;
#74 = CARTESIAN_POINT ( 'NONE',  ( 0.000000000000000000, 0.000000000000000000, 3.000000000000000000 ) ) ;
#75 = AXIS2_PLACEMENT_3D ( 'NONE', #303, #21, #275 ) ;
#76 = DIRECTION ( 'NONE',  ( 0.000000000000000000, 0.000000000000000000, -1.000000000000000000 ) ) ;
#77 = CARTESIAN_POINT ( 'NONE',  ( 0.000000000000000000, 0.000000000000000000, 3.299999999999997158 ) ) ;
#78 = CARTESIAN_POINT ( 'NONE',  ( 0.000000000000000000, 0.000000000000000000, 3.000000000000000000 ) ) ;
#79 = ORIENTED_EDGE ( 'NONE', *, *, #296, .T. ) ;
#80 = AXIS2_PLACEMENT_3D ( 'NONE', #194, #347, #344 ) ;
#81 = CARTESIAN_POINT ( 'NONE',  ( -5.000000000000000000, 0.000000000000000000, 3.000000000000000000 ) ) ;
#82 = EDGE_LOOP ( 'NONE', ( #250, #116 ) ) ;
#83 = DIRECTION ( 'NONE',  ( -0.000000000000000000, -0.000000000000000000, -1.000000000000000000 ) ) ;
#84 = EDGE_LOOP ( 'NONE', ( #14, #104 ) ) ;
#85 = AXIS2_PLACEMENT_3D ( 'NONE', #367, #105, #335 ) ;
#86 = CARTESIAN_POINT ( 'NONE',  ( 5.000000000000000000, 6.123233995736766282E-16, 3.000000000000000000 ) ) ;
#87 = ORIENTED_EDGE ( 'NONE', *, *, #290, .T. ) ;
#88 = DIRECTION ( 'NONE',  ( -0.000000000000000000, -0.000000000000000000, -1.000000000000000000 ) ) ;
#89 = VERTEX_POINT ( 'NONE', #325 ) ;
#90 = FACE_OUTER_BOUND ( 'NONE', #142, .T. ) ;
#91 = CIRCLE ( 'NONE', #352, 0.2999999999999999334 ) ;
#92 = CIRCLE ( 'NONE', #80, 2.500000000000000000 ) ;
#93 = CALENDAR_DATE ( 2022, 8, 7 ) ;
#94 = DIRECTION ( 'NONE',  ( -1.000000000000000000, 0.000000000000000000, 0.000000000000000000 ) ) ;
#95 = EDGE_CURVE ( 'NONE', #152, #165, #278, .T. ) ;
#96 = CALENDAR_DATE ( 2022, 8, 7 ) ;
#97 = CARTESIAN_POINT ( 'NONE',  ( 1.500000000000000222, 1.836970198721030181E-16, 128.0000000000000000 ) ) ;
#98 = ADVANCED_BREP_SHAPE_REPRESENTATION ( 'ec36', ( #27, #279 ), #372 ) ;
#99 = VERTEX_POINT ( 'NONE', #97 ) ;
#100 = ADVANCED_FACE ( 'NONE', ( #265 ), #184, .T. ) ;
#101 = VECTOR ( 'NONE', #88, 1000.000000000000000 ) ;
#102 = CARTESIAN_POINT ( 'NONE',  ( 0.000000000000000000, 0.000000000000000000, 128.0000000000000000 ) ) ;
#103 = DIRECTION ( 'NONE',  ( 1.000000000000000000, 0.000000000000000000, 0.000000000000000000 ) ) ;
#104 = ORIENTED_EDGE ( 'NONE', *, *, #369, .T. ) ;
#105 = DIRECTION ( 'NONE',  ( 0.000000000000000000, 0.000000000000000000, 1.000000000000000000 ) ) ;
#106 = LOCAL_TIME ( 17, 45, 51.00000000000000000, #261 ) ;
#107 = EDGE_CURVE ( 'NONE', #66, #53, #63, .T. ) ;
#108 = DATE_TIME_ROLE ( 'classification_date' ) ;
#109 = CC_DESIGN_DATE_AND_TIME_ASSIGNMENT ( #361, #153, ( #33 ) ) ;
#110 = ORIENTED_EDGE ( 'NONE', *, *, #307, .T. ) ;
#111 = DIRECTION ( 'NONE',  ( 0.000000000000000000, 0.000000000000000000, 1.000000000000000000 ) ) ;
#112 = VERTEX_POINT ( 'NONE', #321 ) ;
#113 = CARTESIAN_POINT ( 'NONE',  ( 5.000000000000000000, 6.123233995736766282E-16, 3.000000000000000000 ) ) ;
#114 = AXIS2_PLACEMENT_3D ( 'NONE', #355, #2, #177 ) ;
#115 = DIRECTION ( 'NONE',  ( 1.000000000000000000, 0.000000000000000000, 0.000000000000000000 ) ) ;
#116 = ORIENTED_EDGE ( 'NONE', *, *, #151, .T. ) ;
#117 = ADVANCED_FACE ( 'NONE', ( #238 ), #167, .F. ) ;
#118 = VERTEX_POINT ( 'NONE', #69 ) ;
#119 = EDGE_CURVE ( 'NONE', #53, #165, #91, .T. ) ;
#120 = AXIS2_PLACEMENT_3D ( 'NONE', #180, #38, #358 ) ;
#121 =( NAMED_UNIT ( * ) PLANE_ANGLE_UNIT ( ) SI_UNIT ( $, .RADIAN. ) );
#122 = CARTESIAN_POINT ( 'NONE',  ( 2.500000000000000000, 3.061616997868383141E-16, 3.299999999999997158 ) ) ;
#123 = EDGE_CURVE ( 'NONE', #326, #99, #266, .T. ) ;
#124 = VERTEX_POINT ( 'NONE', #145 ) ;
#125 = MECHANICAL_CONTEXT ( 'NONE', #274, 'mechanical' ) ;
#126 = DIRECTION ( 'NONE',  ( 0.000000000000000000, 0.000000000000000000, 1.000000000000000000 ) ) ;
#127 = AXIS2_PLACEMENT_3D ( 'NONE', #216, #245, #271 ) ;
#128 = ORIENTED_EDGE ( 'NONE', *, *, #283, .F. ) ;
#129 = ORIENTED_EDGE ( 'NONE', *, *, #182, .F. ) ;
#130 = APPROVAL ( #208, 'NEURÈENÝ' ) ;
#131 = CIRCLE ( 'NONE', #85, 5.000000000000000000 ) ;
#132 = DIRECTION ( 'NONE',  ( 0.000000000000000000, 0.000000000000000000, 1.000000000000000000 ) ) ;
#133 = FACE_OUTER_BOUND ( 'NONE', #70, .T. ) ;
#134 = EDGE_CURVE ( 'NONE', #263, #112, #239, .T. ) ;
#135 = ORIENTED_EDGE ( 'NONE', *, *, #8, .F. ) ;
#136 = CARTESIAN_POINT ( 'NONE',  ( 0.000000000000000000, 0.000000000000000000, 0.000000000000000000 ) ) ;
#137 = AXIS2_PLACEMENT_3D ( 'NONE', #78, #191, #285 ) ;
#138 = CARTESIAN_POINT ( 'NONE',  ( 0.000000000000000000, 0.000000000000000000, 128.0000000000000000 ) ) ;
#139 = FACE_OUTER_BOUND ( 'NONE', #84, .T. ) ;
#140 = ORIENTED_EDGE ( 'NONE', *, *, #123, .F. ) ;
#141 = DIRECTION ( 'NONE',  ( 1.000000000000000000, 0.000000000000000000, 0.000000000000000000 ) ) ;
#142 = EDGE_LOOP ( 'NONE', ( #331, #1, #200, #135 ) ) ;
#143 = ADVANCED_FACE ( 'NONE', ( #294, #301 ), #156, .T. ) ;
#144 = PERSON_AND_ORGANIZATION_ROLE ( 'creator' ) ;
#145 = CARTESIAN_POINT ( 'NONE',  ( -5.000000000000000000, 0.000000000000000000, 0.000000000000000000 ) ) ;
#146 = PERSON_AND_ORGANIZATION_ROLE ( 'design_supplier' ) ;
#147 = CARTESIAN_POINT ( 'NONE',  ( -2.500000000000000000, 0.000000000000000000, 128.0000000000000000 ) ) ;
#148 = APPROVAL_PERSON_ORGANIZATION ( #264, #170, #288 ) ;
#149 = DIRECTION ( 'NONE',  ( 0.000000000000000000, 0.000000000000000000, 1.000000000000000000 ) ) ;
#150 = DIRECTION ( 'NONE',  ( 1.000000000000000000, 0.000000000000000000, 0.000000000000000000 ) ) ;
#151 = EDGE_CURVE ( 'NONE', #318, #185, #57, .T. ) ;
#152 = VERTEX_POINT ( 'NONE', #244 ) ;
#153 = DATE_TIME_ROLE ( 'creation_date' ) ;
#154 = DIRECTION ( 'NONE',  ( -0.000000000000000000, -0.000000000000000000, -1.000000000000000000 ) ) ;
#155 = ORIENTED_EDGE ( 'NONE', *, *, #46, .T. ) ;
#156 = PLANE ( 'NONE',  #217 ) ;
#157 = EDGE_LOOP ( 'NONE', ( #379, #155, #328, #371 ) ) ;
#158 = EDGE_CURVE ( 'NONE', #53, #56, #5, .T. ) ;
#159 = DATE_AND_TIME ( #160, #41 ) ;
#160 = CALENDAR_DATE ( 2022, 8, 7 ) ;
#161 = CIRCLE ( 'NONE', #212, 2.500000000000000000 ) ;
#162 = DATE_AND_TIME ( #178, #214 ) ;
#163 = AXIS2_PLACEMENT_3D ( 'NONE', #243, #365, #103 ) ;
#164 = LINE ( 'NONE', #366, #354 ) ;
#165 = VERTEX_POINT ( 'NONE', #219 ) ;
#166 = CARTESIAN_POINT ( 'NONE',  ( 1.500000000000000222, 1.836970198721030181E-16, 128.0000000000000000 ) ) ;
#167 = TOROIDAL_SURFACE ( 'NONE', #3, 2.799999999999999822, 0.2999999999999999889 ) ;
#168 = CYLINDRICAL_SURFACE ( 'NONE', #52, 1.500000000000000222 ) ;
#169 = EDGE_LOOP ( 'NONE', ( #287, #284, #251, #193 ) ) ;
#170 = APPROVAL ( #350, 'NEURÈENÝ' ) ;
#171 = FACE_BOUND ( 'NONE', #48, .T. ) ;
#172 = ORIENTED_EDGE ( 'NONE', *, *, #314, .T. ) ;
#173 = ADVANCED_FACE ( 'NONE', ( #19 ), #247, .F. ) ;
#174 = PRODUCT_DEFINITION_FORMATION_WITH_SPECIFIED_SOURCE ( 'LIBOVOLNÝ', '', #198, .NOT_KNOWN. ) ;
#175 = CARTESIAN_POINT ( 'NONE',  ( 0.000000000000000000, 0.000000000000000000, 128.0000000000000000 ) ) ;
#176 = PERSON_AND_ORGANIZATION ( #316, #58 ) ;
#177 = DIRECTION ( 'NONE',  ( 1.000000000000000000, 0.000000000000000000, 0.000000000000000000 ) ) ;
#178 = CALENDAR_DATE ( 2022, 8, 7 ) ;
#179 = CIRCLE ( 'NONE', #18, 1.500000000000000222 ) ;
#180 = CARTESIAN_POINT ( 'NONE',  ( 0.000000000000000000, 0.000000000000000000, 3.000000000000000000 ) ) ;
#181 = APPROVAL_PERSON_ORGANIZATION ( #322, #130, #64 ) ;
#182 = EDGE_CURVE ( 'NONE', #326, #263, #164, .T. ) ;
#183 = PERSON_AND_ORGANIZATION ( #316, #58 ) ;
#184 = CYLINDRICAL_SURFACE ( 'NONE', #378, 2.500000000000000000 ) ;
#185 = VERTEX_POINT ( 'NONE', #269 ) ;
#186 = DIRECTION ( 'NONE',  ( 1.224646799147353207E-16, 1.000000000000000000, -0.000000000000000000 ) ) ;
#187 = DIRECTION ( 'NONE',  ( 1.000000000000000000, 0.000000000000000000, -0.000000000000000000 ) ) ;
#188 = CIRCLE ( 'NONE', #272, 0.2999999999999999334 ) ;
#189 = ADVANCED_FACE ( 'NONE', ( #211 ), #16, .T. ) ;
#190 = FACE_BOUND ( 'NONE', #343, .T. ) ;
#191 = DIRECTION ( 'NONE',  ( -0.000000000000000000, -0.000000000000000000, -1.000000000000000000 ) ) ;
#192 = ORIENTED_EDGE ( 'NONE', *, *, #182, .T. ) ;
#193 = ORIENTED_EDGE ( 'NONE', *, *, #158, .T. ) ;
#194 = CARTESIAN_POINT ( 'NONE',  ( 0.000000000000000000, 0.000000000000000000, 3.299999999999997158 ) ) ;
#195 = CC_DESIGN_PERSON_AND_ORGANIZATION_ASSIGNMENT ( #228, #203, ( #198 ) ) ;
#196 = CC_DESIGN_APPROVAL ( #170, ( #174 ) ) ;
#197 = ORIENTED_EDGE ( 'NONE', *, *, #8, .T. ) ;
#198 = PRODUCT ( 'ec36', 'ec36', '', ( #125 ) ) ;
#199 = CARTESIAN_POINT ( 'NONE',  ( 0.000000000000000000, 0.000000000000000000, 3.000000000000000000 ) ) ;
#200 = ORIENTED_EDGE ( 'NONE', *, *, #95, .F. ) ;
#201 = DATE_AND_TIME ( #93, #20 ) ;
#202 = CARTESIAN_POINT ( 'NONE',  ( 0.000000000000000000, 0.000000000000000000, 3.299999999999997158 ) ) ;
#203 = PERSON_AND_ORGANIZATION_ROLE ( 'design_owner' ) ;
#204 = APPROVAL_DATE_TIME ( #319, #130 ) ;
#205 = VECTOR ( 'NONE', #292, 1000.000000000000000 ) ;
#206 = DIRECTION ( 'NONE',  ( 0.000000000000000000, 0.000000000000000000, 1.000000000000000000 ) ) ;
#207 = ORIENTED_EDGE ( 'NONE', *, *, #123, .T. ) ;
#208 = APPROVAL_STATUS ( 'not_yet_approved' ) ;
#209 = LINE ( 'NONE', #289, #73 ) ;
#210 = COORDINATED_UNIVERSAL_TIME_OFFSET ( 1, 0, .AHEAD. ) ;
#211 = FACE_OUTER_BOUND ( 'NONE', #281, .T. ) ;
#212 = AXIS2_PLACEMENT_3D ( 'NONE', #102, #149, #65 ) ;
#213 = ORIENTED_EDGE ( 'NONE', *, *, #290, .F. ) ;
#214 = LOCAL_TIME ( 17, 45, 51.00000000000000000, #62 ) ;
#215 = DIRECTION ( 'NONE',  ( 1.000000000000000000, 0.000000000000000000, 0.000000000000000000 ) ) ;
#216 = CARTESIAN_POINT ( 'NONE',  ( 0.000000000000000000, 0.000000000000000000, 3.000000000000000000 ) ) ;
#217 = AXIS2_PLACEMENT_3D ( 'NONE', #74, #336, #187 ) ;
#218 = CIRCLE ( 'NONE', #341, 5.000000000000000000 ) ;
#219 = CARTESIAN_POINT ( 'NONE',  ( -2.799999999999999822, 3.429011037612589276E-16, 2.999999999999998668 ) ) ;
#220 = ORIENTED_EDGE ( 'NONE', *, *, #95, .T. ) ;
#221 = DIRECTION ( 'NONE',  ( 1.000000000000000000, 0.000000000000000000, 0.000000000000000000 ) ) ;
#222 = CC_DESIGN_PERSON_AND_ORGANIZATION_ASSIGNMENT ( #176, #291, ( #174 ) ) ;
#223 = CIRCLE ( 'NONE', #114, 5.000000000000000000 ) ;
#224 = AXIS2_PLACEMENT_3D ( 'NONE', #199, #55, #115 ) ;
#225 = CARTESIAN_POINT ( 'NONE',  ( 2.799999999999999822, 0.000000000000000000, 3.299999999999997158 ) ) ;
#226 = DIRECTION ( 'NONE',  ( -0.000000000000000000, -0.000000000000000000, -1.000000000000000000 ) ) ;
#227 = ORIENTED_EDGE ( 'NONE', *, *, #376, .T. ) ;
#228 = PERSON_AND_ORGANIZATION ( #316, #58 ) ;
#229 = DIRECTION ( 'NONE',  ( 0.000000000000000000, -1.000000000000000000, 0.000000000000000000 ) ) ;
#230 = AXIS2_PLACEMENT_3D ( 'NONE', #47, #132, #22 ) ;
#231 = AXIS2_PLACEMENT_3D ( 'NONE', #30, #252, #375 ) ;
#232 = PERSON_AND_ORGANIZATION ( #316, #58 ) ;
#233 = CARTESIAN_POINT ( 'NONE',  ( 0.000000000000000000, 0.000000000000000000, 0.000000000000000000 ) ) ;
#234 = EDGE_CURVE ( 'NONE', #118, #124, #131, .T. ) ;
#235 = DIRECTION ( 'NONE',  ( 1.000000000000000000, 0.000000000000000000, 0.000000000000000000 ) ) ;
#236 = ORIENTED_EDGE ( 'NONE', *, *, #119, .F. ) ;
#237 = CALENDAR_DATE ( 2022, 8, 7 ) ;
#238 = FACE_OUTER_BOUND ( 'NONE', #49, .T. ) ;
#239 = CIRCLE ( 'NONE', #11, 1.500000000000000222 ) ;
#240 = CIRCLE ( 'NONE', #13, 2.500000000000000000 ) ;
#241 = EDGE_LOOP ( 'NONE', ( #10, #310 ) ) ;
#242 = APPROVAL ( #268, 'NEURÈENÝ' ) ;
#243 = CARTESIAN_POINT ( 'NONE',  ( 0.000000000000000000, 0.000000000000000000, 128.0000000000000000 ) ) ;
#244 = CARTESIAN_POINT ( 'NONE',  ( 2.799999999999999822, 0.000000000000000000, 2.999999999999998668 ) ) ;
#245 = DIRECTION ( 'NONE',  ( -0.000000000000000000, -0.000000000000000000, -1.000000000000000000 ) ) ;
#246 = LOCAL_TIME ( 17, 45, 51.00000000000000000, #67 ) ;
#247 = CYLINDRICAL_SURFACE ( 'NONE', #312, 1.500000000000000222 ) ;
#248 = ADVANCED_FACE ( 'NONE', ( #190, #305 ), #339, .F. ) ;
#249 = DIRECTION ( 'NONE',  ( 0.000000000000000000, 0.000000000000000000, 1.000000000000000000 ) ) ;
#250 = ORIENTED_EDGE ( 'NONE', *, *, #54, .T. ) ;
#251 = ORIENTED_EDGE ( 'NONE', *, *, #107, .T. ) ;
#252 = DIRECTION ( 'NONE',  ( -0.000000000000000000, -0.000000000000000000, -1.000000000000000000 ) ) ;
#253 = CC_DESIGN_DATE_AND_TIME_ASSIGNMENT ( #162, #108, ( #286 ) ) ;
#254 = DIRECTION ( 'NONE',  ( -1.000000000000000000, 0.000000000000000000, 0.000000000000000000 ) ) ;
#255 = VECTOR ( 'NONE', #83, 1000.000000000000000 ) ;
#256 = PLANE ( 'NONE',  #295 ) ;
#257 =( LENGTH_UNIT ( ) NAMED_UNIT ( * ) SI_UNIT ( .MILLI., .METRE. ) );
#258 = ADVANCED_FACE ( 'NONE', ( #133 ), #370, .T. ) ;
#259 = DIRECTION ( 'NONE',  ( -1.000000000000000000, 1.224646799147353207E-16, 0.000000000000000000 ) ) ;
#260 = APPROVAL_PERSON_ORGANIZATION ( #300, #242, #15 ) ;
#261 = COORDINATED_UNIVERSAL_TIME_OFFSET ( 1, 0, .AHEAD. ) ;
#262 = EDGE_CURVE ( 'NONE', #185, #124, #377, .T. ) ;
#263 = VERTEX_POINT ( 'NONE', #345 ) ;
#264 = PERSON_AND_ORGANIZATION ( #316, #58 ) ;
#265 = FACE_OUTER_BOUND ( 'NONE', #157, .T. ) ;
#266 = CIRCLE ( 'NONE', #163, 1.500000000000000222 ) ;
#267 = CC_DESIGN_APPROVAL ( #242, ( #286 ) ) ;
#268 = APPROVAL_STATUS ( 'not_yet_approved' ) ;
#269 = CARTESIAN_POINT ( 'NONE',  ( -5.000000000000000000, 0.000000000000000000, 3.000000000000000000 ) ) ;
#270 = ORIENTED_EDGE ( 'NONE', *, *, #234, .T. ) ;
#271 = DIRECTION ( 'NONE',  ( -1.000000000000000000, 0.000000000000000000, 0.000000000000000000 ) ) ;
#272 = AXIS2_PLACEMENT_3D ( 'NONE', #225, #229, #351 ) ;
#273 = CC_DESIGN_SECURITY_CLASSIFICATION ( #286, ( #174 ) ) ;
#274 = APPLICATION_CONTEXT ( 'configuration controlled 3d designs of mechanical parts and assemblies' ) ;
#275 = DIRECTION ( 'NONE',  ( 1.000000000000000000, 0.000000000000000000, -0.000000000000000000 ) ) ;
#276 = DIRECTION ( 'NONE',  ( 0.000000000000000000, 0.000000000000000000, -1.000000000000000000 ) ) ;
#277 = FACE_OUTER_BOUND ( 'NONE', #59, .T. ) ;
#278 = CIRCLE ( 'NONE', #120, 2.799999999999999822 ) ;
#279 = AXIS2_PLACEMENT_3D ( 'NONE', #9, #43, #150 ) ;
#280 = CYLINDRICAL_SURFACE ( 'NONE', #231, 2.500000000000000000 ) ;
#281 = EDGE_LOOP ( 'NONE', ( #313, #110, #270, #348 ) ) ;
#282 = DIRECTION ( 'NONE',  ( 0.000000000000000000, 0.000000000000000000, -1.000000000000000000 ) ) ;
#283 = EDGE_CURVE ( 'NONE', #56, #53, #92, .T. ) ;
#284 = ORIENTED_EDGE ( 'NONE', *, *, #61, .F. ) ;
#285 = DIRECTION ( 'NONE',  ( -1.000000000000000000, 0.000000000000000000, 0.000000000000000000 ) ) ;
#286 = SECURITY_CLASSIFICATION ( '', '', #4 ) ;
#287 = ORIENTED_EDGE ( 'NONE', *, *, #46, .F. ) ;
#288 = APPROVAL_ROLE ( '' ) ;
#289 = CARTESIAN_POINT ( 'NONE',  ( 2.500000000000000000, 3.061616997868383141E-16, 128.0000000000000000 ) ) ;
#290 = EDGE_CURVE ( 'NONE', #99, #112, #36, .T. ) ;
#291 = PERSON_AND_ORGANIZATION_ROLE ( 'creator' ) ;
#292 = DIRECTION ( 'NONE',  ( -0.000000000000000000, -0.000000000000000000, -1.000000000000000000 ) ) ;
#293 = AXIS2_PLACEMENT_3D ( 'NONE', #42, #126, #297 ) ;
#294 = FACE_BOUND ( 'NONE', #308, .T. ) ;
#295 = AXIS2_PLACEMENT_3D ( 'NONE', #311, #111, #342 ) ;
#296 = EDGE_CURVE ( 'NONE', #112, #263, #28, .T. ) ;
#297 = DIRECTION ( 'NONE',  ( 1.000000000000000000, 0.000000000000000000, 0.000000000000000000 ) ) ;
#298 = APPLICATION_PROTOCOL_DEFINITION ( 'international standard', 'config_control_design', 1994, #274 ) ;
#299 = ORIENTED_EDGE ( 'NONE', *, *, #54, .F. ) ;
#300 = PERSON_AND_ORGANIZATION ( #316, #58 ) ;
#301 = FACE_OUTER_BOUND ( 'NONE', #82, .T. ) ;
#302 = CC_DESIGN_PERSON_AND_ORGANIZATION_ASSIGNMENT ( #39, #146, ( #174 ) ) ;
#303 = CARTESIAN_POINT ( 'NONE',  ( 0.000000000000000000, 0.000000000000000000, 0.000000000000000000 ) ) ;
#304 = UNCERTAINTY_MEASURE_WITH_UNIT (LENGTH_MEASURE( 1.000000000000000082E-05 ), #257, 'distance_accuracy_value', 'NONE');
#305 = FACE_OUTER_BOUND ( 'NONE', #241, .T. ) ;
#306 = CIRCLE ( 'NONE', #224, 2.799999999999999822 ) ;
#307 = EDGE_CURVE ( 'NONE', #318, #118, #309, .T. ) ;
#308 = EDGE_LOOP ( 'NONE', ( #220, #172 ) ) ;
#309 = LINE ( 'NONE', #86, #101 ) ;
#310 = ORIENTED_EDGE ( 'NONE', *, *, #234, .F. ) ;
#311 = CARTESIAN_POINT ( 'NONE',  ( 0.000000000000000000, 0.000000000000000000, 128.0000000000000000 ) ) ;
#312 = AXIS2_PLACEMENT_3D ( 'NONE', #71, #76, #45 ) ;
#313 = ORIENTED_EDGE ( 'NONE', *, *, #151, .F. ) ;
#314 = EDGE_CURVE ( 'NONE', #165, #152, #306, .T. ) ;
#315 = CARTESIAN_POINT ( 'NONE',  ( -1.500000000000000222, 0.000000000000000000, 128.0000000000000000 ) ) ;
#316 = PERSON ( 'NEURÈENÝ', 'NEURÈENÝ', 'NEURÈENÝ', ('NEURÈENÝ'), ('NEURÈENÝ'), ('NEURÈENÝ') ) ;
#317 = CARTESIAN_POINT ( 'NONE',  ( 0.000000000000000000, 0.000000000000000000, 0.000000000000000000 ) ) ;
#318 = VERTEX_POINT ( 'NONE', #113 ) ;
#319 = DATE_AND_TIME ( #96, #106 ) ;
#320 = APPROVAL_DATE_TIME ( #201, #170 ) ;
#321 = CARTESIAN_POINT ( 'NONE',  ( 1.500000000000000222, 1.836970198721030181E-16, 0.000000000000000000 ) ) ;
#322 = PERSON_AND_ORGANIZATION ( #316, #58 ) ;
#323 = DIRECTION ( 'NONE',  ( 1.000000000000000000, 0.000000000000000000, 0.000000000000000000 ) ) ;
#324 = CLOSED_SHELL ( 'NONE', ( #359, #29, #100, #189, #258, #143, #248, #381, #332, #117, #173 ) ) ;
#325 = CARTESIAN_POINT ( 'NONE',  ( 2.500000000000000000, 3.061616997868383141E-16, 128.0000000000000000 ) ) ;
#326 = VERTEX_POINT ( 'NONE', #315 ) ;
#327 = DIRECTION ( 'NONE',  ( 1.000000000000000000, 0.000000000000000000, 0.000000000000000000 ) ) ;
#328 = ORIENTED_EDGE ( 'NONE', *, *, #283, .T. ) ;
#329 = APPROVAL_DATE_TIME ( #159, #242 ) ;
#330 = CARTESIAN_POINT ( 'NONE',  ( -2.500000000000000000, 0.000000000000000000, 3.299999999999997158 ) ) ;
#331 = ORIENTED_EDGE ( 'NONE', *, *, #158, .F. ) ;
#332 = ADVANCED_FACE ( 'NONE', ( #171, #139 ), #256, .T. ) ;
#333 = CC_DESIGN_APPROVAL ( #130, ( #33 ) ) ;
#334 = SHAPE_DEFINITION_REPRESENTATION ( #34, #98 ) ;
#335 = DIRECTION ( 'NONE',  ( 1.000000000000000000, 0.000000000000000000, 0.000000000000000000 ) ) ;
#336 = DIRECTION ( 'NONE',  ( 0.000000000000000000, 0.000000000000000000, 1.000000000000000000 ) ) ;
#337 = APPLICATION_CONTEXT ( 'configuration controlled 3d designs of mechanical parts and assemblies' ) ;
#338 = DESIGN_CONTEXT ( 'detailed design', #337, 'design' ) ;
#339 = PLANE ( 'NONE',  #75 ) ;
#340 = EDGE_LOOP ( 'NONE', ( #213, #32, #192, #72 ) ) ;
#341 = AXIS2_PLACEMENT_3D ( 'NONE', #317, #380, #51 ) ;
#342 = DIRECTION ( 'NONE',  ( 1.000000000000000000, 0.000000000000000000, -0.000000000000000000 ) ) ;
#343 = EDGE_LOOP ( 'NONE', ( #44, #360 ) ) ;
#344 = DIRECTION ( 'NONE',  ( 1.000000000000000000, 0.000000000000000000, 0.000000000000000000 ) ) ;
#345 = CARTESIAN_POINT ( 'NONE',  ( -1.500000000000000222, 0.000000000000000000, 0.000000000000000000 ) ) ;
#346 = PRODUCT_RELATED_PRODUCT_CATEGORY ( 'detail', '', ( #198 ) ) ;
#347 = DIRECTION ( 'NONE',  ( 0.000000000000000000, 0.000000000000000000, 1.000000000000000000 ) ) ;
#348 = ORIENTED_EDGE ( 'NONE', *, *, #262, .F. ) ;
#349 = FACE_OUTER_BOUND ( 'NONE', #169, .T. ) ;
#350 = APPROVAL_STATUS ( 'not_yet_approved' ) ;
#351 = DIRECTION ( 'NONE',  ( 0.000000000000000000, 0.000000000000000000, -1.000000000000000000 ) ) ;
#352 = AXIS2_PLACEMENT_3D ( 'NONE', #60, #186, #259 ) ;
#353 = COORDINATED_UNIVERSAL_TIME_OFFSET ( 1, 0, .AHEAD. ) ;
#354 = VECTOR ( 'NONE', #276, 1000.000000000000000 ) ;
#355 = CARTESIAN_POINT ( 'NONE',  ( 0.000000000000000000, 0.000000000000000000, 3.000000000000000000 ) ) ;
#356 = PERSON_AND_ORGANIZATION_ROLE ( 'classification_officer' ) ;
#357 = DIRECTION ( 'NONE',  ( -0.000000000000000000, -0.000000000000000000, -1.000000000000000000 ) ) ;
#358 = DIRECTION ( 'NONE',  ( 1.000000000000000000, 0.000000000000000000, 0.000000000000000000 ) ) ;
#359 = ADVANCED_FACE ( 'NONE', ( #277 ), #168, .F. ) ;
#360 = ORIENTED_EDGE ( 'NONE', *, *, #296, .F. ) ;
#361 = DATE_AND_TIME ( #237, #246 ) ;
#362 = DIRECTION ( 'NONE',  ( 0.000000000000000000, 0.000000000000000000, 1.000000000000000000 ) ) ;
#363 = AXIS2_PLACEMENT_3D ( 'NONE', #77, #249, #215 ) ;
#364 = ORIENTED_EDGE ( 'NONE', *, *, #40, .F. ) ;
#365 = DIRECTION ( 'NONE',  ( 0.000000000000000000, 0.000000000000000000, 1.000000000000000000 ) ) ;
#366 = CARTESIAN_POINT ( 'NONE',  ( -1.500000000000000222, 0.000000000000000000, 128.0000000000000000 ) ) ;
#367 = CARTESIAN_POINT ( 'NONE',  ( 0.000000000000000000, 0.000000000000000000, 0.000000000000000000 ) ) ;
#368 = VECTOR ( 'NONE', #31, 1000.000000000000000 ) ;
#369 = EDGE_CURVE ( 'NONE', #89, #66, #240, .T. ) ;
#370 = CYLINDRICAL_SURFACE ( 'NONE', #137, 5.000000000000000000 ) ;
#371 = ORIENTED_EDGE ( 'NONE', *, *, #107, .F. ) ;
#372 =( GEOMETRIC_REPRESENTATION_CONTEXT ( 3 ) GLOBAL_UNCERTAINTY_ASSIGNED_CONTEXT ( ( #304 ) ) GLOBAL_UNIT_ASSIGNED_CONTEXT ( ( #257, #121, #7 ) ) REPRESENTATION_CONTEXT ( 'NONE', 'WORKASPACE' ) );
#373 = CARTESIAN_POINT ( 'NONE',  ( 0.000000000000000000, 0.000000000000000000, 128.0000000000000000 ) ) ;
#374 = CARTESIAN_POINT ( 'NONE',  ( 0.000000000000000000, 0.000000000000000000, 128.0000000000000000 ) ) ;
#375 = DIRECTION ( 'NONE',  ( -1.000000000000000000, 0.000000000000000000, 0.000000000000000000 ) ) ;
#376 = EDGE_CURVE ( 'NONE', #124, #118, #218, .T. ) ;
#377 = LINE ( 'NONE', #81, #255 ) ;
#378 = AXIS2_PLACEMENT_3D ( 'NONE', #175, #12, #94 ) ;
#379 = ORIENTED_EDGE ( 'NONE', *, *, #369, .F. ) ;
#380 = DIRECTION ( 'NONE',  ( 0.000000000000000000, 0.000000000000000000, 1.000000000000000000 ) ) ;
#381 = ADVANCED_FACE ( 'NONE', ( #349 ), #280, .T. ) ;
ENDSEC;
END-ISO-10303-21;
