ISO-10303-21;
HEADER;
FILE_DESCRIPTION (( 'STEP AP203' ),
    '1' );
FILE_NAME ('2366.STEP',
    '2022-07-08T14:44:04',
    ( '' ),
    ( '' ),
    'SwSTEP 2.0',
    'SolidWorks 2019',
    '' );
FILE_SCHEMA (( 'CONFIG_CONTROL_DESIGN' ));
ENDSEC;

DATA;
#1 = DIRECTION ( 'NONE',  ( 0.000000000000000000, 0.000000000000000000, 1.000000000000000000 ) ) ;
#2 = PLANE ( 'NONE',  #225 ) ;
#3 = LOCAL_TIME ( 16, 44, 4.000000000000000000, #320 ) ;
#4 = CARTESIAN_POINT ( 'NONE',  ( 0.000000000000000000, 0.000000000000000000, 0.000000000000000000 ) ) ;
#5 = EDGE_CURVE ( 'NONE', #53, #326, #41, .T. ) ;
#6 = DIRECTION ( 'NONE',  ( 0.000000000000000000, 0.000000000000000000, 1.000000000000000000 ) ) ;
#7 = CARTESIAN_POINT ( 'NONE',  ( 0.000000000000000000, 0.000000000000000000, 5.499999999999949374 ) ) ;
#8 = AXIS2_PLACEMENT_3D ( 'NONE', #277, #339, #70 ) ;
#9 = ADVANCED_FACE ( 'NONE', ( #18 ), #82, .F. ) ;
#10 = CARTESIAN_POINT ( 'NONE',  ( -8.000000000000000000, 0.000000000000000000, 5.000000000000000000 ) ) ;
#11 = LINE ( 'NONE', #251, #119 ) ;
#12 = EDGE_LOOP ( 'NONE', ( #85, #43, #50, #292 ) ) ;
#13 = DIRECTION ( 'NONE',  ( 1.000000000000000000, 0.000000000000000000, 0.000000000000000000 ) ) ;
#14 = APPROVAL_PERSON_ORGANIZATION ( #76, #304, #290 ) ;
#15 = EDGE_CURVE ( 'NONE', #142, #286, #124, .T. ) ;
#16 = DIRECTION ( 'NONE',  ( -0.000000000000000000, -0.000000000000000000, -1.000000000000000000 ) ) ;
#17 = DATE_TIME_ROLE ( 'creation_date' ) ;
#18 = FACE_OUTER_BOUND ( 'NONE', #261, .T. ) ;
#19 = CIRCLE ( 'NONE', #301, 8.000000000000000000 ) ;
#20 = DATE_AND_TIME ( #323, #307 ) ;
#21 = ORIENTED_EDGE ( 'NONE', *, *, #5, .F. ) ;
#22 = PERSON_AND_ORGANIZATION ( #148, #237 ) ;
#23 = ORIENTED_EDGE ( 'NONE', *, *, #370, .F. ) ;
#24 = CALENDAR_DATE ( 2022, 8, 7 ) ;
#25 = CARTESIAN_POINT ( 'NONE',  ( 0.000000000000000000, 0.000000000000000000, 805.0000000000000000 ) ) ;
#26 = CC_DESIGN_APPROVAL ( #159, ( #136 ) ) ;
#27 = DIRECTION ( 'NONE',  ( 1.000000000000000000, 0.000000000000000000, 0.000000000000000000 ) ) ;
#28 = DIRECTION ( 'NONE',  ( -0.000000000000000000, -0.000000000000000000, -1.000000000000000000 ) ) ;
#29 = CYLINDRICAL_SURFACE ( 'NONE', #57, 8.000000000000000000 ) ;
#30 = ADVANCED_FACE ( 'NONE', ( #137 ), #147, .F. ) ;
#31 = CIRCLE ( 'NONE', #151, 5.000000000000000000 ) ;
#32 = FACE_OUTER_BOUND ( 'NONE', #347, .T. ) ;
#33 = CARTESIAN_POINT ( 'NONE',  ( -5.000000000000000000, 0.000000000000000000, 5.499999999999949374 ) ) ;
#34 = EDGE_CURVE ( 'NONE', #69, #264, #199, .T. ) ;
#35 = CARTESIAN_POINT ( 'NONE',  ( 0.000000000000000000, 0.000000000000000000, 5.000000000000000000 ) ) ;
#36 = AXIS2_PLACEMENT_3D ( 'NONE', #273, #360, #154 ) ;
#37 =( NAMED_UNIT ( * ) PLANE_ANGLE_UNIT ( ) SI_UNIT ( $, .RADIAN. ) );
#38 = VERTEX_POINT ( 'NONE', #47 ) ;
#39 = ORIENTED_EDGE ( 'NONE', *, *, #68, .T. ) ;
#40 = EDGE_CURVE ( 'NONE', #326, #53, #342, .T. ) ;
#41 = CIRCLE ( 'NONE', #80, 3.250000000000000444 ) ;
#42 = FACE_BOUND ( 'NONE', #73, .T. ) ;
#43 = ORIENTED_EDGE ( 'NONE', *, *, #180, .T. ) ;
#44 =( NAMED_UNIT ( * ) SI_UNIT ( $, .STERADIAN. ) SOLID_ANGLE_UNIT ( ) );
#45 = ORIENTED_EDGE ( 'NONE', *, *, #377, .F. ) ;
#46 = APPROVAL_DATE_TIME ( #352, #304 ) ;
#47 = CARTESIAN_POINT ( 'NONE',  ( 8.000000000000000000, 9.797174393178825657E-16, 0.000000000000000000 ) ) ;
#48 = MECHANICAL_CONTEXT ( 'NONE', #158, 'mechanical' ) ;
#49 = CIRCLE ( 'NONE', #319, 5.500000000000000000 ) ;
#50 = ORIENTED_EDGE ( 'NONE', *, *, #253, .T. ) ;
#51 = PERSON_AND_ORGANIZATION_ROLE ( 'creator' ) ;
#52 = EDGE_LOOP ( 'NONE', ( #288, #190, #354, #204 ) ) ;
#53 = VERTEX_POINT ( 'NONE', #378 ) ;
#54 = CC_DESIGN_DATE_AND_TIME_ASSIGNMENT ( #20, #17, ( #192 ) ) ;
#55 = CARTESIAN_POINT ( 'NONE',  ( 0.000000000000000000, 0.000000000000000000, 0.000000000000000000 ) ) ;
#56 = AXIS2_PLACEMENT_3D ( 'NONE', #25, #145, #206 ) ;
#57 = AXIS2_PLACEMENT_3D ( 'NONE', #300, #333, #356 ) ;
#58 = DIRECTION ( 'NONE',  ( -0.000000000000000000, -0.000000000000000000, -1.000000000000000000 ) ) ;
#59 = CARTESIAN_POINT ( 'NONE',  ( -5.000000000000000000, 0.000000000000000000, 805.0000000000000000 ) ) ;
#60 = CARTESIAN_POINT ( 'NONE',  ( -5.500000000000000000, 6.735557395310442023E-16, 5.499999999999949374 ) ) ;
#61 = APPROVAL_PERSON_ORGANIZATION ( #203, #215, #375 ) ;
#62 = PLANE ( 'NONE',  #266 ) ;
#63 = CARTESIAN_POINT ( 'NONE',  ( 0.000000000000000000, 0.000000000000000000, 805.0000000000000000 ) ) ;
#64 = ORIENTED_EDGE ( 'NONE', *, *, #293, .T. ) ;
#65 = LOCAL_TIME ( 16, 44, 4.000000000000000000, #267 ) ;
#66 =( GEOMETRIC_REPRESENTATION_CONTEXT ( 3 ) GLOBAL_UNCERTAINTY_ASSIGNED_CONTEXT ( ( #94 ) ) GLOBAL_UNIT_ASSIGNED_CONTEXT ( ( #364, #37, #44 ) ) REPRESENTATION_CONTEXT ( 'NONE', 'WORKASPACE' ) );
#67 = DIRECTION ( 'NONE',  ( -1.000000000000000000, 0.000000000000000000, 0.000000000000000000 ) ) ;
#68 = EDGE_CURVE ( 'NONE', #264, #69, #174, .T. ) ;
#69 = VERTEX_POINT ( 'NONE', #236 ) ;
#70 = DIRECTION ( 'NONE',  ( -1.000000000000000000, 0.000000000000000000, 0.000000000000000000 ) ) ;
#71 = CARTESIAN_POINT ( 'NONE',  ( 5.000000000000000000, 6.123233995736766282E-16, 805.0000000000000000 ) ) ;
#72 = AXIS2_PLACEMENT_3D ( 'NONE', #63, #312, #67 ) ;
#73 = EDGE_LOOP ( 'NONE', ( #366, #248 ) ) ;
#74 = ADVANCED_FACE ( 'NONE', ( #149, #362 ), #62, .T. ) ;
#75 = PRODUCT ( '2366', '2366', '', ( #48 ) ) ;
#76 = PERSON_AND_ORGANIZATION ( #148, #237 ) ;
#77 = ORIENTED_EDGE ( 'NONE', *, *, #280, .F. ) ;
#78 = ORIENTED_EDGE ( 'NONE', *, *, #293, .F. ) ;
#79 = PERSON_AND_ORGANIZATION ( #148, #237 ) ;
#80 = AXIS2_PLACEMENT_3D ( 'NONE', #376, #172, #198 ) ;
#81 = TOROIDAL_SURFACE ( 'NONE', #272, 5.500000000000000000, 0.5000000000000000000 ) ;
#82 = CYLINDRICAL_SURFACE ( 'NONE', #56, 3.250000000000000444 ) ;
#83 = DATE_AND_TIME ( #108, #244 ) ;
#84 = ADVANCED_FACE ( 'NONE', ( #32 ), #29, .T. ) ;
#85 = ORIENTED_EDGE ( 'NONE', *, *, #68, .F. ) ;
#86 = PERSON_AND_ORGANIZATION_ROLE ( 'classification_officer' ) ;
#87 = EDGE_LOOP ( 'NONE', ( #23, #297, #186, #313 ) ) ;
#88 = DIRECTION ( 'NONE',  ( 1.000000000000000000, 0.000000000000000000, -0.000000000000000000 ) ) ;
#89 = CC_DESIGN_APPROVAL ( #304, ( #192 ) ) ;
#90 = CARTESIAN_POINT ( 'NONE',  ( 8.000000000000000000, 9.797174393178825657E-16, 5.000000000000000000 ) ) ;
#91 = CARTESIAN_POINT ( 'NONE',  ( 0.000000000000000000, 0.000000000000000000, 805.0000000000000000 ) ) ;
#92 = CARTESIAN_POINT ( 'NONE',  ( 0.000000000000000000, 0.000000000000000000, 805.0000000000000000 ) ) ;
#93 = VECTOR ( 'NONE', #16, 1000.000000000000000 ) ;
#94 = UNCERTAINTY_MEASURE_WITH_UNIT (LENGTH_MEASURE( 1.000000000000000082E-05 ), #364, 'distance_accuracy_value', 'NONE');
#95 = CYLINDRICAL_SURFACE ( 'NONE', #98, 8.000000000000000000 ) ;
#96 = FACE_OUTER_BOUND ( 'NONE', #116, .T. ) ;
#97 = CARTESIAN_POINT ( 'NONE',  ( 0.000000000000000000, 0.000000000000000000, 5.499999999999949374 ) ) ;
#98 = AXIS2_PLACEMENT_3D ( 'NONE', #299, #28, #270 ) ;
#99 = CARTESIAN_POINT ( 'NONE',  ( 3.250000000000000444, 3.980102097228898231E-16, 805.0000000000000000 ) ) ;
#100 = ORIENTED_EDGE ( 'NONE', *, *, #327, .F. ) ;
#101 = DIRECTION ( 'NONE',  ( 0.000000000000000000, 0.000000000000000000, 1.000000000000000000 ) ) ;
#102 = CC_DESIGN_PERSON_AND_ORGANIZATION_ASSIGNMENT ( #141, #51, ( #192 ) ) ;
#103 = VERTEX_POINT ( 'NONE', #179 ) ;
#104 = APPROVAL_ROLE ( '' ) ;
#105 = VECTOR ( 'NONE', #371, 1000.000000000000000 ) ;
#106 = CC_DESIGN_SECURITY_CLASSIFICATION ( #231, ( #136 ) ) ;
#107 = DIRECTION ( 'NONE',  ( -1.000000000000000000, 0.000000000000000000, 0.000000000000000000 ) ) ;
#108 = CALENDAR_DATE ( 2022, 8, 7 ) ;
#109 = CARTESIAN_POINT ( 'NONE',  ( 0.000000000000000000, 0.000000000000000000, 805.0000000000000000 ) ) ;
#110 = APPROVAL_DATE_TIME ( #138, #159 ) ;
#111 = CARTESIAN_POINT ( 'NONE',  ( 0.000000000000000000, 0.000000000000000000, 5.000000000000000000 ) ) ;
#112 = ADVANCED_FACE ( 'NONE', ( #302 ), #187, .F. ) ;
#113 = PERSON_AND_ORGANIZATION_ROLE ( 'design_supplier' ) ;
#114 = CC_DESIGN_APPROVAL ( #215, ( #231 ) ) ;
#115 = ORIENTED_EDGE ( 'NONE', *, *, #265, .T. ) ;
#116 = EDGE_LOOP ( 'NONE', ( #129, #165, #373, #77 ) ) ;
#117 = DIRECTION ( 'NONE',  ( 1.000000000000000000, 0.000000000000000000, 0.000000000000000000 ) ) ;
#118 = DIRECTION ( 'NONE',  ( 0.000000000000000000, 0.000000000000000000, 1.000000000000000000 ) ) ;
#119 = VECTOR ( 'NONE', #164, 1000.000000000000000 ) ;
#120 = CARTESIAN_POINT ( 'NONE',  ( 8.000000000000000000, 9.797174393178825657E-16, 5.000000000000000000 ) ) ;
#121 = CARTESIAN_POINT ( 'NONE',  ( 0.000000000000000000, 0.000000000000000000, 805.0000000000000000 ) ) ;
#122 = EDGE_CURVE ( 'NONE', #346, #168, #152, .T. ) ;
#123 = DIRECTION ( 'NONE',  ( 0.000000000000000000, -1.000000000000000000, 0.000000000000000000 ) ) ;
#124 = CIRCLE ( 'NONE', #156, 3.250000000000000444 ) ;
#125 = AXIS2_PLACEMENT_3D ( 'NONE', #334, #306, #131 ) ;
#126 = FACE_OUTER_BOUND ( 'NONE', #381, .T. ) ;
#127 = DIRECTION ( 'NONE',  ( 1.000000000000000000, 0.000000000000000000, -0.000000000000000000 ) ) ;
#128 = EDGE_LOOP ( 'NONE', ( #21, #353 ) ) ;
#129 = ORIENTED_EDGE ( 'NONE', *, *, #221, .F. ) ;
#130 = AXIS2_PLACEMENT_3D ( 'NONE', #189, #283, #127 ) ;
#131 = DIRECTION ( 'NONE',  ( 1.000000000000000000, 0.000000000000000000, 0.000000000000000000 ) ) ;
#132 = DIRECTION ( 'NONE',  ( -0.000000000000000000, -0.000000000000000000, -1.000000000000000000 ) ) ;
#133 = SECURITY_CLASSIFICATION_LEVEL ( 'unclassified' ) ;
#134 = ORIENTED_EDGE ( 'NONE', *, *, #336, .F. ) ;
#135 = AXIS2_PLACEMENT_3D ( 'NONE', #109, #291, #139 ) ;
#136 = PRODUCT_DEFINITION_FORMATION_WITH_SPECIFIED_SOURCE ( 'LIBOVOLNÝ', '', #75, .NOT_KNOWN. ) ;
#137 = FACE_OUTER_BOUND ( 'NONE', #380, .T. ) ;
#138 = DATE_AND_TIME ( #24, #193 ) ;
#139 = DIRECTION ( 'NONE',  ( 1.000000000000000000, 0.000000000000000000, 0.000000000000000000 ) ) ;
#140 = EDGE_CURVE ( 'NONE', #168, #161, #289, .T. ) ;
#141 = PERSON_AND_ORGANIZATION ( #148, #237 ) ;
#142 = VERTEX_POINT ( 'NONE', #212 ) ;
#143 = PERSON_AND_ORGANIZATION_ROLE ( 'creator' ) ;
#144 = APPROVAL_PERSON_ORGANIZATION ( #22, #159, #104 ) ;
#145 = DIRECTION ( 'NONE',  ( 0.000000000000000000, 0.000000000000000000, -1.000000000000000000 ) ) ;
#146 = PRODUCT_RELATED_PRODUCT_CATEGORY ( 'detail', '', ( #75 ) ) ;
#147 = CYLINDRICAL_SURFACE ( 'NONE', #357, 3.250000000000000444 ) ;
#148 = PERSON ( 'NEURÈENÝ', 'NEURÈENÝ', 'NEURÈENÝ', ('NEURÈENÝ'), ('NEURÈENÝ'), ('NEURÈENÝ') ) ;
#149 = FACE_BOUND ( 'NONE', #128, .T. ) ;
#150 = LINE ( 'NONE', #90, #175 ) ;
#151 = AXIS2_PLACEMENT_3D ( 'NONE', #121, #209, #303 ) ;
#152 = LINE ( 'NONE', #329, #358 ) ;
#153 = EDGE_CURVE ( 'NONE', #223, #284, #200, .T. ) ;
#154 = DIRECTION ( 'NONE',  ( 1.000000000000000000, 0.000000000000000000, 0.000000000000000000 ) ) ;
#155 = DIRECTION ( 'NONE',  ( -1.000000000000000000, 1.224646799147351482E-16, 0.000000000000000000 ) ) ;
#156 = AXIS2_PLACEMENT_3D ( 'NONE', #55, #176, #27 ) ;
#157 = CIRCLE ( 'NONE', #330, 8.000000000000000000 ) ;
#158 = APPLICATION_CONTEXT ( 'configuration controlled 3d designs of mechanical parts and assemblies' ) ;
#159 = APPROVAL ( #372, 'NEURÈENÝ' ) ;
#160 = EDGE_LOOP ( 'NONE', ( #322, #163 ) ) ;
#161 = VERTEX_POINT ( 'NONE', #275 ) ;
#162 = CARTESIAN_POINT ( 'NONE',  ( -5.500000000000000000, 6.735557395310442023E-16, 4.999999999999975131 ) ) ;
#163 = ORIENTED_EDGE ( 'NONE', *, *, #348, .T. ) ;
#164 = DIRECTION ( 'NONE',  ( -0.000000000000000000, -0.000000000000000000, -1.000000000000000000 ) ) ;
#165 = ORIENTED_EDGE ( 'NONE', *, *, #122, .T. ) ;
#166 = DATE_TIME_ROLE ( 'classification_date' ) ;
#167 = ORIENTED_EDGE ( 'NONE', *, *, #221, .T. ) ;
#168 = VERTEX_POINT ( 'NONE', #183 ) ;
#169 = COORDINATED_UNIVERSAL_TIME_OFFSET ( 1, 0, .AHEAD. ) ;
#170 = EDGE_LOOP ( 'NONE', ( #228, #100, #324, #224 ) ) ;
#171 = DATE_AND_TIME ( #226, #65 ) ;
#172 = DIRECTION ( 'NONE',  ( 0.000000000000000000, 0.000000000000000000, 1.000000000000000000 ) ) ;
#173 = CC_DESIGN_DATE_AND_TIME_ASSIGNMENT ( #83, #166, ( #231 ) ) ;
#174 = CIRCLE ( 'NONE', #368, 8.000000000000000000 ) ;
#175 = VECTOR ( 'NONE', #331, 1000.000000000000000 ) ;
#176 = DIRECTION ( 'NONE',  ( -0.000000000000000000, -0.000000000000000000, -1.000000000000000000 ) ) ;
#177 = FACE_BOUND ( 'NONE', #160, .T. ) ;
#178 = DIRECTION ( 'NONE',  ( -0.000000000000000000, -0.000000000000000000, -1.000000000000000000 ) ) ;
#179 = CARTESIAN_POINT ( 'NONE',  ( -8.000000000000000000, 0.000000000000000000, 0.000000000000000000 ) ) ;
#180 = EDGE_CURVE ( 'NONE', #264, #38, #150, .T. ) ;
#181 = CIRCLE ( 'NONE', #256, 3.250000000000000444 ) ;
#182 = DIRECTION ( 'NONE',  ( 1.224646799147353207E-16, 1.000000000000000000, -0.000000000000000000 ) ) ;
#183 = CARTESIAN_POINT ( 'NONE',  ( 5.000000000000000000, 6.123233995736766282E-16, 5.499999999999949374 ) ) ;
#184 = EDGE_CURVE ( 'NONE', #161, #284, #49, .T. ) ;
#185 = DIRECTION ( 'NONE',  ( 1.000000000000000000, 0.000000000000000000, 0.000000000000000000 ) ) ;
#186 = ORIENTED_EDGE ( 'NONE', *, *, #184, .F. ) ;
#187 = TOROIDAL_SURFACE ( 'NONE', #36, 5.500000000000000000, 0.5000000000000000000 ) ;
#188 = ORIENTED_EDGE ( 'NONE', *, *, #5, .T. ) ;
#189 = CARTESIAN_POINT ( 'NONE',  ( 0.000000000000000000, 0.000000000000000000, 0.000000000000000000 ) ) ;
#190 = ORIENTED_EDGE ( 'NONE', *, *, #197, .F. ) ;
#191 = CARTESIAN_POINT ( 'NONE',  ( -3.250000000000000444, 0.000000000000000000, 0.000000000000000000 ) ) ;
#192 = PRODUCT_DEFINITION ( 'NEZNÁMÝ', '', #136, #194 ) ;
#193 = LOCAL_TIME ( 16, 44, 4.000000000000000000, #169 ) ;
#194 = DESIGN_CONTEXT ( 'detailed design', #338, 'design' ) ;
#195 = DIRECTION ( 'NONE',  ( 1.000000000000000000, 0.000000000000000000, 0.000000000000000000 ) ) ;
#196 = DIRECTION ( 'NONE',  ( 0.000000000000000000, 0.000000000000000000, -1.000000000000000000 ) ) ;
#197 = EDGE_CURVE ( 'NONE', #258, #346, #31, .T. ) ;
#198 = DIRECTION ( 'NONE',  ( 1.000000000000000000, 0.000000000000000000, 0.000000000000000000 ) ) ;
#199 = CIRCLE ( 'NONE', #317, 8.000000000000000000 ) ;
#200 = CIRCLE ( 'NONE', #344, 0.5000000000000004441 ) ;
#201 = PERSON_AND_ORGANIZATION ( #148, #237 ) ;
#202 = ORIENTED_EDGE ( 'NONE', *, *, #40, .T. ) ;
#203 = PERSON_AND_ORGANIZATION ( #148, #237 ) ;
#204 = ORIENTED_EDGE ( 'NONE', *, *, #370, .T. ) ;
#205 = APPROVAL_DATE_TIME ( #171, #215 ) ;
#206 = DIRECTION ( 'NONE',  ( -1.000000000000000000, 0.000000000000000000, 0.000000000000000000 ) ) ;
#207 = CIRCLE ( 'NONE', #125, 5.000000000000000000 ) ;
#208 = DIRECTION ( 'NONE',  ( 1.000000000000000000, 0.000000000000000000, 0.000000000000000000 ) ) ;
#209 = DIRECTION ( 'NONE',  ( 0.000000000000000000, 0.000000000000000000, 1.000000000000000000 ) ) ;
#210 = ADVANCED_FACE ( 'NONE', ( #177, #214 ), #2, .T. ) ;
#211 = DIRECTION ( 'NONE',  ( 0.000000000000000000, 0.000000000000000000, -1.000000000000000000 ) ) ;
#212 = CARTESIAN_POINT ( 'NONE',  ( 3.250000000000000444, 3.980102097228898231E-16, 0.000000000000000000 ) ) ;
#213 = AXIS2_PLACEMENT_3D ( 'NONE', #310, #279, #185 ) ;
#214 = FACE_OUTER_BOUND ( 'NONE', #295, .T. ) ;
#215 = APPROVAL ( #325, 'NEURÈENÝ' ) ;
#216 = PLANE ( 'NONE',  #130 ) ;
#217 = CYLINDRICAL_SURFACE ( 'NONE', #8, 5.000000000000000000 ) ;
#218 = EDGE_LOOP ( 'NONE', ( #308, #167 ) ) ;
#219 = AXIS2_PLACEMENT_3D ( 'NONE', #92, #1, #117 ) ;
#220 = DIRECTION ( 'NONE',  ( 0.000000000000000000, 0.000000000000000000, 1.000000000000000000 ) ) ;
#221 = EDGE_CURVE ( 'NONE', #346, #258, #249, .T. ) ;
#222 = CARTESIAN_POINT ( 'NONE',  ( 0.000000000000000000, 0.000000000000000000, 0.000000000000000000 ) ) ;
#223 = VERTEX_POINT ( 'NONE', #33 ) ;
#224 = ORIENTED_EDGE ( 'NONE', *, *, #348, .F. ) ;
#225 = AXIS2_PLACEMENT_3D ( 'NONE', #241, #118, #88 ) ;
#226 = CALENDAR_DATE ( 2022, 8, 7 ) ;
#227 = CARTESIAN_POINT ( 'NONE',  ( 0.000000000000000000, 0.000000000000000000, 5.000000000000000000 ) ) ;
#228 = ORIENTED_EDGE ( 'NONE', *, *, #153, .F. ) ;
#229 = PERSON_AND_ORGANIZATION ( #148, #237 ) ;
#230 = DIRECTION ( 'NONE',  ( 0.000000000000000000, 0.000000000000000000, 1.000000000000000000 ) ) ;
#231 = SECURITY_CLASSIFICATION ( '', '', #133 ) ;
#232 = DIRECTION ( 'NONE',  ( 0.000000000000000000, 0.000000000000000000, 1.000000000000000000 ) ) ;
#233 = ORIENTED_EDGE ( 'NONE', *, *, #355, .T. ) ;
#234 = ADVANCED_FACE ( 'NONE', ( #305 ), #81, .F. ) ;
#235 = ORIENTED_EDGE ( 'NONE', *, *, #34, .F. ) ;
#236 = CARTESIAN_POINT ( 'NONE',  ( -8.000000000000000000, 0.000000000000000000, 5.000000000000000000 ) ) ;
#237 = ORGANIZATION ( 'NEURÈENÝ', 'NEURÈENÝ', '' ) ;
#238 = CIRCLE ( 'NONE', #351, 5.000000000000000000 ) ;
#239 = FACE_OUTER_BOUND ( 'NONE', #12, .T. ) ;
#240 = DIRECTION ( 'NONE',  ( 1.000000000000000000, 0.000000000000000000, -0.000000000000000000 ) ) ;
#241 = CARTESIAN_POINT ( 'NONE',  ( 0.000000000000000000, 0.000000000000000000, 5.000000000000000000 ) ) ;
#242 = CC_DESIGN_PERSON_AND_ORGANIZATION_ASSIGNMENT ( #79, #143, ( #136 ) ) ;
#243 = DIRECTION ( 'NONE',  ( 0.000000000000000000, 0.000000000000000000, 1.000000000000000000 ) ) ;
#244 = LOCAL_TIME ( 16, 44, 4.000000000000000000, #257 ) ;
#245 = DIRECTION ( 'NONE',  ( 0.000000000000000000, 0.000000000000000000, -1.000000000000000000 ) ) ;
#246 = LINE ( 'NONE', #309, #311 ) ;
#247 = ORIENTED_EDGE ( 'NONE', *, *, #377, .T. ) ;
#248 = ORIENTED_EDGE ( 'NONE', *, *, #15, .F. ) ;
#249 = CIRCLE ( 'NONE', #219, 5.000000000000000000 ) ;
#250 = ADVANCED_FACE ( 'NONE', ( #239 ), #95, .T. ) ;
#251 = CARTESIAN_POINT ( 'NONE',  ( -5.000000000000000000, 0.000000000000000000, 805.0000000000000000 ) ) ;
#252 = CYLINDRICAL_SURFACE ( 'NONE', #72, 5.000000000000000000 ) ;
#253 = EDGE_CURVE ( 'NONE', #38, #103, #19, .T. ) ;
#254 = ORIENTED_EDGE ( 'NONE', *, *, #253, .F. ) ;
#255 = CLOSED_SHELL ( 'NONE', ( #9, #234, #285, #250, #84, #210, #321, #361, #74, #112, #30 ) ) ;
#256 = AXIS2_PLACEMENT_3D ( 'NONE', #222, #132, #365 ) ;
#257 = COORDINATED_UNIVERSAL_TIME_OFFSET ( 1, 0, .AHEAD. ) ;
#258 = VERTEX_POINT ( 'NONE', #59 ) ;
#259 = PRODUCT_DEFINITION_SHAPE ( 'NONE', 'NONE',  #192 ) ;
#260 = PERSON_AND_ORGANIZATION ( #148, #237 ) ;
#261 = EDGE_LOOP ( 'NONE', ( #188, #268, #335, #45 ) ) ;
#262 = ADVANCED_BREP_SHAPE_REPRESENTATION ( '2366', ( #318, #374 ), #66 ) ;
#263 = CALENDAR_DATE ( 2022, 8, 7 ) ;
#264 = VERTEX_POINT ( 'NONE', #120 ) ;
#265 = EDGE_CURVE ( 'NONE', #69, #103, #276, .T. ) ;
#266 = AXIS2_PLACEMENT_3D ( 'NONE', #91, #6, #240 ) ;
#267 = COORDINATED_UNIVERSAL_TIME_OFFSET ( 1, 0, .AHEAD. ) ;
#268 = ORIENTED_EDGE ( 'NONE', *, *, #336, .T. ) ;
#269 = CARTESIAN_POINT ( 'NONE',  ( 0.000000000000000000, 0.000000000000000000, 805.0000000000000000 ) ) ;
#270 = DIRECTION ( 'NONE',  ( -1.000000000000000000, 0.000000000000000000, 0.000000000000000000 ) ) ;
#271 = CC_DESIGN_PERSON_AND_ORGANIZATION_ASSIGNMENT ( #260, #86, ( #231 ) ) ;
#272 = AXIS2_PLACEMENT_3D ( 'NONE', #7, #243, #363 ) ;
#273 = CARTESIAN_POINT ( 'NONE',  ( 0.000000000000000000, 0.000000000000000000, 5.499999999999949374 ) ) ;
#274 = CARTESIAN_POINT ( 'NONE',  ( 5.500000000000000000, 0.000000000000000000, 5.499999999999949374 ) ) ;
#275 = CARTESIAN_POINT ( 'NONE',  ( 5.500000000000000000, 0.000000000000000000, 4.999999999999975131 ) ) ;
#276 = LINE ( 'NONE', #10, #93 ) ;
#277 = CARTESIAN_POINT ( 'NONE',  ( 0.000000000000000000, 0.000000000000000000, 805.0000000000000000 ) ) ;
#278 = ORIENTED_EDGE ( 'NONE', *, *, #34, .T. ) ;
#279 = DIRECTION ( 'NONE',  ( -0.000000000000000000, -0.000000000000000000, -1.000000000000000000 ) ) ;
#280 = EDGE_CURVE ( 'NONE', #258, #223, #11, .T. ) ;
#281 = CARTESIAN_POINT ( 'NONE',  ( 0.000000000000000000, 0.000000000000000000, 0.000000000000000000 ) ) ;
#282 = CIRCLE ( 'NONE', #213, 5.500000000000000000 ) ;
#283 = DIRECTION ( 'NONE',  ( 0.000000000000000000, 0.000000000000000000, 1.000000000000000000 ) ) ;
#284 = VERTEX_POINT ( 'NONE', #162 ) ;
#285 = ADVANCED_FACE ( 'NONE', ( #96 ), #217, .T. ) ;
#286 = VERTEX_POINT ( 'NONE', #191 ) ;
#287 = SHAPE_DEFINITION_REPRESENTATION ( #259, #262 ) ;
#288 = ORIENTED_EDGE ( 'NONE', *, *, #122, .F. ) ;
#289 = CIRCLE ( 'NONE', #296, 0.5000000000000004441 ) ;
#290 = APPROVAL_ROLE ( '' ) ;
#291 = DIRECTION ( 'NONE',  ( 0.000000000000000000, 0.000000000000000000, 1.000000000000000000 ) ) ;
#292 = ORIENTED_EDGE ( 'NONE', *, *, #265, .F. ) ;
#293 = EDGE_CURVE ( 'NONE', #103, #38, #157, .T. ) ;
#294 = PERSON_AND_ORGANIZATION_ROLE ( 'design_owner' ) ;
#295 = EDGE_LOOP ( 'NONE', ( #278, #39 ) ) ;
#296 = AXIS2_PLACEMENT_3D ( 'NONE', #274, #123, #211 ) ;
#297 = ORIENTED_EDGE ( 'NONE', *, *, #153, .T. ) ;
#298 = CC_DESIGN_PERSON_AND_ORGANIZATION_ASSIGNMENT ( #201, #113, ( #136 ) ) ;
#299 = CARTESIAN_POINT ( 'NONE',  ( 0.000000000000000000, 0.000000000000000000, 5.000000000000000000 ) ) ;
#300 = CARTESIAN_POINT ( 'NONE',  ( 0.000000000000000000, 0.000000000000000000, 5.000000000000000000 ) ) ;
#301 = AXIS2_PLACEMENT_3D ( 'NONE', #4, #359, #328 ) ;
#302 = FACE_OUTER_BOUND ( 'NONE', #170, .T. ) ;
#303 = DIRECTION ( 'NONE',  ( 1.000000000000000000, 0.000000000000000000, 0.000000000000000000 ) ) ;
#304 = APPROVAL ( #314, 'NEURÈENÝ' ) ;
#305 = FACE_OUTER_BOUND ( 'NONE', #87, .T. ) ;
#306 = DIRECTION ( 'NONE',  ( 0.000000000000000000, 0.000000000000000000, 1.000000000000000000 ) ) ;
#307 = LOCAL_TIME ( 16, 44, 4.000000000000000000, #379 ) ;
#308 = ORIENTED_EDGE ( 'NONE', *, *, #197, .T. ) ;
#309 = CARTESIAN_POINT ( 'NONE',  ( 3.250000000000000444, 3.980102097228898231E-16, 805.0000000000000000 ) ) ;
#310 = CARTESIAN_POINT ( 'NONE',  ( 0.000000000000000000, 0.000000000000000000, 5.000000000000000000 ) ) ;
#311 = VECTOR ( 'NONE', #245, 1000.000000000000000 ) ;
#312 = DIRECTION ( 'NONE',  ( -0.000000000000000000, -0.000000000000000000, -1.000000000000000000 ) ) ;
#313 = ORIENTED_EDGE ( 'NONE', *, *, #140, .F. ) ;
#314 = APPROVAL_STATUS ( 'not_yet_approved' ) ;
#315 = DIRECTION ( 'NONE',  ( 1.000000000000000000, 0.000000000000000000, 0.000000000000000000 ) ) ;
#316 = DIRECTION ( 'NONE',  ( 0.000000000000000000, 0.000000000000000000, 1.000000000000000000 ) ) ;
#317 = AXIS2_PLACEMENT_3D ( 'NONE', #227, #316, #315 ) ;
#318 = MANIFOLD_SOLID_BREP ( 'Odebrat vysunutím3', #255 ) ;
#319 = AXIS2_PLACEMENT_3D ( 'NONE', #35, #178, #208 ) ;
#320 = COORDINATED_UNIVERSAL_TIME_OFFSET ( 1, 0, .AHEAD. ) ;
#321 = ADVANCED_FACE ( 'NONE', ( #42, #126 ), #216, .F. ) ;
#322 = ORIENTED_EDGE ( 'NONE', *, *, #184, .T. ) ;
#323 = CALENDAR_DATE ( 2022, 8, 7 ) ;
#324 = ORIENTED_EDGE ( 'NONE', *, *, #140, .T. ) ;
#325 = APPROVAL_STATUS ( 'not_yet_approved' ) ;
#326 = VERTEX_POINT ( 'NONE', #99 ) ;
#327 = EDGE_CURVE ( 'NONE', #168, #223, #238, .T. ) ;
#328 = DIRECTION ( 'NONE',  ( 1.000000000000000000, 0.000000000000000000, 0.000000000000000000 ) ) ;
#329 = CARTESIAN_POINT ( 'NONE',  ( 5.000000000000000000, 6.123233995736766282E-16, 805.0000000000000000 ) ) ;
#330 = AXIS2_PLACEMENT_3D ( 'NONE', #281, #220, #341 ) ;
#331 = DIRECTION ( 'NONE',  ( -0.000000000000000000, -0.000000000000000000, -1.000000000000000000 ) ) ;
#332 = CC_DESIGN_PERSON_AND_ORGANIZATION_ASSIGNMENT ( #229, #294, ( #75 ) ) ;
#333 = DIRECTION ( 'NONE',  ( -0.000000000000000000, -0.000000000000000000, -1.000000000000000000 ) ) ;
#334 = CARTESIAN_POINT ( 'NONE',  ( 0.000000000000000000, 0.000000000000000000, 5.499999999999949374 ) ) ;
#335 = ORIENTED_EDGE ( 'NONE', *, *, #15, .T. ) ;
#336 = EDGE_CURVE ( 'NONE', #326, #142, #246, .T. ) ;
#337 = LINE ( 'NONE', #369, #105 ) ;
#338 = APPLICATION_CONTEXT ( 'configuration controlled 3d designs of mechanical parts and assemblies' ) ;
#339 = DIRECTION ( 'NONE',  ( -0.000000000000000000, -0.000000000000000000, -1.000000000000000000 ) ) ;
#340 = FACE_OUTER_BOUND ( 'NONE', #52, .T. ) ;
#341 = DIRECTION ( 'NONE',  ( 1.000000000000000000, 0.000000000000000000, 0.000000000000000000 ) ) ;
#342 = CIRCLE ( 'NONE', #135, 3.250000000000000444 ) ;
#343 = ORIENTED_EDGE ( 'NONE', *, *, #180, .F. ) ;
#344 = AXIS2_PLACEMENT_3D ( 'NONE', #60, #182, #155 ) ;
#345 = APPLICATION_PROTOCOL_DEFINITION ( 'international standard', 'config_control_design', 1994, #338 ) ;
#346 = VERTEX_POINT ( 'NONE', #71 ) ;
#347 = EDGE_LOOP ( 'NONE', ( #343, #235, #115, #64 ) ) ;
#348 = EDGE_CURVE ( 'NONE', #284, #161, #282, .T. ) ;
#349 = CARTESIAN_POINT ( 'NONE',  ( 0.000000000000000000, 0.000000000000000000, 0.000000000000000000 ) ) ;
#350 = DIRECTION ( 'NONE',  ( 1.000000000000000000, 0.000000000000000000, 0.000000000000000000 ) ) ;
#351 = AXIS2_PLACEMENT_3D ( 'NONE', #97, #101, #13 ) ;
#352 = DATE_AND_TIME ( #263, #3 ) ;
#353 = ORIENTED_EDGE ( 'NONE', *, *, #40, .F. ) ;
#354 = ORIENTED_EDGE ( 'NONE', *, *, #280, .T. ) ;
#355 = EDGE_CURVE ( 'NONE', #286, #142, #181, .T. ) ;
#356 = DIRECTION ( 'NONE',  ( -1.000000000000000000, 0.000000000000000000, 0.000000000000000000 ) ) ;
#357 = AXIS2_PLACEMENT_3D ( 'NONE', #269, #196, #107 ) ;
#358 = VECTOR ( 'NONE', #58, 1000.000000000000000 ) ;
#359 = DIRECTION ( 'NONE',  ( 0.000000000000000000, 0.000000000000000000, 1.000000000000000000 ) ) ;
#360 = DIRECTION ( 'NONE',  ( 0.000000000000000000, 0.000000000000000000, 1.000000000000000000 ) ) ;
#361 = ADVANCED_FACE ( 'NONE', ( #340 ), #252, .T. ) ;
#362 = FACE_OUTER_BOUND ( 'NONE', #218, .T. ) ;
#363 = DIRECTION ( 'NONE',  ( 1.000000000000000000, 0.000000000000000000, 0.000000000000000000 ) ) ;
#364 =( LENGTH_UNIT ( ) NAMED_UNIT ( * ) SI_UNIT ( .MILLI., .METRE. ) );
#365 = DIRECTION ( 'NONE',  ( 1.000000000000000000, 0.000000000000000000, 0.000000000000000000 ) ) ;
#366 = ORIENTED_EDGE ( 'NONE', *, *, #355, .F. ) ;
#367 = APPLICATION_PROTOCOL_DEFINITION ( 'international standard', 'config_control_design', 1994, #158 ) ;
#368 = AXIS2_PLACEMENT_3D ( 'NONE', #111, #230, #350 ) ;
#369 = CARTESIAN_POINT ( 'NONE',  ( -3.250000000000000444, 0.000000000000000000, 805.0000000000000000 ) ) ;
#370 = EDGE_CURVE ( 'NONE', #223, #168, #207, .T. ) ;
#371 = DIRECTION ( 'NONE',  ( 0.000000000000000000, 0.000000000000000000, -1.000000000000000000 ) ) ;
#372 = APPROVAL_STATUS ( 'not_yet_approved' ) ;
#373 = ORIENTED_EDGE ( 'NONE', *, *, #327, .T. ) ;
#374 = AXIS2_PLACEMENT_3D ( 'NONE', #349, #232, #195 ) ;
#375 = APPROVAL_ROLE ( '' ) ;
#376 = CARTESIAN_POINT ( 'NONE',  ( 0.000000000000000000, 0.000000000000000000, 805.0000000000000000 ) ) ;
#377 = EDGE_CURVE ( 'NONE', #53, #286, #337, .T. ) ;
#378 = CARTESIAN_POINT ( 'NONE',  ( -3.250000000000000444, 0.000000000000000000, 805.0000000000000000 ) ) ;
#379 = COORDINATED_UNIVERSAL_TIME_OFFSET ( 1, 0, .AHEAD. ) ;
#380 = EDGE_LOOP ( 'NONE', ( #134, #202, #247, #233 ) ) ;
#381 = EDGE_LOOP ( 'NONE', ( #78, #254 ) ) ;
ENDSEC;
END-ISO-10303-21;
