ISO-10303-21;
HEADER;
FILE_DESCRIPTION (( 'STEP AP203' ),
    '1' );
FILE_NAME ('c092.STEP',
    '2022-07-08T15:27:30',
    ( '' ),
    ( '' ),
    'SwSTEP 2.0',
    'SolidWorks 2019',
    '' );
FILE_SCHEMA (( 'CONFIG_CONTROL_DESIGN' ));
ENDSEC;

DATA;
#1 = CARTESIAN_POINT ( 'NONE',  ( 0.000000000000000000, 0.000000000000000000, 0.000000000000000000 ) ) ;
#2 = ORIENTED_EDGE ( 'NONE', *, *, #178, .T. ) ;
#3 = CARTESIAN_POINT ( 'NONE',  ( 7.000000000000000000, 8.572527594031473190E-16, 0.000000000000000000 ) ) ;
#4 = AXIS2_PLACEMENT_3D ( 'NONE', #151, #148, #204 ) ;
#5 = EDGE_LOOP ( 'NONE', ( #243, #99 ) ) ;
#6 = EDGE_CURVE ( 'NONE', #222, #298, #285, .T. ) ;
#7 = EDGE_LOOP ( 'NONE', ( #130, #2 ) ) ;
#8 = ORIENTED_EDGE ( 'NONE', *, *, #366, .T. ) ;
#9 = SHAPE_DEFINITION_REPRESENTATION ( #156, #143 ) ;
#10 = FACE_BOUND ( 'NONE', #238, .T. ) ;
#11 = APPROVAL_ROLE ( '' ) ;
#12 = CARTESIAN_POINT ( 'NONE',  ( 0.000000000000000000, 0.000000000000000000, 280.0000000000000000 ) ) ;
#13 = DIRECTION ( 'NONE',  ( 1.000000000000000000, 0.000000000000000000, -0.000000000000000000 ) ) ;
#14 = COORDINATED_UNIVERSAL_TIME_OFFSET ( 1, 0, .AHEAD. ) ;
#15 = CARTESIAN_POINT ( 'NONE',  ( 4.500000000000000888, 0.000000000000000000, 5.500000000000005329 ) ) ;
#16 = CYLINDRICAL_SURFACE ( 'NONE', #189, 4.000000000000000000 ) ;
#17 = ADVANCED_FACE ( 'NONE', ( #10, #195 ), #144, .F. ) ;
#18 = ADVANCED_FACE ( 'NONE', ( #111 ), #135, .F. ) ;
#19 = PLANE ( 'NONE',  #177 ) ;
#20 = TOROIDAL_SURFACE ( 'NONE', #364, 4.500000000000000888, 0.5000000000000000000 ) ;
#21 = PRODUCT_RELATED_PRODUCT_CATEGORY ( 'detail', '', ( #129 ) ) ;
#22 = FACE_OUTER_BOUND ( 'NONE', #7, .T. ) ;
#23 = CYLINDRICAL_SURFACE ( 'NONE', #207, 7.000000000000000000 ) ;
#24 = DIRECTION ( 'NONE',  ( 0.000000000000000000, 0.000000000000000000, 1.000000000000000000 ) ) ;
#25 = CIRCLE ( 'NONE', #52, 0.5000000000000004441 ) ;
#26 =( GEOMETRIC_REPRESENTATION_CONTEXT ( 3 ) GLOBAL_UNCERTAINTY_ASSIGNED_CONTEXT ( ( #215 ) ) GLOBAL_UNIT_ASSIGNED_CONTEXT ( ( #120, #27, #122 ) ) REPRESENTATION_CONTEXT ( 'NONE', 'WORKASPACE' ) );
#27 =( NAMED_UNIT ( * ) PLANE_ANGLE_UNIT ( ) SI_UNIT ( $, .RADIAN. ) );
#28 = DATE_AND_TIME ( #359, #57 ) ;
#29 = ORIENTED_EDGE ( 'NONE', *, *, #267, .T. ) ;
#30 = DIRECTION ( 'NONE',  ( 1.000000000000000000, 0.000000000000000000, 0.000000000000000000 ) ) ;
#31 = EDGE_LOOP ( 'NONE', ( #29, #45, #74, #275 ) ) ;
#32 = CC_DESIGN_DATE_AND_TIME_ASSIGNMENT ( #138, #46, ( #377 ) ) ;
#33 = EDGE_CURVE ( 'NONE', #276, #333, #42, .T. ) ;
#34 = CARTESIAN_POINT ( 'NONE',  ( 0.000000000000000000, 0.000000000000000000, 280.0000000000000000 ) ) ;
#35 = CIRCLE ( 'NONE', #106, 2.100000000000000089 ) ;
#36 = ORIENTED_EDGE ( 'NONE', *, *, #267, .F. ) ;
#37 = CALENDAR_DATE ( 2022, 8, 7 ) ;
#38 = EDGE_LOOP ( 'NONE', ( #272, #301, #335, #94 ) ) ;
#39 = APPLICATION_CONTEXT ( 'configuration controlled 3d designs of mechanical parts and assemblies' ) ;
#40 = CALENDAR_DATE ( 2022, 8, 7 ) ;
#41 = EDGE_LOOP ( 'NONE', ( #295, #325, #324, #329 ) ) ;
#42 = CIRCLE ( 'NONE', #133, 0.5000000000000004441 ) ;
#43 = EDGE_LOOP ( 'NONE', ( #353, #96, #307, #327 ) ) ;
#44 = VERTEX_POINT ( 'NONE', #140 ) ;
#45 = ORIENTED_EDGE ( 'NONE', *, *, #118, .T. ) ;
#46 = DATE_TIME_ROLE ( 'creation_date' ) ;
#47 = DIRECTION ( 'NONE',  ( 0.000000000000000000, 0.000000000000000000, -1.000000000000000000 ) ) ;
#48 = CIRCLE ( 'NONE', #125, 4.000000000000000000 ) ;
#49 = CARTESIAN_POINT ( 'NONE',  ( -4.000000000000000000, 0.000000000000000000, 280.0000000000000000 ) ) ;
#50 = CARTESIAN_POINT ( 'NONE',  ( -2.100000000000000089, 0.000000000000000000, 0.000000000000000000 ) ) ;
#51 = EDGE_CURVE ( 'NONE', #61, #164, #252, .T. ) ;
#52 = AXIS2_PLACEMENT_3D ( 'NONE', #110, #202, #340 ) ;
#53 = CARTESIAN_POINT ( 'NONE',  ( 0.000000000000000000, 0.000000000000000000, 280.0000000000000000 ) ) ;
#54 = LOCAL_TIME ( 17, 27, 30.00000000000000000, #105 ) ;
#55 = CARTESIAN_POINT ( 'NONE',  ( 0.000000000000000000, 0.000000000000000000, 5.000000000000000000 ) ) ;
#56 = CARTESIAN_POINT ( 'NONE',  ( 0.000000000000000000, 0.000000000000000000, 5.500000000000005329 ) ) ;
#57 = LOCAL_TIME ( 17, 27, 30.00000000000000000, #294 ) ;
#58 = APPLICATION_PROTOCOL_DEFINITION ( 'international standard', 'config_control_design', 1994, #149 ) ;
#59 = ORIENTED_EDGE ( 'NONE', *, *, #332, .F. ) ;
#60 = LINE ( 'NONE', #268, #183 ) ;
#61 = VERTEX_POINT ( 'NONE', #256 ) ;
#62 = EDGE_CURVE ( 'NONE', #127, #240, #25, .T. ) ;
#63 = ADVANCED_FACE ( 'NONE', ( #248 ), #365, .T. ) ;
#64 = EDGE_LOOP ( 'NONE', ( #121, #360 ) ) ;
#65 = CIRCLE ( 'NONE', #201, 7.000000000000000000 ) ;
#66 = LOCAL_TIME ( 17, 27, 30.00000000000000000, #14 ) ;
#67 = ORIENTED_EDGE ( 'NONE', *, *, #229, .T. ) ;
#68 = VERTEX_POINT ( 'NONE', #223 ) ;
#69 = DIRECTION ( 'NONE',  ( 0.000000000000000000, 0.000000000000000000, 1.000000000000000000 ) ) ;
#70 = AXIS2_PLACEMENT_3D ( 'NONE', #250, #368, #314 ) ;
#71 = PERSON_AND_ORGANIZATION ( #175, #147 ) ;
#72 = CC_DESIGN_APPROVAL ( #282, ( #293 ) ) ;
#73 = CARTESIAN_POINT ( 'NONE',  ( 0.000000000000000000, 0.000000000000000000, 0.000000000000000000 ) ) ;
#74 = ORIENTED_EDGE ( 'NONE', *, *, #348, .T. ) ;
#75 = ADVANCED_FACE ( 'NONE', ( #104 ), #16, .T. ) ;
#76 = CARTESIAN_POINT ( 'NONE',  ( 2.100000000000000089, 2.571758278209441957E-16, 280.0000000000000000 ) ) ;
#77 = CIRCLE ( 'NONE', #291, 2.100000000000000089 ) ;
#78 = DIRECTION ( 'NONE',  ( 0.000000000000000000, 0.000000000000000000, -1.000000000000000000 ) ) ;
#79 = APPROVAL_PERSON_ORGANIZATION ( #242, #93, #303 ) ;
#80 = DIRECTION ( 'NONE',  ( 0.000000000000000000, 0.000000000000000000, 1.000000000000000000 ) ) ;
#81 = DIRECTION ( 'NONE',  ( 1.000000000000000000, 0.000000000000000000, 0.000000000000000000 ) ) ;
#82 = DIRECTION ( 'NONE',  ( -0.000000000000000000, -0.000000000000000000, -1.000000000000000000 ) ) ;
#83 = AXIS2_PLACEMENT_3D ( 'NONE', #56, #116, #181 ) ;
#84 = FACE_BOUND ( 'NONE', #89, .T. ) ;
#85 = CC_DESIGN_PERSON_AND_ORGANIZATION_ASSIGNMENT ( #305, #224, ( #293 ) ) ;
#86 = EDGE_CURVE ( 'NONE', #127, #276, #123, .T. ) ;
#87 = LINE ( 'NONE', #261, #90 ) ;
#88 = DIRECTION ( 'NONE',  ( -0.000000000000000000, -0.000000000000000000, -1.000000000000000000 ) ) ;
#89 = EDGE_LOOP ( 'NONE', ( #36, #198 ) ) ;
#90 = VECTOR ( 'NONE', #235, 1000.000000000000000 ) ;
#91 = LOCAL_TIME ( 17, 27, 30.00000000000000000, #334 ) ;
#92 = DIRECTION ( 'NONE',  ( 1.000000000000000000, 0.000000000000000000, 0.000000000000000000 ) ) ;
#93 = APPROVAL ( #184, 'NEURÈENÝ' ) ;
#94 = ORIENTED_EDGE ( 'NONE', *, *, #229, .F. ) ;
#95 = PERSON_AND_ORGANIZATION ( #175, #147 ) ;
#96 = ORIENTED_EDGE ( 'NONE', *, *, #109, .F. ) ;
#97 = PERSON_AND_ORGANIZATION_ROLE ( 'creator' ) ;
#98 = DESIGN_CONTEXT ( 'detailed design', #149, 'design' ) ;
#99 = ORIENTED_EDGE ( 'NONE', *, *, #366, .F. ) ;
#100 = PERSON_AND_ORGANIZATION_ROLE ( 'design_owner' ) ;
#101 = AXIS2_PLACEMENT_3D ( 'NONE', #34, #321, #92 ) ;
#102 = APPROVAL_ROLE ( '' ) ;
#103 = DIRECTION ( 'NONE',  ( -0.000000000000000000, -0.000000000000000000, -1.000000000000000000 ) ) ;
#104 = FACE_OUTER_BOUND ( 'NONE', #124, .T. ) ;
#105 = COORDINATED_UNIVERSAL_TIME_OFFSET ( 1, 0, .AHEAD. ) ;
#106 = AXIS2_PLACEMENT_3D ( 'NONE', #297, #88, #210 ) ;
#107 = DIRECTION ( 'NONE',  ( 1.000000000000000000, 0.000000000000000000, 0.000000000000000000 ) ) ;
#108 = EDGE_CURVE ( 'NONE', #358, #61, #77, .T. ) ;
#109 = EDGE_CURVE ( 'NONE', #159, #222, #342, .T. ) ;
#110 = CARTESIAN_POINT ( 'NONE',  ( -4.500000000000000888, 5.510910596163089556E-16, 5.500000000000005329 ) ) ;
#111 = FACE_OUTER_BOUND ( 'NONE', #31, .T. ) ;
#112 = AXIS2_PLACEMENT_3D ( 'NONE', #73, #280, #13 ) ;
#113 = FACE_BOUND ( 'NONE', #193, .T. ) ;
#114 = AXIS2_PLACEMENT_3D ( 'NONE', #228, #203, #176 ) ;
#115 = DIRECTION ( 'NONE',  ( 1.000000000000000000, 0.000000000000000000, 0.000000000000000000 ) ) ;
#116 = DIRECTION ( 'NONE',  ( 0.000000000000000000, 0.000000000000000000, 1.000000000000000000 ) ) ;
#117 = DIRECTION ( 'NONE',  ( -1.000000000000000000, 0.000000000000000000, 0.000000000000000000 ) ) ;
#118 = EDGE_CURVE ( 'NONE', #358, #44, #225, .T. ) ;
#119 = FACE_OUTER_BOUND ( 'NONE', #43, .T. ) ;
#120 =( LENGTH_UNIT ( ) NAMED_UNIT ( * ) SI_UNIT ( .MILLI., .METRE. ) );
#121 = ORIENTED_EDGE ( 'NONE', *, *, #332, .T. ) ;
#122 =( NAMED_UNIT ( * ) SI_UNIT ( $, .STERADIAN. ) SOLID_ANGLE_UNIT ( ) );
#123 = CIRCLE ( 'NONE', #153, 4.000000000000000000 ) ;
#124 = EDGE_LOOP ( 'NONE', ( #269, #165, #271, #237 ) ) ;
#125 = AXIS2_PLACEMENT_3D ( 'NONE', #299, #274, #182 ) ;
#126 = DIRECTION ( 'NONE',  ( 0.000000000000000000, 0.000000000000000000, 1.000000000000000000 ) ) ;
#127 = VERTEX_POINT ( 'NONE', #257 ) ;
#128 = DIRECTION ( 'NONE',  ( 1.000000000000000000, 0.000000000000000000, 0.000000000000000000 ) ) ;
#129 = PRODUCT ( 'c092', 'c092', '', ( #328 ) ) ;
#130 = ORIENTED_EDGE ( 'NONE', *, *, #109, .T. ) ;
#131 = CARTESIAN_POINT ( 'NONE',  ( 2.100000000000000089, 2.571758278209441957E-16, 280.0000000000000000 ) ) ;
#132 = ORIENTED_EDGE ( 'NONE', *, *, #379, .F. ) ;
#133 = AXIS2_PLACEMENT_3D ( 'NONE', #15, #371, #199 ) ;
#134 = APPROVAL_PERSON_ORGANIZATION ( #247, #282, #102 ) ;
#135 = CYLINDRICAL_SURFACE ( 'NONE', #354, 2.100000000000000089 ) ;
#136 = CALENDAR_DATE ( 2022, 8, 7 ) ;
#137 = DIRECTION ( 'NONE',  ( 0.000000000000000000, 0.000000000000000000, -1.000000000000000000 ) ) ;
#138 = DATE_AND_TIME ( #37, #234 ) ;
#139 = EDGE_CURVE ( 'NONE', #190, #127, #226, .T. ) ;
#140 = CARTESIAN_POINT ( 'NONE',  ( 2.100000000000000089, 2.571758278209441957E-16, 0.000000000000000000 ) ) ;
#141 = AXIS2_PLACEMENT_3D ( 'NONE', #231, #289, #115 ) ;
#142 = DIRECTION ( 'NONE',  ( 0.000000000000000000, 0.000000000000000000, 1.000000000000000000 ) ) ;
#143 = ADVANCED_BREP_SHAPE_REPRESENTATION ( 'c092', ( #343, #246 ), #26 ) ;
#144 = PLANE ( 'NONE',  #112 ) ;
#145 = CARTESIAN_POINT ( 'NONE',  ( 0.000000000000000000, 0.000000000000000000, 280.0000000000000000 ) ) ;
#146 = CARTESIAN_POINT ( 'NONE',  ( 0.000000000000000000, 0.000000000000000000, 5.000000000000000000 ) ) ;
#147 = ORGANIZATION ( 'NEURÈENÝ', 'NEURÈENÝ', '' ) ;
#148 = DIRECTION ( 'NONE',  ( 0.000000000000000000, 0.000000000000000000, 1.000000000000000000 ) ) ;
#149 = APPLICATION_CONTEXT ( 'configuration controlled 3d designs of mechanical parts and assemblies' ) ;
#150 = CC_DESIGN_DATE_AND_TIME_ASSIGNMENT ( #369, #277, ( #350 ) ) ;
#151 = CARTESIAN_POINT ( 'NONE',  ( 0.000000000000000000, 0.000000000000000000, 5.000000000000000000 ) ) ;
#152 = CC_DESIGN_PERSON_AND_ORGANIZATION_ASSIGNMENT ( #169, #194, ( #293 ) ) ;
#153 = AXIS2_PLACEMENT_3D ( 'NONE', #309, #170, #107 ) ;
#154 = DIRECTION ( 'NONE',  ( -1.000000000000000000, 0.000000000000000000, 0.000000000000000000 ) ) ;
#155 = CARTESIAN_POINT ( 'NONE',  ( 0.000000000000000000, 0.000000000000000000, 0.000000000000000000 ) ) ;
#156 = PRODUCT_DEFINITION_SHAPE ( 'NONE', 'NONE',  #377 ) ;
#157 = EDGE_LOOP ( 'NONE', ( #161, #373, #356, #213 ) ) ;
#158 = DIRECTION ( 'NONE',  ( -0.000000000000000000, -0.000000000000000000, -1.000000000000000000 ) ) ;
#159 = VERTEX_POINT ( 'NONE', #380 ) ;
#160 = CIRCLE ( 'NONE', #375, 4.500000000000000888 ) ;
#161 = ORIENTED_EDGE ( 'NONE', *, *, #86, .F. ) ;
#162 = DIRECTION ( 'NONE',  ( 1.000000000000000000, 0.000000000000000000, 0.000000000000000000 ) ) ;
#163 = ADVANCED_FACE ( 'NONE', ( #315 ), #317, .T. ) ;
#164 = VERTEX_POINT ( 'NONE', #50 ) ;
#165 = ORIENTED_EDGE ( 'NONE', *, *, #379, .T. ) ;
#166 = EDGE_CURVE ( 'NONE', #159, #185, #87, .T. ) ;
#167 = APPROVAL_DATE_TIME ( #249, #318 ) ;
#168 = ORIENTED_EDGE ( 'NONE', *, *, #348, .F. ) ;
#169 = PERSON_AND_ORGANIZATION ( #175, #147 ) ;
#170 = DIRECTION ( 'NONE',  ( 0.000000000000000000, 0.000000000000000000, 1.000000000000000000 ) ) ;
#171 = CIRCLE ( 'NONE', #239, 7.000000000000000000 ) ;
#172 = CARTESIAN_POINT ( 'NONE',  ( 0.000000000000000000, 0.000000000000000000, 280.0000000000000000 ) ) ;
#173 = DIRECTION ( 'NONE',  ( 0.000000000000000000, 0.000000000000000000, 1.000000000000000000 ) ) ;
#174 = CARTESIAN_POINT ( 'NONE',  ( -4.500000000000000888, 5.510910596163088569E-16, 5.000000000000002665 ) ) ;
#175 = PERSON ( 'NEURÈENÝ', 'NEURÈENÝ', 'NEURÈENÝ', ('NEURÈENÝ'), ('NEURÈENÝ'), ('NEURÈENÝ') ) ;
#176 = DIRECTION ( 'NONE',  ( 1.000000000000000000, 0.000000000000000000, 0.000000000000000000 ) ) ;
#177 = AXIS2_PLACEMENT_3D ( 'NONE', #145, #24, #264 ) ;
#178 = EDGE_CURVE ( 'NONE', #222, #159, #65, .T. ) ;
#179 = ADVANCED_FACE ( 'NONE', ( #119 ), #23, .T. ) ;
#180 = DIRECTION ( 'NONE',  ( 1.000000000000000000, 0.000000000000000000, 0.000000000000000000 ) ) ;
#181 = DIRECTION ( 'NONE',  ( 1.000000000000000000, 0.000000000000000000, 0.000000000000000000 ) ) ;
#182 = DIRECTION ( 'NONE',  ( 1.000000000000000000, 0.000000000000000000, 0.000000000000000000 ) ) ;
#183 = VECTOR ( 'NONE', #292, 1000.000000000000000 ) ;
#184 = APPROVAL_STATUS ( 'not_yet_approved' ) ;
#185 = VERTEX_POINT ( 'NONE', #209 ) ;
#186 = DIRECTION ( 'NONE',  ( 1.000000000000000000, 0.000000000000000000, 0.000000000000000000 ) ) ;
#187 = ORIENTED_EDGE ( 'NONE', *, *, #361, .T. ) ;
#188 = CARTESIAN_POINT ( 'NONE',  ( 4.500000000000000888, 0.000000000000000000, 5.000000000000002665 ) ) ;
#189 = AXIS2_PLACEMENT_3D ( 'NONE', #172, #103, #339 ) ;
#190 = VERTEX_POINT ( 'NONE', #49 ) ;
#191 = ADVANCED_FACE ( 'NONE', ( #84, #352 ), #19, .T. ) ;
#192 = APPROVAL_DATE_TIME ( #367, #282 ) ;
#193 = EDGE_LOOP ( 'NONE', ( #187, #67 ) ) ;
#194 = PERSON_AND_ORGANIZATION_ROLE ( 'design_supplier' ) ;
#195 = FACE_OUTER_BOUND ( 'NONE', #5, .T. ) ;
#196 = CC_DESIGN_SECURITY_CLASSIFICATION ( #350, ( #293 ) ) ;
#197 = PERSON_AND_ORGANIZATION_ROLE ( 'classification_officer' ) ;
#198 = ORIENTED_EDGE ( 'NONE', *, *, #108, .F. ) ;
#199 = DIRECTION ( 'NONE',  ( 0.000000000000000000, 0.000000000000000000, -1.000000000000000000 ) ) ;
#200 = CARTESIAN_POINT ( 'NONE',  ( -2.100000000000000089, 0.000000000000000000, 280.0000000000000000 ) ) ;
#201 = AXIS2_PLACEMENT_3D ( 'NONE', #55, #258, #81 ) ;
#202 = DIRECTION ( 'NONE',  ( 1.224646799147353207E-16, 1.000000000000000000, -0.000000000000000000 ) ) ;
#203 = DIRECTION ( 'NONE',  ( -0.000000000000000000, -0.000000000000000000, -1.000000000000000000 ) ) ;
#204 = DIRECTION ( 'NONE',  ( 1.000000000000000000, 0.000000000000000000, -0.000000000000000000 ) ) ;
#205 = EDGE_CURVE ( 'NONE', #276, #127, #323, .T. ) ;
#206 = CARTESIAN_POINT ( 'NONE',  ( 0.000000000000000000, 0.000000000000000000, 5.000000000000000000 ) ) ;
#207 = AXIS2_PLACEMENT_3D ( 'NONE', #146, #233, #117 ) ;
#208 = FACE_OUTER_BOUND ( 'NONE', #38, .T. ) ;
#209 = CARTESIAN_POINT ( 'NONE',  ( -7.000000000000000000, 0.000000000000000000, 0.000000000000000000 ) ) ;
#210 = DIRECTION ( 'NONE',  ( 1.000000000000000000, 0.000000000000000000, 0.000000000000000000 ) ) ;
#211 = EDGE_LOOP ( 'NONE', ( #304, #370, #8, #381 ) ) ;
#212 = APPROVAL_PERSON_ORGANIZATION ( #71, #318, #11 ) ;
#213 = ORIENTED_EDGE ( 'NONE', *, *, #33, .F. ) ;
#214 = CARTESIAN_POINT ( 'NONE',  ( 0.000000000000000000, 0.000000000000000000, 5.000000000000000000 ) ) ;
#215 = UNCERTAINTY_MEASURE_WITH_UNIT (LENGTH_MEASURE( 1.000000000000000082E-05 ), #120, 'distance_accuracy_value', 'NONE');
#216 = CC_DESIGN_PERSON_AND_ORGANIZATION_ASSIGNMENT ( #306, #197, ( #350 ) ) ;
#217 = ADVANCED_FACE ( 'NONE', ( #347 ), #227, .F. ) ;
#218 = COORDINATED_UNIVERSAL_TIME_OFFSET ( 1, 0, .AHEAD. ) ;
#219 = CIRCLE ( 'NONE', #114, 2.100000000000000089 ) ;
#220 = ORIENTED_EDGE ( 'NONE', *, *, #290, .F. ) ;
#221 = CARTESIAN_POINT ( 'NONE',  ( 0.000000000000000000, 0.000000000000000000, 280.0000000000000000 ) ) ;
#222 = VERTEX_POINT ( 'NONE', #260 ) ;
#223 = CARTESIAN_POINT ( 'NONE',  ( 4.000000000000000000, 4.898587196589412829E-16, 280.0000000000000000 ) ) ;
#224 = PERSON_AND_ORGANIZATION_ROLE ( 'creator' ) ;
#225 = LINE ( 'NONE', #76, #300 ) ;
#226 = LINE ( 'NONE', #320, #265 ) ;
#227 = TOROIDAL_SURFACE ( 'NONE', #273, 4.500000000000000888, 0.5000000000000000000 ) ;
#228 = CARTESIAN_POINT ( 'NONE',  ( 0.000000000000000000, 0.000000000000000000, 0.000000000000000000 ) ) ;
#229 = EDGE_CURVE ( 'NONE', #240, #333, #330, .T. ) ;
#230 = FACE_OUTER_BOUND ( 'NONE', #41, .T. ) ;
#231 = CARTESIAN_POINT ( 'NONE',  ( 0.000000000000000000, 0.000000000000000000, 280.0000000000000000 ) ) ;
#232 = VECTOR ( 'NONE', #78, 1000.000000000000000 ) ;
#233 = DIRECTION ( 'NONE',  ( -0.000000000000000000, -0.000000000000000000, -1.000000000000000000 ) ) ;
#234 = LOCAL_TIME ( 17, 27, 30.00000000000000000, #218 ) ;
#235 = DIRECTION ( 'NONE',  ( -0.000000000000000000, -0.000000000000000000, -1.000000000000000000 ) ) ;
#236 = CARTESIAN_POINT ( 'NONE',  ( 0.000000000000000000, 0.000000000000000000, 0.000000000000000000 ) ) ;
#237 = ORIENTED_EDGE ( 'NONE', *, *, #139, .F. ) ;
#238 = EDGE_LOOP ( 'NONE', ( #220, #168 ) ) ;
#239 = AXIS2_PLACEMENT_3D ( 'NONE', #1, #126, #186 ) ;
#240 = VERTEX_POINT ( 'NONE', #174 ) ;
#241 = ADVANCED_FACE ( 'NONE', ( #113, #22 ), #376, .T. ) ;
#242 = PERSON_AND_ORGANIZATION ( #175, #147 ) ;
#243 = ORIENTED_EDGE ( 'NONE', *, *, #319, .F. ) ;
#244 = DIRECTION ( 'NONE',  ( 0.000000000000000000, 0.000000000000000000, 1.000000000000000000 ) ) ;
#245 = ORIENTED_EDGE ( 'NONE', *, *, #139, .T. ) ;
#246 = AXIS2_PLACEMENT_3D ( 'NONE', #236, #244, #128 ) ;
#247 = PERSON_AND_ORGANIZATION ( #175, #147 ) ;
#248 = FACE_OUTER_BOUND ( 'NONE', #211, .T. ) ;
#249 = DATE_AND_TIME ( #136, #54 ) ;
#250 = CARTESIAN_POINT ( 'NONE',  ( 0.000000000000000000, 0.000000000000000000, 5.000000000000000000 ) ) ;
#251 = APPROVAL_STATUS ( 'not_yet_approved' ) ;
#252 = LINE ( 'NONE', #200, #232 ) ;
#253 = CLOSED_SHELL ( 'NONE', ( #18, #217, #75, #63, #179, #241, #17, #163, #191, #283, #296 ) ) ;
#254 = CIRCLE ( 'NONE', #101, 4.000000000000000000 ) ;
#255 = APPROVAL_STATUS ( 'not_yet_approved' ) ;
#256 = CARTESIAN_POINT ( 'NONE',  ( -2.100000000000000089, 0.000000000000000000, 280.0000000000000000 ) ) ;
#257 = CARTESIAN_POINT ( 'NONE',  ( -4.000000000000000000, 0.000000000000000000, 5.500000000000005329 ) ) ;
#258 = DIRECTION ( 'NONE',  ( 0.000000000000000000, 0.000000000000000000, 1.000000000000000000 ) ) ;
#259 = AXIS2_PLACEMENT_3D ( 'NONE', #206, #262, #180 ) ;
#260 = CARTESIAN_POINT ( 'NONE',  ( 7.000000000000000000, 8.572527594031473190E-16, 5.000000000000000000 ) ) ;
#261 = CARTESIAN_POINT ( 'NONE',  ( -7.000000000000000000, 0.000000000000000000, 5.000000000000000000 ) ) ;
#262 = DIRECTION ( 'NONE',  ( -0.000000000000000000, -0.000000000000000000, -1.000000000000000000 ) ) ;
#263 = VECTOR ( 'NONE', #281, 1000.000000000000000 ) ;
#264 = DIRECTION ( 'NONE',  ( 1.000000000000000000, 0.000000000000000000, -0.000000000000000000 ) ) ;
#265 = VECTOR ( 'NONE', #82, 1000.000000000000000 ) ;
#266 = AXIS2_PLACEMENT_3D ( 'NONE', #53, #287, #357 ) ;
#267 = EDGE_CURVE ( 'NONE', #61, #358, #344, .T. ) ;
#268 = CARTESIAN_POINT ( 'NONE',  ( 4.000000000000000000, 4.898587196589412829E-16, 280.0000000000000000 ) ) ;
#269 = ORIENTED_EDGE ( 'NONE', *, *, #362, .F. ) ;
#270 = APPLICATION_PROTOCOL_DEFINITION ( 'international standard', 'config_control_design', 1994, #39 ) ;
#271 = ORIENTED_EDGE ( 'NONE', *, *, #205, .T. ) ;
#272 = ORIENTED_EDGE ( 'NONE', *, *, #62, .F. ) ;
#273 = AXIS2_PLACEMENT_3D ( 'NONE', #351, #173, #374 ) ;
#274 = DIRECTION ( 'NONE',  ( 0.000000000000000000, 0.000000000000000000, 1.000000000000000000 ) ) ;
#275 = ORIENTED_EDGE ( 'NONE', *, *, #51, .F. ) ;
#276 = VERTEX_POINT ( 'NONE', #288 ) ;
#277 = DATE_TIME_ROLE ( 'classification_date' ) ;
#278 = CARTESIAN_POINT ( 'NONE',  ( 7.000000000000000000, 8.572527594031473190E-16, 5.000000000000000000 ) ) ;
#279 = CC_DESIGN_APPROVAL ( #318, ( #350 ) ) ;
#280 = DIRECTION ( 'NONE',  ( 0.000000000000000000, 0.000000000000000000, 1.000000000000000000 ) ) ;
#281 = DIRECTION ( 'NONE',  ( -0.000000000000000000, -0.000000000000000000, -1.000000000000000000 ) ) ;
#282 = APPROVAL ( #251, 'NEURÈENÝ' ) ;
#283 = ADVANCED_FACE ( 'NONE', ( #208 ), #20, .F. ) ;
#284 = CARTESIAN_POINT ( 'NONE',  ( 0.000000000000000000, 0.000000000000000000, 5.000000000000000000 ) ) ;
#285 = LINE ( 'NONE', #278, #263 ) ;
#286 = DIRECTION ( 'NONE',  ( 1.000000000000000000, 0.000000000000000000, 0.000000000000000000 ) ) ;
#287 = DIRECTION ( 'NONE',  ( 0.000000000000000000, 0.000000000000000000, -1.000000000000000000 ) ) ;
#288 = CARTESIAN_POINT ( 'NONE',  ( 4.000000000000000000, 4.898587196589412829E-16, 5.500000000000005329 ) ) ;
#289 = DIRECTION ( 'NONE',  ( 0.000000000000000000, 0.000000000000000000, 1.000000000000000000 ) ) ;
#290 = EDGE_CURVE ( 'NONE', #164, #44, #219, .T. ) ;
#291 = AXIS2_PLACEMENT_3D ( 'NONE', #221, #69, #311 ) ;
#292 = DIRECTION ( 'NONE',  ( -0.000000000000000000, -0.000000000000000000, -1.000000000000000000 ) ) ;
#293 = PRODUCT_DEFINITION_FORMATION_WITH_SPECIFIED_SOURCE ( 'LIBOVOLNÝ', '', #129, .NOT_KNOWN. ) ;
#294 = COORDINATED_UNIVERSAL_TIME_OFFSET ( 1, 0, .AHEAD. ) ;
#295 = ORIENTED_EDGE ( 'NONE', *, *, #118, .F. ) ;
#296 = ADVANCED_FACE ( 'NONE', ( #230 ), #316, .F. ) ;
#297 = CARTESIAN_POINT ( 'NONE',  ( 0.000000000000000000, 0.000000000000000000, 0.000000000000000000 ) ) ;
#298 = VERTEX_POINT ( 'NONE', #3 ) ;
#299 = CARTESIAN_POINT ( 'NONE',  ( 0.000000000000000000, 0.000000000000000000, 280.0000000000000000 ) ) ;
#300 = VECTOR ( 'NONE', #47, 1000.000000000000000 ) ;
#301 = ORIENTED_EDGE ( 'NONE', *, *, #205, .F. ) ;
#302 = CIRCLE ( 'NONE', #313, 7.000000000000000000 ) ;
#303 = APPROVAL_ROLE ( '' ) ;
#304 = ORIENTED_EDGE ( 'NONE', *, *, #178, .F. ) ;
#305 = PERSON_AND_ORGANIZATION ( #175, #147 ) ;
#306 = PERSON_AND_ORGANIZATION ( #175, #147 ) ;
#307 = ORIENTED_EDGE ( 'NONE', *, *, #166, .T. ) ;
#308 = SECURITY_CLASSIFICATION_LEVEL ( 'unclassified' ) ;
#309 = CARTESIAN_POINT ( 'NONE',  ( 0.000000000000000000, 0.000000000000000000, 5.500000000000005329 ) ) ;
#310 = CC_DESIGN_PERSON_AND_ORGANIZATION_ASSIGNMENT ( #95, #97, ( #377 ) ) ;
#311 = DIRECTION ( 'NONE',  ( 1.000000000000000000, 0.000000000000000000, 0.000000000000000000 ) ) ;
#312 = DIRECTION ( 'NONE',  ( 1.000000000000000000, 0.000000000000000000, 0.000000000000000000 ) ) ;
#313 = AXIS2_PLACEMENT_3D ( 'NONE', #155, #326, #30 ) ;
#314 = DIRECTION ( 'NONE',  ( -1.000000000000000000, 0.000000000000000000, 0.000000000000000000 ) ) ;
#315 = FACE_OUTER_BOUND ( 'NONE', #337, .T. ) ;
#316 = CYLINDRICAL_SURFACE ( 'NONE', #266, 2.100000000000000089 ) ;
#317 = CYLINDRICAL_SURFACE ( 'NONE', #349, 4.000000000000000000 ) ;
#318 = APPROVAL ( #255, 'NEURÈENÝ' ) ;
#319 = EDGE_CURVE ( 'NONE', #185, #298, #171, .T. ) ;
#320 = CARTESIAN_POINT ( 'NONE',  ( -4.000000000000000000, 0.000000000000000000, 280.0000000000000000 ) ) ;
#321 = DIRECTION ( 'NONE',  ( 0.000000000000000000, 0.000000000000000000, 1.000000000000000000 ) ) ;
#322 = PERSON_AND_ORGANIZATION ( #175, #147 ) ;
#323 = CIRCLE ( 'NONE', #83, 4.000000000000000000 ) ;
#324 = ORIENTED_EDGE ( 'NONE', *, *, #51, .T. ) ;
#325 = ORIENTED_EDGE ( 'NONE', *, *, #108, .T. ) ;
#326 = DIRECTION ( 'NONE',  ( 0.000000000000000000, 0.000000000000000000, 1.000000000000000000 ) ) ;
#327 = ORIENTED_EDGE ( 'NONE', *, *, #319, .T. ) ;
#328 = MECHANICAL_CONTEXT ( 'NONE', #39, 'mechanical' ) ;
#329 = ORIENTED_EDGE ( 'NONE', *, *, #290, .T. ) ;
#330 = CIRCLE ( 'NONE', #259, 4.500000000000000888 ) ;
#331 = CC_DESIGN_PERSON_AND_ORGANIZATION_ASSIGNMENT ( #322, #100, ( #129 ) ) ;
#332 = EDGE_CURVE ( 'NONE', #190, #68, #48, .T. ) ;
#333 = VERTEX_POINT ( 'NONE', #188 ) ;
#334 = COORDINATED_UNIVERSAL_TIME_OFFSET ( 1, 0, .AHEAD. ) ;
#335 = ORIENTED_EDGE ( 'NONE', *, *, #33, .T. ) ;
#336 = AXIS2_PLACEMENT_3D ( 'NONE', #284, #142, #312 ) ;
#337 = EDGE_LOOP ( 'NONE', ( #132, #59, #245, #363 ) ) ;
#338 = CC_DESIGN_APPROVAL ( #93, ( #377 ) ) ;
#339 = DIRECTION ( 'NONE',  ( -1.000000000000000000, 0.000000000000000000, 0.000000000000000000 ) ) ;
#340 = DIRECTION ( 'NONE',  ( -1.000000000000000000, 1.224646799147351482E-16, 0.000000000000000000 ) ) ;
#341 = DIRECTION ( 'NONE',  ( -1.000000000000000000, 0.000000000000000000, 0.000000000000000000 ) ) ;
#342 = CIRCLE ( 'NONE', #336, 7.000000000000000000 ) ;
#343 = MANIFOLD_SOLID_BREP ( 'Odebrat vysunutím3', #253 ) ;
#344 = CIRCLE ( 'NONE', #141, 2.100000000000000089 ) ;
#345 = CARTESIAN_POINT ( 'NONE',  ( 0.000000000000000000, 0.000000000000000000, 5.500000000000005329 ) ) ;
#346 = CARTESIAN_POINT ( 'NONE',  ( 0.000000000000000000, 0.000000000000000000, 280.0000000000000000 ) ) ;
#347 = FACE_OUTER_BOUND ( 'NONE', #157, .T. ) ;
#348 = EDGE_CURVE ( 'NONE', #44, #164, #35, .T. ) ;
#349 = AXIS2_PLACEMENT_3D ( 'NONE', #346, #378, #154 ) ;
#350 = SECURITY_CLASSIFICATION ( '', '', #308 ) ;
#351 = CARTESIAN_POINT ( 'NONE',  ( 0.000000000000000000, 0.000000000000000000, 5.500000000000005329 ) ) ;
#352 = FACE_OUTER_BOUND ( 'NONE', #64, .T. ) ;
#353 = ORIENTED_EDGE ( 'NONE', *, *, #6, .F. ) ;
#354 = AXIS2_PLACEMENT_3D ( 'NONE', #12, #137, #341 ) ;
#355 = APPROVAL_DATE_TIME ( #28, #93 ) ;
#356 = ORIENTED_EDGE ( 'NONE', *, *, #361, .F. ) ;
#357 = DIRECTION ( 'NONE',  ( -1.000000000000000000, 0.000000000000000000, 0.000000000000000000 ) ) ;
#358 = VERTEX_POINT ( 'NONE', #131 ) ;
#359 = CALENDAR_DATE ( 2022, 8, 7 ) ;
#360 = ORIENTED_EDGE ( 'NONE', *, *, #362, .T. ) ;
#361 = EDGE_CURVE ( 'NONE', #333, #240, #160, .T. ) ;
#362 = EDGE_CURVE ( 'NONE', #68, #190, #254, .T. ) ;
#363 = ORIENTED_EDGE ( 'NONE', *, *, #86, .T. ) ;
#364 = AXIS2_PLACEMENT_3D ( 'NONE', #345, #80, #286 ) ;
#365 = CYLINDRICAL_SURFACE ( 'NONE', #70, 7.000000000000000000 ) ;
#366 = EDGE_CURVE ( 'NONE', #298, #185, #302, .T. ) ;
#367 = DATE_AND_TIME ( #372, #66 ) ;
#368 = DIRECTION ( 'NONE',  ( -0.000000000000000000, -0.000000000000000000, -1.000000000000000000 ) ) ;
#369 = DATE_AND_TIME ( #40, #91 ) ;
#370 = ORIENTED_EDGE ( 'NONE', *, *, #6, .T. ) ;
#371 = DIRECTION ( 'NONE',  ( 0.000000000000000000, -1.000000000000000000, 0.000000000000000000 ) ) ;
#372 = CALENDAR_DATE ( 2022, 8, 7 ) ;
#373 = ORIENTED_EDGE ( 'NONE', *, *, #62, .T. ) ;
#374 = DIRECTION ( 'NONE',  ( 1.000000000000000000, 0.000000000000000000, 0.000000000000000000 ) ) ;
#375 = AXIS2_PLACEMENT_3D ( 'NONE', #214, #158, #162 ) ;
#376 = PLANE ( 'NONE',  #4 ) ;
#377 = PRODUCT_DEFINITION ( 'NEZNÁMÝ', '', #293, #98 ) ;
#378 = DIRECTION ( 'NONE',  ( -0.000000000000000000, -0.000000000000000000, -1.000000000000000000 ) ) ;
#379 = EDGE_CURVE ( 'NONE', #68, #276, #60, .T. ) ;
#380 = CARTESIAN_POINT ( 'NONE',  ( -7.000000000000000000, 0.000000000000000000, 5.000000000000000000 ) ) ;
#381 = ORIENTED_EDGE ( 'NONE', *, *, #166, .F. ) ;
ENDSEC;
END-ISO-10303-21;
