ISO-10303-21;
HEADER;
FILE_DESCRIPTION (( 'STEP AP203' ),
    '1' );
FILE_NAME ('6bb4.STEP',
    '2022-07-08T15:00:27',
    ( '' ),
    ( '' ),
    'SwSTEP 2.0',
    'SolidWorks 2019',
    '' );
FILE_SCHEMA (( 'CONFIG_CONTROL_DESIGN' ));
ENDSEC;

DATA;
#1 = DIRECTION ( 'NONE',  ( -1.000000000000000000, 1.224646799147351482E-16, 0.000000000000000000 ) ) ;
#2 = CARTESIAN_POINT ( 'NONE',  ( -6.000000000000000888, 0.000000000000000000, 7.500000000000007105 ) ) ;
#3 = AXIS2_PLACEMENT_3D ( 'NONE', #65, #57, #60 ) ;
#4 = AXIS2_PLACEMENT_3D ( 'NONE', #347, #204, #322 ) ;
#5 =( NAMED_UNIT ( * ) PLANE_ANGLE_UNIT ( ) SI_UNIT ( $, .RADIAN. ) );
#6 = EDGE_CURVE ( 'NONE', #14, #205, #125, .T. ) ;
#7 = DIRECTION ( 'NONE',  ( 1.000000000000000000, 0.000000000000000000, 0.000000000000000000 ) ) ;
#8 = ORIENTED_EDGE ( 'NONE', *, *, #321, .F. ) ;
#9 = DATE_TIME_ROLE ( 'creation_date' ) ;
#10 = ORIENTED_EDGE ( 'NONE', *, *, #235, .F. ) ;
#11 = DESIGN_CONTEXT ( 'detailed design', #247, 'design' ) ;
#12 = TOROIDAL_SURFACE ( 'NONE', #4, 6.500000000000000888, 0.5000000000000000000 ) ;
#13 = DIRECTION ( 'NONE',  ( 0.000000000000000000, 0.000000000000000000, 1.000000000000000000 ) ) ;
#14 = VERTEX_POINT ( 'NONE', #105 ) ;
#15 = ORIENTED_EDGE ( 'NONE', *, *, #191, .T. ) ;
#16 = COORDINATED_UNIVERSAL_TIME_OFFSET ( 1, 0, .AHEAD. ) ;
#17 = DIRECTION ( 'NONE',  ( 0.000000000000000000, 0.000000000000000000, 1.000000000000000000 ) ) ;
#18 = CIRCLE ( 'NONE', #3, 6.000000000000000888 ) ;
#19 = CARTESIAN_POINT ( 'NONE',  ( 0.000000000000000000, 0.000000000000000000, 0.000000000000000000 ) ) ;
#20 = AXIS2_PLACEMENT_3D ( 'NONE', #25, #379, #262 ) ;
#21 = APPROVAL_STATUS ( 'not_yet_approved' ) ;
#22 = ADVANCED_FACE ( 'NONE', ( #196 ), #287, .T. ) ;
#23 = DIRECTION ( 'NONE',  ( -0.000000000000000000, -0.000000000000000000, -1.000000000000000000 ) ) ;
#24 = CARTESIAN_POINT ( 'NONE',  ( 6.000000000000000888, 7.347880794884120722E-16, 457.0000000000000000 ) ) ;
#25 = CARTESIAN_POINT ( 'NONE',  ( 0.000000000000000000, 0.000000000000000000, 7.000000000000000000 ) ) ;
#26 = DIRECTION ( 'NONE',  ( 0.000000000000000000, 0.000000000000000000, 1.000000000000000000 ) ) ;
#27 = CARTESIAN_POINT ( 'NONE',  ( 0.000000000000000000, 0.000000000000000000, 7.500000000000007105 ) ) ;
#28 = CARTESIAN_POINT ( 'NONE',  ( 6.000000000000000888, 7.347880794884120722E-16, 457.0000000000000000 ) ) ;
#29 = APPROVAL_PERSON_ORGANIZATION ( #306, #175, #113 ) ;
#30 = ORIENTED_EDGE ( 'NONE', *, *, #155, .T. ) ;
#31 = DIRECTION ( 'NONE',  ( 1.000000000000000000, 0.000000000000000000, 0.000000000000000000 ) ) ;
#32 = ADVANCED_FACE ( 'NONE', ( #250, #220 ), #340, .T. ) ;
#33 = MECHANICAL_CONTEXT ( 'NONE', #35, 'mechanical' ) ;
#34 = DIRECTION ( 'NONE',  ( -0.000000000000000000, -0.000000000000000000, -1.000000000000000000 ) ) ;
#35 = APPLICATION_CONTEXT ( 'configuration controlled 3d designs of mechanical parts and assemblies' ) ;
#36 = DIRECTION ( 'NONE',  ( 0.000000000000000000, 0.000000000000000000, -1.000000000000000000 ) ) ;
#37 = EDGE_LOOP ( 'NONE', ( #324, #39 ) ) ;
#38 = CYLINDRICAL_SURFACE ( 'NONE', #359, 2.750000000000000000 ) ;
#39 = ORIENTED_EDGE ( 'NONE', *, *, #118, .F. ) ;
#40 = FACE_OUTER_BOUND ( 'NONE', #350, .T. ) ;
#41 = EDGE_CURVE ( 'NONE', #97, #14, #137, .T. ) ;
#42 = EDGE_LOOP ( 'NONE', ( #294, #184, #62, #69 ) ) ;
#43 = LOCAL_TIME ( 17, 0, 27.00000000000000000, #300 ) ;
#44 = SHAPE_DEFINITION_REPRESENTATION ( #281, #94 ) ;
#45 = ORIENTED_EDGE ( 'NONE', *, *, #235, .T. ) ;
#46 = SECURITY_CLASSIFICATION_LEVEL ( 'unclassified' ) ;
#47 = DIRECTION ( 'NONE',  ( 0.000000000000000000, 0.000000000000000000, -1.000000000000000000 ) ) ;
#48 = PRODUCT_DEFINITION ( 'NEZNÁMÝ', '', #354, #11 ) ;
#49 = CALENDAR_DATE ( 2022, 8, 7 ) ;
#50 = CLOSED_SHELL ( 'NONE', ( #380, #314, #102, #169, #22, #32, #246, #375, #112, #107, #372 ) ) ;
#51 = AXIS2_PLACEMENT_3D ( 'NONE', #349, #266, #182 ) ;
#52 = CARTESIAN_POINT ( 'NONE',  ( -2.750000000000000000, 0.000000000000000000, 457.0000000000000000 ) ) ;
#53 = CIRCLE ( 'NONE', #51, 10.00000000000000000 ) ;
#54 = CARTESIAN_POINT ( 'NONE',  ( 0.000000000000000000, 0.000000000000000000, 0.000000000000000000 ) ) ;
#55 = EDGE_LOOP ( 'NONE', ( #302, #71, #361, #171 ) ) ;
#56 = EDGE_CURVE ( 'NONE', #348, #357, #201, .T. ) ;
#57 = DIRECTION ( 'NONE',  ( 0.000000000000000000, 0.000000000000000000, 1.000000000000000000 ) ) ;
#58 = AXIS2_PLACEMENT_3D ( 'NONE', #54, #26, #151 ) ;
#59 = SECURITY_CLASSIFICATION ( '', '', #46 ) ;
#60 = DIRECTION ( 'NONE',  ( 1.000000000000000000, 0.000000000000000000, 0.000000000000000000 ) ) ;
#61 = DIRECTION ( 'NONE',  ( 0.000000000000000000, -1.000000000000000000, 0.000000000000000000 ) ) ;
#62 = ORIENTED_EDGE ( 'NONE', *, *, #83, .T. ) ;
#63 = FACE_OUTER_BOUND ( 'NONE', #190, .T. ) ;
#64 = AXIS2_PLACEMENT_3D ( 'NONE', #238, #34, #74 ) ;
#65 = CARTESIAN_POINT ( 'NONE',  ( 0.000000000000000000, 0.000000000000000000, 7.500000000000007105 ) ) ;
#66 = CARTESIAN_POINT ( 'NONE',  ( 6.000000000000000888, 7.347880794884120722E-16, 7.500000000000007105 ) ) ;
#67 = EDGE_CURVE ( 'NONE', #242, #153, #98, .T. ) ;
#68 = CARTESIAN_POINT ( 'NONE',  ( 0.000000000000000000, 0.000000000000000000, 457.0000000000000000 ) ) ;
#69 = ORIENTED_EDGE ( 'NONE', *, *, #41, .F. ) ;
#70 = CARTESIAN_POINT ( 'NONE',  ( 0.000000000000000000, 0.000000000000000000, 457.0000000000000000 ) ) ;
#71 = ORIENTED_EDGE ( 'NONE', *, *, #326, .T. ) ;
#72 = EDGE_CURVE ( 'NONE', #121, #97, #166, .T. ) ;
#73 = ORIENTED_EDGE ( 'NONE', *, *, #358, .F. ) ;
#74 = DIRECTION ( 'NONE',  ( -1.000000000000000000, 0.000000000000000000, 0.000000000000000000 ) ) ;
#75 = EDGE_LOOP ( 'NONE', ( #165, #219, #277, #140 ) ) ;
#76 = CIRCLE ( 'NONE', #106, 6.000000000000000888 ) ;
#77 = DIRECTION ( 'NONE',  ( 1.000000000000000000, 0.000000000000000000, 0.000000000000000000 ) ) ;
#78 = VERTEX_POINT ( 'NONE', #24 ) ;
#79 = EDGE_CURVE ( 'NONE', #78, #348, #251, .T. ) ;
#80 = CARTESIAN_POINT ( 'NONE',  ( 0.000000000000000000, 0.000000000000000000, 457.0000000000000000 ) ) ;
#81 = APPROVAL_PERSON_ORGANIZATION ( #367, #351, #141 ) ;
#82 = CARTESIAN_POINT ( 'NONE',  ( 6.500000000000000888, 0.000000000000000000, 7.000000000000002665 ) ) ;
#83 = EDGE_CURVE ( 'NONE', #205, #14, #312, .T. ) ;
#84 = DIRECTION ( 'NONE',  ( -0.000000000000000000, -0.000000000000000000, -1.000000000000000000 ) ) ;
#85 = CARTESIAN_POINT ( 'NONE',  ( 10.00000000000000000, 1.224646799147353256E-15, 7.000000000000000000 ) ) ;
#86 = FACE_OUTER_BOUND ( 'NONE', #369, .T. ) ;
#87 = AXIS2_PLACEMENT_3D ( 'NONE', #374, #327, #1 ) ;
#88 = CARTESIAN_POINT ( 'NONE',  ( -6.500000000000000888, 7.960204194457796463E-16, 7.000000000000002665 ) ) ;
#89 = ORIENTED_EDGE ( 'NONE', *, *, #6, .F. ) ;
#90 = DIRECTION ( 'NONE',  ( -0.000000000000000000, -0.000000000000000000, -1.000000000000000000 ) ) ;
#91 = ORIENTED_EDGE ( 'NONE', *, *, #72, .F. ) ;
#92 = DIRECTION ( 'NONE',  ( 1.000000000000000000, 0.000000000000000000, 0.000000000000000000 ) ) ;
#93 = AXIS2_PLACEMENT_3D ( 'NONE', #70, #356, #243 ) ;
#94 = ADVANCED_BREP_SHAPE_REPRESENTATION ( '6bb4', ( #252, #245 ), #305 ) ;
#95 = CALENDAR_DATE ( 2022, 8, 7 ) ;
#96 = PERSON_AND_ORGANIZATION ( #345, #325 ) ;
#97 = VERTEX_POINT ( 'NONE', #194 ) ;
#98 = CIRCLE ( 'NONE', #272, 10.00000000000000000 ) ;
#99 = CIRCLE ( 'NONE', #93, 6.000000000000000888 ) ;
#100 = FACE_OUTER_BOUND ( 'NONE', #42, .T. ) ;
#101 = VERTEX_POINT ( 'NONE', #82 ) ;
#102 = ADVANCED_FACE ( 'NONE', ( #108 ), #285, .T. ) ;
#103 = CYLINDRICAL_SURFACE ( 'NONE', #346, 2.750000000000000000 ) ;
#104 = ORIENTED_EDGE ( 'NONE', *, *, #118, .T. ) ;
#105 = CARTESIAN_POINT ( 'NONE',  ( -2.750000000000000000, 0.000000000000000000, 0.000000000000000000 ) ) ;
#106 = AXIS2_PLACEMENT_3D ( 'NONE', #27, #343, #92 ) ;
#107 = ADVANCED_FACE ( 'NONE', ( #256 ), #138, .F. ) ;
#108 = FACE_OUTER_BOUND ( 'NONE', #55, .T. ) ;
#109 = DIRECTION ( 'NONE',  ( 0.000000000000000000, 0.000000000000000000, 1.000000000000000000 ) ) ;
#110 = DATE_AND_TIME ( #284, #290 ) ;
#111 = DIRECTION ( 'NONE',  ( 1.000000000000000000, 0.000000000000000000, 0.000000000000000000 ) ) ;
#112 = ADVANCED_FACE ( 'NONE', ( #316, #142 ), #339, .T. ) ;
#113 = APPROVAL_ROLE ( '' ) ;
#114 = DIRECTION ( 'NONE',  ( 1.000000000000000000, 0.000000000000000000, 0.000000000000000000 ) ) ;
#115 = CARTESIAN_POINT ( 'NONE',  ( 0.000000000000000000, 0.000000000000000000, 7.000000000000000000 ) ) ;
#116 = LINE ( 'NONE', #230, #259 ) ;
#117 = DIRECTION ( 'NONE',  ( 1.000000000000000000, 0.000000000000000000, -0.000000000000000000 ) ) ;
#118 = EDGE_CURVE ( 'NONE', #145, #206, #172, .T. ) ;
#119 = LOCAL_TIME ( 17, 0, 27.00000000000000000, #240 ) ;
#120 = CARTESIAN_POINT ( 'NONE',  ( -10.00000000000000000, 0.000000000000000000, 7.000000000000000000 ) ) ;
#121 = VERTEX_POINT ( 'NONE', #149 ) ;
#122 = DIRECTION ( 'NONE',  ( -0.000000000000000000, -0.000000000000000000, -1.000000000000000000 ) ) ;
#123 = CC_DESIGN_PERSON_AND_ORGANIZATION_ASSIGNMENT ( #134, #223, ( #354 ) ) ;
#124 = APPLICATION_PROTOCOL_DEFINITION ( 'international standard', 'config_control_design', 1994, #35 ) ;
#125 = CIRCLE ( 'NONE', #221, 2.750000000000000000 ) ;
#126 = LOCAL_TIME ( 17, 0, 27.00000000000000000, #144 ) ;
#127 =( LENGTH_UNIT ( ) NAMED_UNIT ( * ) SI_UNIT ( .MILLI., .METRE. ) );
#128 = ORIENTED_EDGE ( 'NONE', *, *, #191, .F. ) ;
#129 = DIRECTION ( 'NONE',  ( -1.000000000000000000, 0.000000000000000000, 0.000000000000000000 ) ) ;
#130 = ORIENTED_EDGE ( 'NONE', *, *, #143, .T. ) ;
#131 = AXIS2_PLACEMENT_3D ( 'NONE', #180, #320, #31 ) ;
#132 = DIRECTION ( 'NONE',  ( 1.000000000000000000, 0.000000000000000000, 0.000000000000000000 ) ) ;
#133 = ORIENTED_EDGE ( 'NONE', *, *, #83, .F. ) ;
#134 = PERSON_AND_ORGANIZATION ( #345, #325 ) ;
#135 = CARTESIAN_POINT ( 'NONE',  ( -6.000000000000000888, 0.000000000000000000, 457.0000000000000000 ) ) ;
#136 = APPROVAL_DATE_TIME ( #110, #351 ) ;
#137 = LINE ( 'NONE', #52, #263 ) ;
#138 = TOROIDAL_SURFACE ( 'NONE', #185, 6.500000000000000888, 0.5000000000000000000 ) ;
#139 = PERSON_AND_ORGANIZATION ( #345, #325 ) ;
#140 = ORIENTED_EDGE ( 'NONE', *, *, #6, .T. ) ;
#141 = APPROVAL_ROLE ( '' ) ;
#142 = FACE_OUTER_BOUND ( 'NONE', #304, .T. ) ;
#143 = EDGE_CURVE ( 'NONE', #357, #371, #18, .T. ) ;
#144 = COORDINATED_UNIVERSAL_TIME_OFFSET ( 1, 0, .AHEAD. ) ;
#145 = VERTEX_POINT ( 'NONE', #260 ) ;
#146 = AXIS2_PLACEMENT_3D ( 'NONE', #342, #17, #111 ) ;
#147 = CC_DESIGN_APPROVAL ( #175, ( #354 ) ) ;
#148 = CARTESIAN_POINT ( 'NONE',  ( -10.00000000000000000, 0.000000000000000000, 7.000000000000000000 ) ) ;
#149 = CARTESIAN_POINT ( 'NONE',  ( 2.750000000000000000, 3.367778697655221012E-16, 457.0000000000000000 ) ) ;
#150 = DIRECTION ( 'NONE',  ( 0.000000000000000000, 0.000000000000000000, -1.000000000000000000 ) ) ;
#151 = DIRECTION ( 'NONE',  ( 1.000000000000000000, 0.000000000000000000, 0.000000000000000000 ) ) ;
#152 = CIRCLE ( 'NONE', #215, 10.00000000000000000 ) ;
#153 = VERTEX_POINT ( 'NONE', #120 ) ;
#154 = DIRECTION ( 'NONE',  ( -0.000000000000000000, -0.000000000000000000, -1.000000000000000000 ) ) ;
#155 = EDGE_CURVE ( 'NONE', #357, #178, #231, .T. ) ;
#156 = PERSON_AND_ORGANIZATION ( #345, #325 ) ;
#157 =( NAMED_UNIT ( * ) SI_UNIT ( $, .STERADIAN. ) SOLID_ANGLE_UNIT ( ) );
#158 = ORIENTED_EDGE ( 'NONE', *, *, #210, .F. ) ;
#159 = CC_DESIGN_DATE_AND_TIME_ASSIGNMENT ( #276, #9, ( #48 ) ) ;
#160 = CALENDAR_DATE ( 2022, 8, 7 ) ;
#161 = EDGE_LOOP ( 'NONE', ( #280, #15 ) ) ;
#162 = AXIS2_PLACEMENT_3D ( 'NONE', #355, #301, #7 ) ;
#163 = EDGE_LOOP ( 'NONE', ( #89, #133 ) ) ;
#164 = CARTESIAN_POINT ( 'NONE',  ( 0.000000000000000000, 0.000000000000000000, 7.500000000000007105 ) ) ;
#165 = ORIENTED_EDGE ( 'NONE', *, *, #292, .F. ) ;
#166 = CIRCLE ( 'NONE', #214, 2.750000000000000000 ) ;
#167 = PERSON_AND_ORGANIZATION_ROLE ( 'classification_officer' ) ;
#168 = ORIENTED_EDGE ( 'NONE', *, *, #267, .T. ) ;
#169 = ADVANCED_FACE ( 'NONE', ( #63 ), #269, .T. ) ;
#170 = DIRECTION ( 'NONE',  ( 1.000000000000000000, 0.000000000000000000, 0.000000000000000000 ) ) ;
#171 = ORIENTED_EDGE ( 'NONE', *, *, #56, .F. ) ;
#172 = CIRCLE ( 'NONE', #58, 10.00000000000000000 ) ;
#173 = CIRCLE ( 'NONE', #313, 0.5000000000000004441 ) ;
#174 = CARTESIAN_POINT ( 'NONE',  ( 0.000000000000000000, 0.000000000000000000, 0.000000000000000000 ) ) ;
#175 = APPROVAL ( #21, 'NEURÈENÝ' ) ;
#176 = CARTESIAN_POINT ( 'NONE',  ( 2.750000000000000000, 3.367778697655221012E-16, 0.000000000000000000 ) ) ;
#177 = DIRECTION ( 'NONE',  ( 0.000000000000000000, 0.000000000000000000, -1.000000000000000000 ) ) ;
#178 = VERTEX_POINT ( 'NONE', #88 ) ;
#179 = EDGE_CURVE ( 'NONE', #153, #242, #53, .T. ) ;
#180 = CARTESIAN_POINT ( 'NONE',  ( 0.000000000000000000, 0.000000000000000000, 457.0000000000000000 ) ) ;
#181 = VECTOR ( 'NONE', #154, 1000.000000000000000 ) ;
#182 = DIRECTION ( 'NONE',  ( 1.000000000000000000, 0.000000000000000000, 0.000000000000000000 ) ) ;
#183 = APPLICATION_PROTOCOL_DEFINITION ( 'international standard', 'config_control_design', 1994, #247 ) ;
#184 = ORIENTED_EDGE ( 'NONE', *, *, #292, .T. ) ;
#185 = AXIS2_PLACEMENT_3D ( 'NONE', #164, #109, #225 ) ;
#186 = CC_DESIGN_APPROVAL ( #199, ( #48 ) ) ;
#187 = EDGE_CURVE ( 'NONE', #97, #121, #265, .T. ) ;
#188 = PERSON_AND_ORGANIZATION ( #345, #325 ) ;
#189 = ORIENTED_EDGE ( 'NONE', *, *, #155, .F. ) ;
#190 = EDGE_LOOP ( 'NONE', ( #381, #45, #104, #158 ) ) ;
#191 = EDGE_CURVE ( 'NONE', #178, #101, #341, .T. ) ;
#192 = ORIENTED_EDGE ( 'NONE', *, *, #321, .T. ) ;
#193 = CC_DESIGN_APPROVAL ( #351, ( #59 ) ) ;
#194 = CARTESIAN_POINT ( 'NONE',  ( -2.750000000000000000, 0.000000000000000000, 457.0000000000000000 ) ) ;
#195 = APPROVAL_DATE_TIME ( #286, #175 ) ;
#196 = FACE_OUTER_BOUND ( 'NONE', #332, .T. ) ;
#197 = DATE_TIME_ROLE ( 'classification_date' ) ;
#198 = ORIENTED_EDGE ( 'NONE', *, *, #187, .F. ) ;
#199 = APPROVAL ( #273, 'NEURÈENÝ' ) ;
#200 = DIRECTION ( 'NONE',  ( 0.000000000000000000, 0.000000000000000000, 1.000000000000000000 ) ) ;
#201 = LINE ( 'NONE', #135, #303 ) ;
#202 = FACE_OUTER_BOUND ( 'NONE', #37, .T. ) ;
#203 = CC_DESIGN_DATE_AND_TIME_ASSIGNMENT ( #362, #197, ( #59 ) ) ;
#204 = DIRECTION ( 'NONE',  ( 0.000000000000000000, 0.000000000000000000, 1.000000000000000000 ) ) ;
#205 = VERTEX_POINT ( 'NONE', #176 ) ;
#206 = VERTEX_POINT ( 'NONE', #234 ) ;
#207 = LINE ( 'NONE', #148, #264 ) ;
#208 = APPROVAL_PERSON_ORGANIZATION ( #156, #199, #330 ) ;
#209 = DATE_AND_TIME ( #95, #119 ) ;
#210 = EDGE_CURVE ( 'NONE', #153, #206, #207, .T. ) ;
#211 = DIRECTION ( 'NONE',  ( 0.000000000000000000, 0.000000000000000000, -1.000000000000000000 ) ) ;
#212 = AXIS2_PLACEMENT_3D ( 'NONE', #338, #227, #309 ) ;
#213 = ORIENTED_EDGE ( 'NONE', *, *, #179, .F. ) ;
#214 = AXIS2_PLACEMENT_3D ( 'NONE', #228, #289, #170 ) ;
#215 = AXIS2_PLACEMENT_3D ( 'NONE', #174, #291, #261 ) ;
#216 = DIRECTION ( 'NONE',  ( -1.000000000000000000, 0.000000000000000000, 0.000000000000000000 ) ) ;
#217 = ORIENTED_EDGE ( 'NONE', *, *, #333, .T. ) ;
#218 = CARTESIAN_POINT ( 'NONE',  ( -6.000000000000000888, 0.000000000000000000, 457.0000000000000000 ) ) ;
#219 = ORIENTED_EDGE ( 'NONE', *, *, #72, .T. ) ;
#220 = FACE_OUTER_BOUND ( 'NONE', #334, .T. ) ;
#221 = AXIS2_PLACEMENT_3D ( 'NONE', #311, #363, #249 ) ;
#222 = LOCAL_TIME ( 17, 0, 27.00000000000000000, #308 ) ;
#223 = PERSON_AND_ORGANIZATION_ROLE ( 'design_supplier' ) ;
#224 = DIRECTION ( 'NONE',  ( -0.000000000000000000, -0.000000000000000000, -1.000000000000000000 ) ) ;
#225 = DIRECTION ( 'NONE',  ( 1.000000000000000000, 0.000000000000000000, 0.000000000000000000 ) ) ;
#226 = CC_DESIGN_PERSON_AND_ORGANIZATION_ASSIGNMENT ( #188, #298, ( #48 ) ) ;
#227 = DIRECTION ( 'NONE',  ( 0.000000000000000000, 0.000000000000000000, 1.000000000000000000 ) ) ;
#228 = CARTESIAN_POINT ( 'NONE',  ( 0.000000000000000000, 0.000000000000000000, 457.0000000000000000 ) ) ;
#229 = DIRECTION ( 'NONE',  ( -0.000000000000000000, -0.000000000000000000, -1.000000000000000000 ) ) ;
#230 = CARTESIAN_POINT ( 'NONE',  ( 2.750000000000000000, 3.367778697655221012E-16, 457.0000000000000000 ) ) ;
#231 = CIRCLE ( 'NONE', #87, 0.5000000000000004441 ) ;
#232 = CARTESIAN_POINT ( 'NONE',  ( 6.500000000000000888, 0.000000000000000000, 7.500000000000007105 ) ) ;
#233 = ORIENTED_EDGE ( 'NONE', *, *, #143, .F. ) ;
#234 = CARTESIAN_POINT ( 'NONE',  ( -10.00000000000000000, 0.000000000000000000, 0.000000000000000000 ) ) ;
#235 = EDGE_CURVE ( 'NONE', #242, #145, #376, .T. ) ;
#236 = ORIENTED_EDGE ( 'NONE', *, *, #56, .T. ) ;
#237 = CARTESIAN_POINT ( 'NONE',  ( 0.000000000000000000, 0.000000000000000000, 0.000000000000000000 ) ) ;
#238 = CARTESIAN_POINT ( 'NONE',  ( 0.000000000000000000, 0.000000000000000000, 457.0000000000000000 ) ) ;
#239 = EDGE_CURVE ( 'NONE', #371, #357, #76, .T. ) ;
#240 = COORDINATED_UNIVERSAL_TIME_OFFSET ( 1, 0, .AHEAD. ) ;
#241 = CARTESIAN_POINT ( 'NONE',  ( 0.000000000000000000, 0.000000000000000000, 0.000000000000000000 ) ) ;
#242 = VERTEX_POINT ( 'NONE', #85 ) ;
#243 = DIRECTION ( 'NONE',  ( 1.000000000000000000, 0.000000000000000000, 0.000000000000000000 ) ) ;
#244 = ORIENTED_EDGE ( 'NONE', *, *, #210, .T. ) ;
#245 = AXIS2_PLACEMENT_3D ( 'NONE', #241, #13, #132 ) ;
#246 = ADVANCED_FACE ( 'NONE', ( #296, #202 ), #377, .F. ) ;
#247 = APPLICATION_CONTEXT ( 'configuration controlled 3d designs of mechanical parts and assemblies' ) ;
#248 = ORIENTED_EDGE ( 'NONE', *, *, #326, .F. ) ;
#249 = DIRECTION ( 'NONE',  ( 1.000000000000000000, 0.000000000000000000, 0.000000000000000000 ) ) ;
#250 = FACE_BOUND ( 'NONE', #161, .T. ) ;
#251 = CIRCLE ( 'NONE', #146, 6.000000000000000888 ) ;
#252 = MANIFOLD_SOLID_BREP ( 'Odebrat vysunutím3', #50 ) ;
#253 = CC_DESIGN_PERSON_AND_ORGANIZATION_ASSIGNMENT ( #96, #297, ( #368 ) ) ;
#254 = CARTESIAN_POINT ( 'NONE',  ( 0.000000000000000000, 0.000000000000000000, 457.0000000000000000 ) ) ;
#255 = CALENDAR_DATE ( 2022, 8, 7 ) ;
#256 = FACE_OUTER_BOUND ( 'NONE', #278, .T. ) ;
#257 = CARTESIAN_POINT ( 'NONE',  ( 0.000000000000000000, 0.000000000000000000, 7.000000000000000000 ) ) ;
#258 = CC_DESIGN_PERSON_AND_ORGANIZATION_ASSIGNMENT ( #365, #370, ( #354 ) ) ;
#259 = VECTOR ( 'NONE', #150, 1000.000000000000000 ) ;
#260 = CARTESIAN_POINT ( 'NONE',  ( 10.00000000000000000, 1.224646799147353256E-15, 0.000000000000000000 ) ) ;
#261 = DIRECTION ( 'NONE',  ( 1.000000000000000000, 0.000000000000000000, 0.000000000000000000 ) ) ;
#262 = DIRECTION ( 'NONE',  ( 1.000000000000000000, 0.000000000000000000, 0.000000000000000000 ) ) ;
#263 = VECTOR ( 'NONE', #47, 1000.000000000000000 ) ;
#264 = VECTOR ( 'NONE', #229, 1000.000000000000000 ) ;
#265 = CIRCLE ( 'NONE', #131, 2.750000000000000000 ) ;
#266 = DIRECTION ( 'NONE',  ( 0.000000000000000000, 0.000000000000000000, 1.000000000000000000 ) ) ;
#267 = EDGE_CURVE ( 'NONE', #206, #145, #152, .T. ) ;
#268 = ORIENTED_EDGE ( 'NONE', *, *, #333, .F. ) ;
#269 = CYLINDRICAL_SURFACE ( 'NONE', #283, 10.00000000000000000 ) ;
#270 = CARTESIAN_POINT ( 'NONE',  ( 0.000000000000000000, 0.000000000000000000, 457.0000000000000000 ) ) ;
#271 = CC_DESIGN_PERSON_AND_ORGANIZATION_ASSIGNMENT ( #139, #167, ( #59 ) ) ;
#272 = AXIS2_PLACEMENT_3D ( 'NONE', #366, #337, #114 ) ;
#273 = APPROVAL_STATUS ( 'not_yet_approved' ) ;
#274 = AXIS2_PLACEMENT_3D ( 'NONE', #237, #317, #117 ) ;
#275 = EDGE_LOOP ( 'NONE', ( #198, #91 ) ) ;
#276 = DATE_AND_TIME ( #160, #43 ) ;
#277 = ORIENTED_EDGE ( 'NONE', *, *, #41, .T. ) ;
#278 = EDGE_LOOP ( 'NONE', ( #189, #323, #192, #128 ) ) ;
#279 = ORIENTED_EDGE ( 'NONE', *, *, #179, .T. ) ;
#280 = ORIENTED_EDGE ( 'NONE', *, *, #358, .T. ) ;
#281 = PRODUCT_DEFINITION_SHAPE ( 'NONE', 'NONE',  #48 ) ;
#282 = DIRECTION ( 'NONE',  ( -0.000000000000000000, -0.000000000000000000, -1.000000000000000000 ) ) ;
#283 = AXIS2_PLACEMENT_3D ( 'NONE', #115, #122, #352 ) ;
#284 = CALENDAR_DATE ( 2022, 8, 7 ) ;
#285 = CYLINDRICAL_SURFACE ( 'NONE', #318, 6.000000000000000888 ) ;
#286 = DATE_AND_TIME ( #49, #222 ) ;
#287 = CYLINDRICAL_SURFACE ( 'NONE', #329, 10.00000000000000000 ) ;
#288 = PRODUCT_RELATED_PRODUCT_CATEGORY ( 'detail', '', ( #368 ) ) ;
#289 = DIRECTION ( 'NONE',  ( 0.000000000000000000, 0.000000000000000000, 1.000000000000000000 ) ) ;
#290 = LOCAL_TIME ( 17, 0, 27.00000000000000000, #16 ) ;
#291 = DIRECTION ( 'NONE',  ( 0.000000000000000000, 0.000000000000000000, 1.000000000000000000 ) ) ;
#292 = EDGE_CURVE ( 'NONE', #121, #205, #116, .T. ) ;
#293 = LINE ( 'NONE', #28, #331 ) ;
#294 = ORIENTED_EDGE ( 'NONE', *, *, #187, .T. ) ;
#295 = CIRCLE ( 'NONE', #162, 6.500000000000000888 ) ;
#296 = FACE_BOUND ( 'NONE', #163, .T. ) ;
#297 = PERSON_AND_ORGANIZATION_ROLE ( 'design_owner' ) ;
#298 = PERSON_AND_ORGANIZATION_ROLE ( 'creator' ) ;
#299 = ORIENTED_EDGE ( 'NONE', *, *, #79, .T. ) ;
#300 = COORDINATED_UNIVERSAL_TIME_OFFSET ( 1, 0, .AHEAD. ) ;
#301 = DIRECTION ( 'NONE',  ( -0.000000000000000000, -0.000000000000000000, -1.000000000000000000 ) ) ;
#302 = ORIENTED_EDGE ( 'NONE', *, *, #79, .F. ) ;
#303 = VECTOR ( 'NONE', #282, 1000.000000000000000 ) ;
#304 = EDGE_LOOP ( 'NONE', ( #217, #299 ) ) ;
#305 =( GEOMETRIC_REPRESENTATION_CONTEXT ( 3 ) GLOBAL_UNCERTAINTY_ASSIGNED_CONTEXT ( ( #364 ) ) GLOBAL_UNIT_ASSIGNED_CONTEXT ( ( #127, #5, #157 ) ) REPRESENTATION_CONTEXT ( 'NONE', 'WORKASPACE' ) );
#306 = PERSON_AND_ORGANIZATION ( #345, #325 ) ;
#307 = DIRECTION ( 'NONE',  ( -1.000000000000000000, 0.000000000000000000, 0.000000000000000000 ) ) ;
#308 = COORDINATED_UNIVERSAL_TIME_OFFSET ( 1, 0, .AHEAD. ) ;
#309 = DIRECTION ( 'NONE',  ( 1.000000000000000000, 0.000000000000000000, -0.000000000000000000 ) ) ;
#310 = APPROVAL_STATUS ( 'not_yet_approved' ) ;
#311 = CARTESIAN_POINT ( 'NONE',  ( 0.000000000000000000, 0.000000000000000000, 0.000000000000000000 ) ) ;
#312 = CIRCLE ( 'NONE', #353, 2.750000000000000000 ) ;
#313 = AXIS2_PLACEMENT_3D ( 'NONE', #232, #61, #177 ) ;
#314 = ADVANCED_FACE ( 'NONE', ( #86 ), #12, .F. ) ;
#315 = DIRECTION ( 'NONE',  ( 1.000000000000000000, 0.000000000000000000, -0.000000000000000000 ) ) ;
#316 = FACE_BOUND ( 'NONE', #275, .T. ) ;
#317 = DIRECTION ( 'NONE',  ( 0.000000000000000000, 0.000000000000000000, 1.000000000000000000 ) ) ;
#318 = AXIS2_PLACEMENT_3D ( 'NONE', #254, #224, #307 ) ;
#319 = CC_DESIGN_SECURITY_CLASSIFICATION ( #59, ( #354 ) ) ;
#320 = DIRECTION ( 'NONE',  ( 0.000000000000000000, 0.000000000000000000, 1.000000000000000000 ) ) ;
#321 = EDGE_CURVE ( 'NONE', #371, #101, #173, .T. ) ;
#322 = DIRECTION ( 'NONE',  ( 1.000000000000000000, 0.000000000000000000, 0.000000000000000000 ) ) ;
#323 = ORIENTED_EDGE ( 'NONE', *, *, #239, .F. ) ;
#324 = ORIENTED_EDGE ( 'NONE', *, *, #267, .F. ) ;
#325 = ORGANIZATION ( 'NEURÈENÝ', 'NEURÈENÝ', '' ) ;
#326 = EDGE_CURVE ( 'NONE', #78, #371, #293, .T. ) ;
#327 = DIRECTION ( 'NONE',  ( 1.224646799147353207E-16, 1.000000000000000000, -0.000000000000000000 ) ) ;
#328 = APPROVAL_DATE_TIME ( #209, #199 ) ;
#329 = AXIS2_PLACEMENT_3D ( 'NONE', #257, #84, #373 ) ;
#330 = APPROVAL_ROLE ( '' ) ;
#331 = VECTOR ( 'NONE', #90, 1000.000000000000000 ) ;
#332 = EDGE_LOOP ( 'NONE', ( #10, #213, #244, #168 ) ) ;
#333 = EDGE_CURVE ( 'NONE', #348, #78, #99, .T. ) ;
#334 = EDGE_LOOP ( 'NONE', ( #279, #336 ) ) ;
#335 = FACE_OUTER_BOUND ( 'NONE', #75, .T. ) ;
#336 = ORIENTED_EDGE ( 'NONE', *, *, #67, .T. ) ;
#337 = DIRECTION ( 'NONE',  ( 0.000000000000000000, 0.000000000000000000, 1.000000000000000000 ) ) ;
#338 = CARTESIAN_POINT ( 'NONE',  ( 0.000000000000000000, 0.000000000000000000, 7.000000000000000000 ) ) ;
#339 = PLANE ( 'NONE',  #378 ) ;
#340 = PLANE ( 'NONE',  #212 ) ;
#341 = CIRCLE ( 'NONE', #20, 6.500000000000000888 ) ;
#342 = CARTESIAN_POINT ( 'NONE',  ( 0.000000000000000000, 0.000000000000000000, 457.0000000000000000 ) ) ;
#343 = DIRECTION ( 'NONE',  ( 0.000000000000000000, 0.000000000000000000, 1.000000000000000000 ) ) ;
#344 = CARTESIAN_POINT ( 'NONE',  ( 10.00000000000000000, 1.224646799147353256E-15, 7.000000000000000000 ) ) ;
#345 = PERSON ( 'NEURÈENÝ', 'NEURÈENÝ', 'NEURÈENÝ', ('NEURÈENÝ'), ('NEURÈENÝ'), ('NEURÈENÝ') ) ;
#346 = AXIS2_PLACEMENT_3D ( 'NONE', #68, #211, #129 ) ;
#347 = CARTESIAN_POINT ( 'NONE',  ( 0.000000000000000000, 0.000000000000000000, 7.500000000000007105 ) ) ;
#348 = VERTEX_POINT ( 'NONE', #218 ) ;
#349 = CARTESIAN_POINT ( 'NONE',  ( 0.000000000000000000, 0.000000000000000000, 7.000000000000000000 ) ) ;
#350 = EDGE_LOOP ( 'NONE', ( #248, #268, #236, #130 ) ) ;
#351 = APPROVAL ( #310, 'NEURÈENÝ' ) ;
#352 = DIRECTION ( 'NONE',  ( -1.000000000000000000, 0.000000000000000000, 0.000000000000000000 ) ) ;
#353 = AXIS2_PLACEMENT_3D ( 'NONE', #19, #23, #77 ) ;
#354 = PRODUCT_DEFINITION_FORMATION_WITH_SPECIFIED_SOURCE ( 'LIBOVOLNÝ', '', #368, .NOT_KNOWN. ) ;
#355 = CARTESIAN_POINT ( 'NONE',  ( 0.000000000000000000, 0.000000000000000000, 7.000000000000000000 ) ) ;
#356 = DIRECTION ( 'NONE',  ( 0.000000000000000000, 0.000000000000000000, 1.000000000000000000 ) ) ;
#357 = VERTEX_POINT ( 'NONE', #2 ) ;
#358 = EDGE_CURVE ( 'NONE', #101, #178, #295, .T. ) ;
#359 = AXIS2_PLACEMENT_3D ( 'NONE', #270, #36, #216 ) ;
#360 = CYLINDRICAL_SURFACE ( 'NONE', #64, 6.000000000000000888 ) ;
#361 = ORIENTED_EDGE ( 'NONE', *, *, #239, .T. ) ;
#362 = DATE_AND_TIME ( #255, #126 ) ;
#363 = DIRECTION ( 'NONE',  ( -0.000000000000000000, -0.000000000000000000, -1.000000000000000000 ) ) ;
#364 = UNCERTAINTY_MEASURE_WITH_UNIT (LENGTH_MEASURE( 1.000000000000000082E-05 ), #127, 'distance_accuracy_value', 'NONE');
#365 = PERSON_AND_ORGANIZATION ( #345, #325 ) ;
#366 = CARTESIAN_POINT ( 'NONE',  ( 0.000000000000000000, 0.000000000000000000, 7.000000000000000000 ) ) ;
#367 = PERSON_AND_ORGANIZATION ( #345, #325 ) ;
#368 = PRODUCT ( '6bb4', '6bb4', '', ( #33 ) ) ;
#369 = EDGE_LOOP ( 'NONE', ( #233, #30, #73, #8 ) ) ;
#370 = PERSON_AND_ORGANIZATION_ROLE ( 'creator' ) ;
#371 = VERTEX_POINT ( 'NONE', #66 ) ;
#372 = ADVANCED_FACE ( 'NONE', ( #335 ), #103, .F. ) ;
#373 = DIRECTION ( 'NONE',  ( -1.000000000000000000, 0.000000000000000000, 0.000000000000000000 ) ) ;
#374 = CARTESIAN_POINT ( 'NONE',  ( -6.500000000000000888, 7.960204194457796463E-16, 7.500000000000007105 ) ) ;
#375 = ADVANCED_FACE ( 'NONE', ( #40 ), #360, .T. ) ;
#376 = LINE ( 'NONE', #344, #181 ) ;
#377 = PLANE ( 'NONE',  #274 ) ;
#378 = AXIS2_PLACEMENT_3D ( 'NONE', #80, #200, #315 ) ;
#379 = DIRECTION ( 'NONE',  ( -0.000000000000000000, -0.000000000000000000, -1.000000000000000000 ) ) ;
#380 = ADVANCED_FACE ( 'NONE', ( #100 ), #38, .F. ) ;
#381 = ORIENTED_EDGE ( 'NONE', *, *, #67, .F. ) ;
ENDSEC;
END-ISO-10303-21;
