ISO-10303-21;
HEADER;
FILE_DESCRIPTION (( 'STEP AP203' ),
    '1' );
FILE_NAME ('d21c.STEP',
    '2022-07-08T14:56:01',
    ( '' ),
    ( '' ),
    'SwSTEP 2.0',
    'SolidWorks 2019',
    '' );
FILE_SCHEMA (( 'CONFIG_CONTROL_DESIGN' ));
ENDSEC;

DATA;
#1 = MANIFOLD_SOLID_BREP ( 'Odebrat vysunutím3', #231 ) ;
#2 = AXIS2_PLACEMENT_3D ( 'NONE', #298, #148, #138 ) ;
#3 = AXIS2_PLACEMENT_3D ( 'NONE', #115, #196, #258 ) ;
#4 = ADVANCED_FACE ( 'NONE', ( #37 ), #283, .T. ) ;
#5 = DIRECTION ( 'NONE',  ( -0.000000000000000000, -0.000000000000000000, -1.000000000000000000 ) ) ;
#6 = EDGE_CURVE ( 'NONE', #11, #197, #351, .T. ) ;
#7 = DIRECTION ( 'NONE',  ( 1.000000000000000000, 0.000000000000000000, 0.000000000000000000 ) ) ;
#8 = LINE ( 'NONE', #218, #191 ) ;
#9 = APPROVAL_PERSON_ORGANIZATION ( #310, #217, #309 ) ;
#10 = CARTESIAN_POINT ( 'NONE',  ( 0.000000000000000000, 0.000000000000000000, 705.0000000000000000 ) ) ;
#11 = VERTEX_POINT ( 'NONE', #210 ) ;
#12 = DIRECTION ( 'NONE',  ( 1.000000000000000000, 0.000000000000000000, 0.000000000000000000 ) ) ;
#13 = ORIENTED_EDGE ( 'NONE', *, *, #165, .T. ) ;
#14 = EDGE_CURVE ( 'NONE', #303, #293, #174, .T. ) ;
#15 = CIRCLE ( 'NONE', #252, 3.000000000000000444 ) ;
#16 = TOROIDAL_SURFACE ( 'NONE', #308, 5.500000000000000000, 0.5000000000000000000 ) ;
#17 = CARTESIAN_POINT ( 'NONE',  ( 0.000000000000000000, 0.000000000000000000, 705.0000000000000000 ) ) ;
#18 = CYLINDRICAL_SURFACE ( 'NONE', #248, 8.000000000000000000 ) ;
#19 = ORIENTED_EDGE ( 'NONE', *, *, #266, .T. ) ;
#20 = UNCERTAINTY_MEASURE_WITH_UNIT (LENGTH_MEASURE( 1.000000000000000082E-05 ), #327, 'distance_accuracy_value', 'NONE');
#21 = DIRECTION ( 'NONE',  ( 1.000000000000000000, 0.000000000000000000, -0.000000000000000000 ) ) ;
#22 = ORIENTED_EDGE ( 'NONE', *, *, #6, .F. ) ;
#23 = ADVANCED_FACE ( 'NONE', ( #288 ), #219, .T. ) ;
#24 = FACE_BOUND ( 'NONE', #147, .T. ) ;
#25 = ORIENTED_EDGE ( 'NONE', *, *, #56, .T. ) ;
#26 = CIRCLE ( 'NONE', #279, 8.000000000000000000 ) ;
#27 = SHAPE_DEFINITION_REPRESENTATION ( #102, #98 ) ;
#28 = AXIS2_PLACEMENT_3D ( 'NONE', #318, #46, #12 ) ;
#29 = CALENDAR_DATE ( 2022, 8, 7 ) ;
#30 = PERSON_AND_ORGANIZATION_ROLE ( 'creator' ) ;
#31 = VERTEX_POINT ( 'NONE', #296 ) ;
#32 = DIRECTION ( 'NONE',  ( 1.000000000000000000, 0.000000000000000000, 0.000000000000000000 ) ) ;
#33 = CIRCLE ( 'NONE', #345, 3.000000000000000444 ) ;
#34 = AXIS2_PLACEMENT_3D ( 'NONE', #336, #250, #216 ) ;
#35 = ADVANCED_FACE ( 'NONE', ( #169, #370 ), #291, .T. ) ;
#36 = DIRECTION ( 'NONE',  ( 1.000000000000000000, 0.000000000000000000, 0.000000000000000000 ) ) ;
#37 = FACE_OUTER_BOUND ( 'NONE', #375, .T. ) ;
#38 = CIRCLE ( 'NONE', #312, 5.500000000000000000 ) ;
#39 = EDGE_CURVE ( 'NONE', #89, #125, #363, .T. ) ;
#40 = CARTESIAN_POINT ( 'NONE',  ( -5.500000000000000000, 6.735557395310442023E-16, 4.999999999999975131 ) ) ;
#41 = COORDINATED_UNIVERSAL_TIME_OFFSET ( 1, 0, .AHEAD. ) ;
#42 = CARTESIAN_POINT ( 'NONE',  ( 0.000000000000000000, 0.000000000000000000, 5.499999999999949374 ) ) ;
#43 = ADVANCED_FACE ( 'NONE', ( #261 ), #180, .F. ) ;
#44 = CARTESIAN_POINT ( 'NONE',  ( -8.000000000000000000, 0.000000000000000000, 5.000000000000000000 ) ) ;
#45 = CARTESIAN_POINT ( 'NONE',  ( 3.000000000000000444, 3.673940397442060361E-16, 705.0000000000000000 ) ) ;
#46 = DIRECTION ( 'NONE',  ( 0.000000000000000000, 0.000000000000000000, 1.000000000000000000 ) ) ;
#47 = EDGE_LOOP ( 'NONE', ( #233, #58, #245, #238 ) ) ;
#48 = FACE_OUTER_BOUND ( 'NONE', #95, .T. ) ;
#49 = FACE_OUTER_BOUND ( 'NONE', #350, .T. ) ;
#50 = ORIENTED_EDGE ( 'NONE', *, *, #286, .F. ) ;
#51 = APPROVAL_DATE_TIME ( #297, #217 ) ;
#52 = APPROVAL_PERSON_ORGANIZATION ( #381, #124, #305 ) ;
#53 = FACE_OUTER_BOUND ( 'NONE', #205, .T. ) ;
#54 = EDGE_CURVE ( 'NONE', #293, #303, #26, .T. ) ;
#55 =( NAMED_UNIT ( * ) SI_UNIT ( $, .STERADIAN. ) SOLID_ANGLE_UNIT ( ) );
#56 = EDGE_CURVE ( 'NONE', #125, #11, #74, .T. ) ;
#57 = APPLICATION_PROTOCOL_DEFINITION ( 'international standard', 'config_control_design', 1994, #329 ) ;
#58 = ORIENTED_EDGE ( 'NONE', *, *, #6, .T. ) ;
#59 = DIRECTION ( 'NONE',  ( -0.000000000000000000, -0.000000000000000000, -1.000000000000000000 ) ) ;
#60 = ORIENTED_EDGE ( 'NONE', *, *, #286, .T. ) ;
#61 = VECTOR ( 'NONE', #140, 1000.000000000000000 ) ;
#62 = COORDINATED_UNIVERSAL_TIME_OFFSET ( 1, 0, .AHEAD. ) ;
#63 = CC_DESIGN_DATE_AND_TIME_ASSIGNMENT ( #94, #118, ( #301 ) ) ;
#64 = ORIENTED_EDGE ( 'NONE', *, *, #14, .T. ) ;
#65 = VERTEX_POINT ( 'NONE', #45 ) ;
#66 = AXIS2_PLACEMENT_3D ( 'NONE', #111, #348, #346 ) ;
#67 = ORGANIZATION ( 'NEURÈENÝ', 'NEURÈENÝ', '' ) ;
#68 = PERSON_AND_ORGANIZATION_ROLE ( 'design_supplier' ) ;
#69 = ADVANCED_FACE ( 'NONE', ( #163 ), #353, .T. ) ;
#70 = DIRECTION ( 'NONE',  ( 0.000000000000000000, 0.000000000000000000, -1.000000000000000000 ) ) ;
#71 = SECURITY_CLASSIFICATION ( '', '', #272 ) ;
#72 = FACE_OUTER_BOUND ( 'NONE', #347, .T. ) ;
#73 = DIRECTION ( 'NONE',  ( 0.000000000000000000, 0.000000000000000000, 1.000000000000000000 ) ) ;
#74 = LINE ( 'NONE', #317, #141 ) ;
#75 = AXIS2_PLACEMENT_3D ( 'NONE', #344, #285, #21 ) ;
#76 = CARTESIAN_POINT ( 'NONE',  ( 0.000000000000000000, 0.000000000000000000, 5.000000000000000000 ) ) ;
#77 = AXIS2_PLACEMENT_3D ( 'NONE', #93, #208, #32 ) ;
#78 = CYLINDRICAL_SURFACE ( 'NONE', #184, 3.000000000000000444 ) ;
#79 = ORIENTED_EDGE ( 'NONE', *, *, #54, .T. ) ;
#80 = DIRECTION ( 'NONE',  ( 0.000000000000000000, 0.000000000000000000, -1.000000000000000000 ) ) ;
#81 = DIRECTION ( 'NONE',  ( 1.000000000000000000, 0.000000000000000000, 0.000000000000000000 ) ) ;
#82 = ORIENTED_EDGE ( 'NONE', *, *, #343, .F. ) ;
#83 = ADVANCED_FACE ( 'NONE', ( #24, #53 ), #367, .F. ) ;
#84 = DIRECTION ( 'NONE',  ( 0.000000000000000000, 0.000000000000000000, 1.000000000000000000 ) ) ;
#85 = DIRECTION ( 'NONE',  ( 0.000000000000000000, 0.000000000000000000, 1.000000000000000000 ) ) ;
#86 = ORIENTED_EDGE ( 'NONE', *, *, #130, .F. ) ;
#87 = CIRCLE ( 'NONE', #136, 3.000000000000000444 ) ;
#88 = DIRECTION ( 'NONE',  ( -1.000000000000000000, 0.000000000000000000, 0.000000000000000000 ) ) ;
#89 = VERTEX_POINT ( 'NONE', #256 ) ;
#90 = CARTESIAN_POINT ( 'NONE',  ( -3.000000000000000444, 0.000000000000000000, 705.0000000000000000 ) ) ;
#91 = CIRCLE ( 'NONE', #28, 5.000000000000000000 ) ;
#92 = ADVANCED_FACE ( 'NONE', ( #48 ), #78, .F. ) ;
#93 = CARTESIAN_POINT ( 'NONE',  ( 0.000000000000000000, 0.000000000000000000, 0.000000000000000000 ) ) ;
#94 = DATE_AND_TIME ( #358, #280 ) ;
#95 = EDGE_LOOP ( 'NONE', ( #354, #143, #372, #262 ) ) ;
#96 = LOCAL_TIME ( 16, 56, 1.000000000000000000, #41 ) ;
#97 = DIRECTION ( 'NONE',  ( -0.000000000000000000, -0.000000000000000000, -1.000000000000000000 ) ) ;
#98 = ADVANCED_BREP_SHAPE_REPRESENTATION ( 'd21c', ( #1, #77 ), #240 ) ;
#99 = COORDINATED_UNIVERSAL_TIME_OFFSET ( 1, 0, .AHEAD. ) ;
#100 = FACE_OUTER_BOUND ( 'NONE', #152, .T. ) ;
#101 = CARTESIAN_POINT ( 'NONE',  ( 0.000000000000000000, 0.000000000000000000, 705.0000000000000000 ) ) ;
#102 = PRODUCT_DEFINITION_SHAPE ( 'NONE', 'NONE',  #301 ) ;
#103 = CC_DESIGN_PERSON_AND_ORGANIZATION_ASSIGNMENT ( #332, #356, ( #301 ) ) ;
#104 = AXIS2_PLACEMENT_3D ( 'NONE', #267, #232, #263 ) ;
#105 = AXIS2_PLACEMENT_3D ( 'NONE', #341, #73, #159 ) ;
#106 = DIRECTION ( 'NONE',  ( -0.000000000000000000, -0.000000000000000000, -1.000000000000000000 ) ) ;
#107 = CARTESIAN_POINT ( 'NONE',  ( 0.000000000000000000, 0.000000000000000000, 5.000000000000000000 ) ) ;
#108 = CIRCLE ( 'NONE', #2, 5.500000000000000000 ) ;
#109 = ORIENTED_EDGE ( 'NONE', *, *, #54, .F. ) ;
#110 = CIRCLE ( 'NONE', #335, 3.000000000000000444 ) ;
#111 = CARTESIAN_POINT ( 'NONE',  ( 0.000000000000000000, 0.000000000000000000, 0.000000000000000000 ) ) ;
#112 = EDGE_CURVE ( 'NONE', #129, #65, #33, .T. ) ;
#113 = DIRECTION ( 'NONE',  ( 1.000000000000000000, 0.000000000000000000, 0.000000000000000000 ) ) ;
#114 = ORIENTED_EDGE ( 'NONE', *, *, #374, .T. ) ;
#115 = CARTESIAN_POINT ( 'NONE',  ( 0.000000000000000000, 0.000000000000000000, 5.499999999999949374 ) ) ;
#116 = ORIENTED_EDGE ( 'NONE', *, *, #214, .T. ) ;
#117 = DIRECTION ( 'NONE',  ( 1.000000000000000000, 0.000000000000000000, 0.000000000000000000 ) ) ;
#118 = DATE_TIME_ROLE ( 'creation_date' ) ;
#119 = APPROVAL_STATUS ( 'not_yet_approved' ) ;
#120 = VERTEX_POINT ( 'NONE', #235 ) ;
#121 = CC_DESIGN_APPROVAL ( #217, ( #71 ) ) ;
#122 = APPLICATION_PROTOCOL_DEFINITION ( 'international standard', 'config_control_design', 1994, #364 ) ;
#123 = ORIENTED_EDGE ( 'NONE', *, *, #368, .F. ) ;
#124 = APPROVAL ( #178, 'NEURÈENÝ' ) ;
#125 = VERTEX_POINT ( 'NONE', #355 ) ;
#126 = DIRECTION ( 'NONE',  ( 1.000000000000000000, 0.000000000000000000, 0.000000000000000000 ) ) ;
#127 = PRODUCT ( 'd21c', 'd21c', '', ( #149 ) ) ;
#128 = CC_DESIGN_APPROVAL ( #274, ( #301 ) ) ;
#129 = VERTEX_POINT ( 'NONE', #90 ) ;
#130 = EDGE_CURVE ( 'NONE', #371, #120, #15, .T. ) ;
#131 = FACE_BOUND ( 'NONE', #150, .T. ) ;
#132 = CARTESIAN_POINT ( 'NONE',  ( 0.000000000000000000, 0.000000000000000000, 705.0000000000000000 ) ) ;
#133 = DIRECTION ( 'NONE',  ( 0.000000000000000000, -1.000000000000000000, 0.000000000000000000 ) ) ;
#134 = EDGE_CURVE ( 'NONE', #197, #31, #108, .T. ) ;
#135 = DIRECTION ( 'NONE',  ( 0.000000000000000000, 0.000000000000000000, 1.000000000000000000 ) ) ;
#136 = AXIS2_PLACEMENT_3D ( 'NONE', #10, #85, #81 ) ;
#137 = DATE_TIME_ROLE ( 'classification_date' ) ;
#138 = DIRECTION ( 'NONE',  ( 1.000000000000000000, 0.000000000000000000, 0.000000000000000000 ) ) ;
#139 = EDGE_CURVE ( 'NONE', #179, #31, #221, .T. ) ;
#140 = DIRECTION ( 'NONE',  ( -0.000000000000000000, -0.000000000000000000, -1.000000000000000000 ) ) ;
#141 = VECTOR ( 'NONE', #324, 1000.000000000000000 ) ;
#142 = DIRECTION ( 'NONE',  ( -0.000000000000000000, -0.000000000000000000, -1.000000000000000000 ) ) ;
#143 = ORIENTED_EDGE ( 'NONE', *, *, #368, .T. ) ;
#144 = CIRCLE ( 'NONE', #3, 5.000000000000000000 ) ;
#145 = DIRECTION ( 'NONE',  ( 0.000000000000000000, 0.000000000000000000, 1.000000000000000000 ) ) ;
#146 = DIRECTION ( 'NONE',  ( -0.000000000000000000, -0.000000000000000000, -1.000000000000000000 ) ) ;
#147 = EDGE_LOOP ( 'NONE', ( #86, #270 ) ) ;
#148 = DIRECTION ( 'NONE',  ( -0.000000000000000000, -0.000000000000000000, -1.000000000000000000 ) ) ;
#149 = MECHANICAL_CONTEXT ( 'NONE', #329, 'mechanical' ) ;
#150 = EDGE_LOOP ( 'NONE', ( #230, #209 ) ) ;
#151 = PERSON_AND_ORGANIZATION ( #204, #67 ) ;
#152 = EDGE_LOOP ( 'NONE', ( #22, #198, #322, #304 ) ) ;
#153 = PERSON_AND_ORGANIZATION_ROLE ( 'design_owner' ) ;
#154 = PERSON_AND_ORGANIZATION_ROLE ( 'classification_officer' ) ;
#155 = CYLINDRICAL_SURFACE ( 'NONE', #203, 3.000000000000000444 ) ;
#156 = DATE_AND_TIME ( #186, #96 ) ;
#157 = FACE_OUTER_BOUND ( 'NONE', #333, .T. ) ;
#158 = DIRECTION ( 'NONE',  ( -1.000000000000000000, 1.224646799147351482E-16, 0.000000000000000000 ) ) ;
#159 = DIRECTION ( 'NONE',  ( 1.000000000000000000, 0.000000000000000000, 0.000000000000000000 ) ) ;
#160 = AXIS2_PLACEMENT_3D ( 'NONE', #17, #257, #326 ) ;
#161 = CIRCLE ( 'NONE', #105, 8.000000000000000000 ) ;
#162 = CARTESIAN_POINT ( 'NONE',  ( 0.000000000000000000, 0.000000000000000000, 5.000000000000000000 ) ) ;
#163 = FACE_OUTER_BOUND ( 'NONE', #176, .T. ) ;
#164 = DIRECTION ( 'NONE',  ( -0.000000000000000000, -0.000000000000000000, -1.000000000000000000 ) ) ;
#165 = EDGE_CURVE ( 'NONE', #120, #371, #110, .T. ) ;
#166 = DIRECTION ( 'NONE',  ( -1.000000000000000000, 0.000000000000000000, 0.000000000000000000 ) ) ;
#167 =( NAMED_UNIT ( * ) PLANE_ANGLE_UNIT ( ) SI_UNIT ( $, .RADIAN. ) );
#168 = ORIENTED_EDGE ( 'NONE', *, *, #266, .F. ) ;
#169 = FACE_BOUND ( 'NONE', #243, .T. ) ;
#170 = AXIS2_PLACEMENT_3D ( 'NONE', #107, #145, #113 ) ;
#171 = DIRECTION ( 'NONE',  ( -1.000000000000000000, 0.000000000000000000, 0.000000000000000000 ) ) ;
#172 = PRODUCT_RELATED_PRODUCT_CATEGORY ( 'detail', '', ( #127 ) ) ;
#173 = DIRECTION ( 'NONE',  ( 1.000000000000000000, 0.000000000000000000, 0.000000000000000000 ) ) ;
#174 = CIRCLE ( 'NONE', #170, 8.000000000000000000 ) ;
#175 = COORDINATED_UNIVERSAL_TIME_OFFSET ( 1, 0, .AHEAD. ) ;
#176 = EDGE_LOOP ( 'NONE', ( #194, #60, #116, #177 ) ) ;
#177 = ORIENTED_EDGE ( 'NONE', *, *, #365, .F. ) ;
#178 = APPROVAL_STATUS ( 'not_yet_approved' ) ;
#179 = VERTEX_POINT ( 'NONE', #251 ) ;
#180 = TOROIDAL_SURFACE ( 'NONE', #104, 5.500000000000000000, 0.5000000000000000000 ) ;
#181 = PRODUCT_DEFINITION_FORMATION_WITH_SPECIFIED_SOURCE ( 'LIBOVOLNÝ', '', #127, .NOT_KNOWN. ) ;
#182 = DIRECTION ( 'NONE',  ( -0.000000000000000000, -0.000000000000000000, -1.000000000000000000 ) ) ;
#183 = CARTESIAN_POINT ( 'NONE',  ( 5.500000000000000000, 0.000000000000000000, 5.499999999999949374 ) ) ;
#184 = AXIS2_PLACEMENT_3D ( 'NONE', #319, #80, #166 ) ;
#185 = CC_DESIGN_APPROVAL ( #124, ( #181 ) ) ;
#186 = CALENDAR_DATE ( 2022, 8, 7 ) ;
#187 = DIRECTION ( 'NONE',  ( -1.000000000000000000, 0.000000000000000000, 0.000000000000000000 ) ) ;
#188 = LINE ( 'NONE', #314, #61 ) ;
#189 = ADVANCED_FACE ( 'NONE', ( #100 ), #16, .F. ) ;
#190 = LINE ( 'NONE', #315, #373 ) ;
#191 = VECTOR ( 'NONE', #70, 1000.000000000000000 ) ;
#192 = CARTESIAN_POINT ( 'NONE',  ( 0.000000000000000000, 0.000000000000000000, 705.0000000000000000 ) ) ;
#193 = CARTESIAN_POINT ( 'NONE',  ( 0.000000000000000000, 0.000000000000000000, 5.000000000000000000 ) ) ;
#194 = ORIENTED_EDGE ( 'NONE', *, *, #14, .F. ) ;
#195 = CARTESIAN_POINT ( 'NONE',  ( 0.000000000000000000, 0.000000000000000000, 5.000000000000000000 ) ) ;
#196 = DIRECTION ( 'NONE',  ( 0.000000000000000000, 0.000000000000000000, 1.000000000000000000 ) ) ;
#197 = VERTEX_POINT ( 'NONE', #40 ) ;
#198 = ORIENTED_EDGE ( 'NONE', *, *, #374, .F. ) ;
#199 = ADVANCED_FACE ( 'NONE', ( #157 ), #155, .F. ) ;
#200 = CARTESIAN_POINT ( 'NONE',  ( 0.000000000000000000, 0.000000000000000000, 0.000000000000000000 ) ) ;
#201 = CALENDAR_DATE ( 2022, 8, 7 ) ;
#202 = APPROVAL_DATE_TIME ( #300, #274 ) ;
#203 = AXIS2_PLACEMENT_3D ( 'NONE', #362, #284, #342 ) ;
#204 = PERSON ( 'NEURÈENÝ', 'NEURÈENÝ', 'NEURÈENÝ', ('NEURÈENÝ'), ('NEURÈENÝ'), ('NEURÈENÝ') ) ;
#205 = EDGE_LOOP ( 'NONE', ( #168, #325 ) ) ;
#206 = CC_DESIGN_PERSON_AND_ORGANIZATION_ASSIGNMENT ( #380, #153, ( #127 ) ) ;
#207 = COORDINATED_UNIVERSAL_TIME_OFFSET ( 1, 0, .AHEAD. ) ;
#208 = DIRECTION ( 'NONE',  ( 0.000000000000000000, 0.000000000000000000, 1.000000000000000000 ) ) ;
#209 = ORIENTED_EDGE ( 'NONE', *, *, #134, .T. ) ;
#210 = CARTESIAN_POINT ( 'NONE',  ( -5.000000000000000000, 0.000000000000000000, 5.499999999999949374 ) ) ;
#211 = DIRECTION ( 'NONE',  ( 0.000000000000000000, 0.000000000000000000, -1.000000000000000000 ) ) ;
#212 = PLANE ( 'NONE',  #260 ) ;
#213 = AXIS2_PLACEMENT_3D ( 'NONE', #313, #215, #158 ) ;
#214 = EDGE_CURVE ( 'NONE', #377, #259, #352, .T. ) ;
#215 = DIRECTION ( 'NONE',  ( 1.224646799147353207E-16, 1.000000000000000000, -0.000000000000000000 ) ) ;
#216 = DIRECTION ( 'NONE',  ( 1.000000000000000000, 0.000000000000000000, 0.000000000000000000 ) ) ;
#217 = APPROVAL ( #254, 'NEURÈENÝ' ) ;
#218 = CARTESIAN_POINT ( 'NONE',  ( -3.000000000000000444, 0.000000000000000000, 705.0000000000000000 ) ) ;
#219 = CYLINDRICAL_SURFACE ( 'NONE', #275, 5.000000000000000000 ) ;
#220 = CARTESIAN_POINT ( 'NONE',  ( -3.000000000000000444, 0.000000000000000000, 0.000000000000000000 ) ) ;
#221 = CIRCLE ( 'NONE', #239, 0.5000000000000004441 ) ;
#222 = AXIS2_PLACEMENT_3D ( 'NONE', #101, #255, #282 ) ;
#223 = DIRECTION ( 'NONE',  ( -0.000000000000000000, -0.000000000000000000, -1.000000000000000000 ) ) ;
#224 = EDGE_LOOP ( 'NONE', ( #82, #265, #25, #289 ) ) ;
#225 = EDGE_CURVE ( 'NONE', #125, #89, #379, .T. ) ;
#226 = CC_DESIGN_PERSON_AND_ORGANIZATION_ASSIGNMENT ( #151, #68, ( #181 ) ) ;
#227 = DIRECTION ( 'NONE',  ( -1.000000000000000000, 0.000000000000000000, 0.000000000000000000 ) ) ;
#228 = ORIENTED_EDGE ( 'NONE', *, *, #292, .T. ) ;
#229 = CARTESIAN_POINT ( 'NONE',  ( -8.000000000000000000, 0.000000000000000000, 5.000000000000000000 ) ) ;
#230 = ORIENTED_EDGE ( 'NONE', *, *, #295, .T. ) ;
#231 = CLOSED_SHELL ( 'NONE', ( #199, #43, #4, #69, #359, #316, #83, #23, #35, #189, #92 ) ) ;
#232 = DIRECTION ( 'NONE',  ( 0.000000000000000000, 0.000000000000000000, 1.000000000000000000 ) ) ;
#233 = ORIENTED_EDGE ( 'NONE', *, *, #357, .F. ) ;
#234 = CALENDAR_DATE ( 2022, 8, 7 ) ;
#235 = CARTESIAN_POINT ( 'NONE',  ( 3.000000000000000444, 3.673940397442060361E-16, 0.000000000000000000 ) ) ;
#236 = ORIENTED_EDGE ( 'NONE', *, *, #365, .T. ) ;
#237 = APPROVAL_ROLE ( '' ) ;
#238 = ORIENTED_EDGE ( 'NONE', *, *, #139, .F. ) ;
#239 = AXIS2_PLACEMENT_3D ( 'NONE', #183, #133, #211 ) ;
#240 =( GEOMETRIC_REPRESENTATION_CONTEXT ( 3 ) GLOBAL_UNCERTAINTY_ASSIGNED_CONTEXT ( ( #20 ) ) GLOBAL_UNIT_ASSIGNED_CONTEXT ( ( #327, #167, #55 ) ) REPRESENTATION_CONTEXT ( 'NONE', 'WORKASPACE' ) );
#241 = CC_DESIGN_DATE_AND_TIME_ASSIGNMENT ( #156, #137, ( #71 ) ) ;
#242 = PERSON_AND_ORGANIZATION ( #204, #67 ) ;
#243 = EDGE_LOOP ( 'NONE', ( #271, #123 ) ) ;
#244 = DATE_AND_TIME ( #201, #299 ) ;
#245 = ORIENTED_EDGE ( 'NONE', *, *, #295, .F. ) ;
#246 = CC_DESIGN_PERSON_AND_ORGANIZATION_ASSIGNMENT ( #334, #30, ( #181 ) ) ;
#247 = CARTESIAN_POINT ( 'NONE',  ( -8.000000000000000000, 0.000000000000000000, 0.000000000000000000 ) ) ;
#248 = AXIS2_PLACEMENT_3D ( 'NONE', #76, #164, #171 ) ;
#249 = CARTESIAN_POINT ( 'NONE',  ( 0.000000000000000000, 0.000000000000000000, 5.000000000000000000 ) ) ;
#250 = DIRECTION ( 'NONE',  ( 0.000000000000000000, 0.000000000000000000, 1.000000000000000000 ) ) ;
#251 = CARTESIAN_POINT ( 'NONE',  ( 5.000000000000000000, 6.123233995736766282E-16, 5.499999999999949374 ) ) ;
#252 = AXIS2_PLACEMENT_3D ( 'NONE', #200, #59, #173 ) ;
#253 = VECTOR ( 'NONE', #311, 1000.000000000000000 ) ;
#254 = APPROVAL_STATUS ( 'not_yet_approved' ) ;
#255 = DIRECTION ( 'NONE',  ( 0.000000000000000000, 0.000000000000000000, 1.000000000000000000 ) ) ;
#256 = CARTESIAN_POINT ( 'NONE',  ( 5.000000000000000000, 6.123233995736766282E-16, 705.0000000000000000 ) ) ;
#257 = DIRECTION ( 'NONE',  ( 0.000000000000000000, 0.000000000000000000, 1.000000000000000000 ) ) ;
#258 = DIRECTION ( 'NONE',  ( 1.000000000000000000, 0.000000000000000000, 0.000000000000000000 ) ) ;
#259 = VERTEX_POINT ( 'NONE', #247 ) ;
#260 = AXIS2_PLACEMENT_3D ( 'NONE', #249, #361, #339 ) ;
#261 = FACE_OUTER_BOUND ( 'NONE', #47, .T. ) ;
#262 = ORIENTED_EDGE ( 'NONE', *, *, #130, .T. ) ;
#263 = DIRECTION ( 'NONE',  ( 1.000000000000000000, 0.000000000000000000, 0.000000000000000000 ) ) ;
#264 = LINE ( 'NONE', #229, #331 ) ;
#265 = ORIENTED_EDGE ( 'NONE', *, *, #225, .F. ) ;
#266 = EDGE_CURVE ( 'NONE', #259, #377, #161, .T. ) ;
#267 = CARTESIAN_POINT ( 'NONE',  ( 0.000000000000000000, 0.000000000000000000, 5.499999999999949374 ) ) ;
#268 = EDGE_LOOP ( 'NONE', ( #277, #273 ) ) ;
#269 = DIRECTION ( 'NONE',  ( 0.000000000000000000, 0.000000000000000000, 1.000000000000000000 ) ) ;
#270 = ORIENTED_EDGE ( 'NONE', *, *, #165, .F. ) ;
#271 = ORIENTED_EDGE ( 'NONE', *, *, #112, .F. ) ;
#272 = SECURITY_CLASSIFICATION_LEVEL ( 'unclassified' ) ;
#273 = ORIENTED_EDGE ( 'NONE', *, *, #39, .T. ) ;
#274 = APPROVAL ( #119, 'NEURÈENÝ' ) ;
#275 = AXIS2_PLACEMENT_3D ( 'NONE', #192, #146, #227 ) ;
#276 = EDGE_CURVE ( 'NONE', #129, #371, #8, .T. ) ;
#277 = ORIENTED_EDGE ( 'NONE', *, *, #225, .T. ) ;
#278 = LINE ( 'NONE', #360, #253 ) ;
#279 = AXIS2_PLACEMENT_3D ( 'NONE', #195, #84, #321 ) ;
#280 = LOCAL_TIME ( 16, 56, 1.000000000000000000, #175 ) ;
#281 = CARTESIAN_POINT ( 'NONE',  ( 8.000000000000000000, 9.797174393178825657E-16, 5.000000000000000000 ) ) ;
#282 = DIRECTION ( 'NONE',  ( 1.000000000000000000, 0.000000000000000000, 0.000000000000000000 ) ) ;
#283 = CYLINDRICAL_SURFACE ( 'NONE', #378, 5.000000000000000000 ) ;
#284 = DIRECTION ( 'NONE',  ( 0.000000000000000000, 0.000000000000000000, -1.000000000000000000 ) ) ;
#285 = DIRECTION ( 'NONE',  ( 0.000000000000000000, 0.000000000000000000, 1.000000000000000000 ) ) ;
#286 = EDGE_CURVE ( 'NONE', #303, #377, #190, .T. ) ;
#287 = ORIENTED_EDGE ( 'NONE', *, *, #112, .T. ) ;
#288 = FACE_OUTER_BOUND ( 'NONE', #224, .T. ) ;
#289 = ORIENTED_EDGE ( 'NONE', *, *, #357, .T. ) ;
#290 = LOCAL_TIME ( 16, 56, 1.000000000000000000, #99 ) ;
#291 = PLANE ( 'NONE',  #75 ) ;
#292 = EDGE_CURVE ( 'NONE', #65, #120, #278, .T. ) ;
#293 = VERTEX_POINT ( 'NONE', #44 ) ;
#294 = CARTESIAN_POINT ( 'NONE',  ( 0.000000000000000000, 0.000000000000000000, 705.0000000000000000 ) ) ;
#295 = EDGE_CURVE ( 'NONE', #31, #197, #38, .T. ) ;
#296 = CARTESIAN_POINT ( 'NONE',  ( 5.500000000000000000, 0.000000000000000000, 4.999999999999975131 ) ) ;
#297 = DATE_AND_TIME ( #234, #290 ) ;
#298 = CARTESIAN_POINT ( 'NONE',  ( 0.000000000000000000, 0.000000000000000000, 5.000000000000000000 ) ) ;
#299 = LOCAL_TIME ( 16, 56, 1.000000000000000000, #207 ) ;
#300 = DATE_AND_TIME ( #29, #323 ) ;
#301 = PRODUCT_DEFINITION ( 'NEZNÁMÝ', '', #181, #338 ) ;
#302 = APPROVAL_DATE_TIME ( #244, #124 ) ;
#303 = VERTEX_POINT ( 'NONE', #281 ) ;
#304 = ORIENTED_EDGE ( 'NONE', *, *, #134, .F. ) ;
#305 = APPROVAL_ROLE ( '' ) ;
#306 = ORIENTED_EDGE ( 'NONE', *, *, #39, .F. ) ;
#307 = APPROVAL_PERSON_ORGANIZATION ( #242, #274, #237 ) ;
#308 = AXIS2_PLACEMENT_3D ( 'NONE', #42, #135, #7 ) ;
#309 = APPROVAL_ROLE ( '' ) ;
#310 = PERSON_AND_ORGANIZATION ( #204, #67 ) ;
#311 = DIRECTION ( 'NONE',  ( 0.000000000000000000, 0.000000000000000000, -1.000000000000000000 ) ) ;
#312 = AXIS2_PLACEMENT_3D ( 'NONE', #162, #5, #36 ) ;
#313 = CARTESIAN_POINT ( 'NONE',  ( -5.500000000000000000, 6.735557395310442023E-16, 5.499999999999949374 ) ) ;
#314 = CARTESIAN_POINT ( 'NONE',  ( 5.000000000000000000, 6.123233995736766282E-16, 705.0000000000000000 ) ) ;
#315 = CARTESIAN_POINT ( 'NONE',  ( 8.000000000000000000, 9.797174393178825657E-16, 5.000000000000000000 ) ) ;
#316 = ADVANCED_FACE ( 'NONE', ( #131, #72 ), #212, .T. ) ;
#317 = CARTESIAN_POINT ( 'NONE',  ( -5.000000000000000000, 0.000000000000000000, 705.0000000000000000 ) ) ;
#318 = CARTESIAN_POINT ( 'NONE',  ( 0.000000000000000000, 0.000000000000000000, 5.499999999999949374 ) ) ;
#319 = CARTESIAN_POINT ( 'NONE',  ( 0.000000000000000000, 0.000000000000000000, 705.0000000000000000 ) ) ;
#320 = ORIENTED_EDGE ( 'NONE', *, *, #343, .T. ) ;
#321 = DIRECTION ( 'NONE',  ( 1.000000000000000000, 0.000000000000000000, 0.000000000000000000 ) ) ;
#322 = ORIENTED_EDGE ( 'NONE', *, *, #139, .T. ) ;
#323 = LOCAL_TIME ( 16, 56, 1.000000000000000000, #62 ) ;
#324 = DIRECTION ( 'NONE',  ( -0.000000000000000000, -0.000000000000000000, -1.000000000000000000 ) ) ;
#325 = ORIENTED_EDGE ( 'NONE', *, *, #214, .F. ) ;
#326 = DIRECTION ( 'NONE',  ( 1.000000000000000000, 0.000000000000000000, 0.000000000000000000 ) ) ;
#327 =( LENGTH_UNIT ( ) NAMED_UNIT ( * ) SI_UNIT ( .MILLI., .METRE. ) );
#328 = ORIENTED_EDGE ( 'NONE', *, *, #276, .F. ) ;
#329 = APPLICATION_CONTEXT ( 'configuration controlled 3d designs of mechanical parts and assemblies' ) ;
#330 = AXIS2_PLACEMENT_3D ( 'NONE', #193, #223, #88 ) ;
#331 = VECTOR ( 'NONE', #142, 1000.000000000000000 ) ;
#332 = PERSON_AND_ORGANIZATION ( #204, #67 ) ;
#333 = EDGE_LOOP ( 'NONE', ( #287, #228, #13, #328 ) ) ;
#334 = PERSON_AND_ORGANIZATION ( #204, #67 ) ;
#335 = AXIS2_PLACEMENT_3D ( 'NONE', #366, #106, #126 ) ;
#336 = CARTESIAN_POINT ( 'NONE',  ( 0.000000000000000000, 0.000000000000000000, 0.000000000000000000 ) ) ;
#337 = CC_DESIGN_PERSON_AND_ORGANIZATION_ASSIGNMENT ( #376, #154, ( #71 ) ) ;
#338 = DESIGN_CONTEXT ( 'detailed design', #364, 'design' ) ;
#339 = DIRECTION ( 'NONE',  ( 1.000000000000000000, 0.000000000000000000, -0.000000000000000000 ) ) ;
#340 = CC_DESIGN_SECURITY_CLASSIFICATION ( #71, ( #181 ) ) ;
#341 = CARTESIAN_POINT ( 'NONE',  ( 0.000000000000000000, 0.000000000000000000, 0.000000000000000000 ) ) ;
#342 = DIRECTION ( 'NONE',  ( -1.000000000000000000, 0.000000000000000000, 0.000000000000000000 ) ) ;
#343 = EDGE_CURVE ( 'NONE', #89, #179, #188, .T. ) ;
#344 = CARTESIAN_POINT ( 'NONE',  ( 0.000000000000000000, 0.000000000000000000, 705.0000000000000000 ) ) ;
#345 = AXIS2_PLACEMENT_3D ( 'NONE', #294, #269, #117 ) ;
#346 = DIRECTION ( 'NONE',  ( 1.000000000000000000, 0.000000000000000000, -0.000000000000000000 ) ) ;
#347 = EDGE_LOOP ( 'NONE', ( #79, #64 ) ) ;
#348 = DIRECTION ( 'NONE',  ( 0.000000000000000000, 0.000000000000000000, 1.000000000000000000 ) ) ;
#349 = ORIENTED_EDGE ( 'NONE', *, *, #56, .F. ) ;
#350 = EDGE_LOOP ( 'NONE', ( #50, #109, #236, #19 ) ) ;
#351 = CIRCLE ( 'NONE', #213, 0.5000000000000004441 ) ;
#352 = CIRCLE ( 'NONE', #34, 8.000000000000000000 ) ;
#353 = CYLINDRICAL_SURFACE ( 'NONE', #330, 8.000000000000000000 ) ;
#354 = ORIENTED_EDGE ( 'NONE', *, *, #292, .F. ) ;
#355 = CARTESIAN_POINT ( 'NONE',  ( -5.000000000000000000, 0.000000000000000000, 705.0000000000000000 ) ) ;
#356 = PERSON_AND_ORGANIZATION_ROLE ( 'creator' ) ;
#357 = EDGE_CURVE ( 'NONE', #11, #179, #91, .T. ) ;
#358 = CALENDAR_DATE ( 2022, 8, 7 ) ;
#359 = ADVANCED_FACE ( 'NONE', ( #49 ), #18, .T. ) ;
#360 = CARTESIAN_POINT ( 'NONE',  ( 3.000000000000000444, 3.673940397442060361E-16, 705.0000000000000000 ) ) ;
#361 = DIRECTION ( 'NONE',  ( 0.000000000000000000, 0.000000000000000000, 1.000000000000000000 ) ) ;
#362 = CARTESIAN_POINT ( 'NONE',  ( 0.000000000000000000, 0.000000000000000000, 705.0000000000000000 ) ) ;
#363 = CIRCLE ( 'NONE', #160, 5.000000000000000000 ) ;
#364 = APPLICATION_CONTEXT ( 'configuration controlled 3d designs of mechanical parts and assemblies' ) ;
#365 = EDGE_CURVE ( 'NONE', #293, #259, #264, .T. ) ;
#366 = CARTESIAN_POINT ( 'NONE',  ( 0.000000000000000000, 0.000000000000000000, 0.000000000000000000 ) ) ;
#367 = PLANE ( 'NONE',  #66 ) ;
#368 = EDGE_CURVE ( 'NONE', #65, #129, #87, .T. ) ;
#369 = CARTESIAN_POINT ( 'NONE',  ( 8.000000000000000000, 9.797174393178825657E-16, 0.000000000000000000 ) ) ;
#370 = FACE_OUTER_BOUND ( 'NONE', #268, .T. ) ;
#371 = VERTEX_POINT ( 'NONE', #220 ) ;
#372 = ORIENTED_EDGE ( 'NONE', *, *, #276, .T. ) ;
#373 = VECTOR ( 'NONE', #182, 1000.000000000000000 ) ;
#374 = EDGE_CURVE ( 'NONE', #179, #11, #144, .T. ) ;
#375 = EDGE_LOOP ( 'NONE', ( #306, #320, #114, #349 ) ) ;
#376 = PERSON_AND_ORGANIZATION ( #204, #67 ) ;
#377 = VERTEX_POINT ( 'NONE', #369 ) ;
#378 = AXIS2_PLACEMENT_3D ( 'NONE', #132, #97, #187 ) ;
#379 = CIRCLE ( 'NONE', #222, 5.000000000000000000 ) ;
#380 = PERSON_AND_ORGANIZATION ( #204, #67 ) ;
#381 = PERSON_AND_ORGANIZATION ( #204, #67 ) ;
ENDSEC;
END-ISO-10303-21;
