ISO-10303-21;
HEADER;
FILE_DESCRIPTION (( 'STEP AP203' ),
    '1' );
FILE_NAME ('3006.STEP',
    '2022-07-08T14:54:11',
    ( '' ),
    ( '' ),
    'SwSTEP 2.0',
    'SolidWorks 2019',
    '' );
FILE_SCHEMA (( 'CONFIG_CONTROL_DESIGN' ));
ENDSEC;

DATA;
#1 = CARTESIAN_POINT ( 'NONE',  ( 0.000000000000000000, 0.000000000000000000, 0.000000000000000000 ) ) ;
#2 = AXIS2_PLACEMENT_3D ( 'NONE', #124, #225, #195 ) ;
#3 = DIRECTION ( 'NONE',  ( -0.000000000000000000, -0.000000000000000000, -1.000000000000000000 ) ) ;
#4 = CARTESIAN_POINT ( 'NONE',  ( 0.000000000000000000, 0.000000000000000000, 232.0000000000000000 ) ) ;
#5 = LINE ( 'NONE', #359, #279 ) ;
#6 = DIRECTION ( 'NONE',  ( 1.000000000000000000, 0.000000000000000000, 0.000000000000000000 ) ) ;
#7 = TOROIDAL_SURFACE ( 'NONE', #245, 6.500000000000000888, 0.5000000000000000000 ) ;
#8 = PERSON_AND_ORGANIZATION_ROLE ( 'classification_officer' ) ;
#9 = VECTOR ( 'NONE', #3, 1000.000000000000000 ) ;
#10 = CYLINDRICAL_SURFACE ( 'NONE', #2, 10.00000000000000000 ) ;
#11 = PRODUCT_DEFINITION ( 'NEZNÁMÝ', '', #210, #81 ) ;
#12 = EDGE_CURVE ( 'NONE', #220, #133, #358, .T. ) ;
#13 = PERSON ( 'NEURÈENÝ', 'NEURÈENÝ', 'NEURÈENÝ', ('NEURÈENÝ'), ('NEURÈENÝ'), ('NEURÈENÝ') ) ;
#14 = CIRCLE ( 'NONE', #291, 0.5000000000000004441 ) ;
#15 = CARTESIAN_POINT ( 'NONE',  ( -6.000000000000000888, 0.000000000000000000, 232.0000000000000000 ) ) ;
#16 = CIRCLE ( 'NONE', #237, 3.000000000000000444 ) ;
#17 = CIRCLE ( 'NONE', #239, 6.000000000000000888 ) ;
#18 = DIRECTION ( 'NONE',  ( -0.000000000000000000, -0.000000000000000000, -1.000000000000000000 ) ) ;
#19 = DIRECTION ( 'NONE',  ( 0.000000000000000000, 0.000000000000000000, 1.000000000000000000 ) ) ;
#20 = EDGE_LOOP ( 'NONE', ( #288, #199 ) ) ;
#21 = ORIENTED_EDGE ( 'NONE', *, *, #251, .T. ) ;
#22 = APPROVAL_STATUS ( 'not_yet_approved' ) ;
#23 = AXIS2_PLACEMENT_3D ( 'NONE', #223, #126, #341 ) ;
#24 = CARTESIAN_POINT ( 'NONE',  ( 0.000000000000000000, 0.000000000000000000, 232.0000000000000000 ) ) ;
#25 = DIRECTION ( 'NONE',  ( 0.000000000000000000, 0.000000000000000000, 1.000000000000000000 ) ) ;
#26 = ORIENTED_EDGE ( 'NONE', *, *, #314, .T. ) ;
#27 = DIRECTION ( 'NONE',  ( -1.000000000000000000, 0.000000000000000000, 0.000000000000000000 ) ) ;
#28 = EDGE_LOOP ( 'NONE', ( #162, #102 ) ) ;
#29 = CIRCLE ( 'NONE', #71, 3.000000000000000444 ) ;
#30 = ORIENTED_EDGE ( 'NONE', *, *, #155, .F. ) ;
#31 = EDGE_CURVE ( 'NONE', #371, #232, #364, .T. ) ;
#32 = LINE ( 'NONE', #120, #9 ) ;
#33 = CARTESIAN_POINT ( 'NONE',  ( 0.000000000000000000, 0.000000000000000000, 0.000000000000000000 ) ) ;
#34 = DIRECTION ( 'NONE',  ( 0.000000000000000000, 0.000000000000000000, 1.000000000000000000 ) ) ;
#35 = PERSON_AND_ORGANIZATION_ROLE ( 'design_owner' ) ;
#36 = AXIS2_PLACEMENT_3D ( 'NONE', #108, #373, #201 ) ;
#37 = EDGE_LOOP ( 'NONE', ( #264, #326, #21, #249 ) ) ;
#38 = DIRECTION ( 'NONE',  ( -0.000000000000000000, -0.000000000000000000, -1.000000000000000000 ) ) ;
#39 = ORIENTED_EDGE ( 'NONE', *, *, #251, .F. ) ;
#40 = SHAPE_DEFINITION_REPRESENTATION ( #72, #213 ) ;
#41 = CC_DESIGN_PERSON_AND_ORGANIZATION_ASSIGNMENT ( #186, #339, ( #210 ) ) ;
#42 = AXIS2_PLACEMENT_3D ( 'NONE', #118, #115, #61 ) ;
#43 = ORIENTED_EDGE ( 'NONE', *, *, #103, .T. ) ;
#44 = AXIS2_PLACEMENT_3D ( 'NONE', #70, #311, #95 ) ;
#45 = EDGE_CURVE ( 'NONE', #209, #82, #62, .T. ) ;
#46 = CC_DESIGN_SECURITY_CLASSIFICATION ( #377, ( #210 ) ) ;
#47 = EDGE_LOOP ( 'NONE', ( #53, #79 ) ) ;
#48 = PERSON_AND_ORGANIZATION ( #13, #100 ) ;
#49 = CARTESIAN_POINT ( 'NONE',  ( 0.000000000000000000, 0.000000000000000000, 7.000000000000000000 ) ) ;
#50 = ORIENTED_EDGE ( 'NONE', *, *, #374, .T. ) ;
#51 = DIRECTION ( 'NONE',  ( -0.000000000000000000, -0.000000000000000000, -1.000000000000000000 ) ) ;
#52 = PRODUCT_RELATED_PRODUCT_CATEGORY ( 'detail', '', ( #129 ) ) ;
#53 = ORIENTED_EDGE ( 'NONE', *, *, #277, .T. ) ;
#54 = DIRECTION ( 'NONE',  ( -0.000000000000000000, -0.000000000000000000, -1.000000000000000000 ) ) ;
#55 = AXIS2_PLACEMENT_3D ( 'NONE', #33, #212, #6 ) ;
#56 = ADVANCED_FACE ( 'NONE', ( #86 ), #7, .F. ) ;
#57 = EDGE_LOOP ( 'NONE', ( #329, #50, #106, #30 ) ) ;
#58 = AXIS2_PLACEMENT_3D ( 'NONE', #152, #214, #334 ) ;
#59 = DIRECTION ( 'NONE',  ( 1.000000000000000000, 0.000000000000000000, 0.000000000000000000 ) ) ;
#60 = DIRECTION ( 'NONE',  ( 0.000000000000000000, 0.000000000000000000, 1.000000000000000000 ) ) ;
#61 = DIRECTION ( 'NONE',  ( 1.000000000000000000, 0.000000000000000000, 0.000000000000000000 ) ) ;
#62 = LINE ( 'NONE', #153, #276 ) ;
#63 = DIRECTION ( 'NONE',  ( 0.000000000000000000, 0.000000000000000000, 1.000000000000000000 ) ) ;
#64 = EDGE_CURVE ( 'NONE', #220, #137, #14, .T. ) ;
#65 = APPROVAL_STATUS ( 'not_yet_approved' ) ;
#66 = APPROVAL_ROLE ( '' ) ;
#67 = CARTESIAN_POINT ( 'NONE',  ( 0.000000000000000000, 0.000000000000000000, 232.0000000000000000 ) ) ;
#68 = CC_DESIGN_DATE_AND_TIME_ASSIGNMENT ( #257, #344, ( #377 ) ) ;
#69 = APPROVAL_STATUS ( 'not_yet_approved' ) ;
#70 = CARTESIAN_POINT ( 'NONE',  ( 0.000000000000000000, 0.000000000000000000, 7.000000000000000000 ) ) ;
#71 = AXIS2_PLACEMENT_3D ( 'NONE', #1, #84, #87 ) ;
#72 = PRODUCT_DEFINITION_SHAPE ( 'NONE', 'NONE',  #11 ) ;
#73 = CARTESIAN_POINT ( 'NONE',  ( -6.500000000000000888, 7.960204194457796463E-16, 7.000000000000002665 ) ) ;
#74 = ORIENTED_EDGE ( 'NONE', *, *, #45, .T. ) ;
#75 = CARTESIAN_POINT ( 'NONE',  ( 0.000000000000000000, 0.000000000000000000, 7.000000000000000000 ) ) ;
#76 = VERTEX_POINT ( 'NONE', #336 ) ;
#77 = PERSON_AND_ORGANIZATION ( #13, #100 ) ;
#78 = CIRCLE ( 'NONE', #181, 10.00000000000000000 ) ;
#79 = ORIENTED_EDGE ( 'NONE', *, *, #325, .T. ) ;
#80 = FACE_OUTER_BOUND ( 'NONE', #230, .T. ) ;
#81 = DESIGN_CONTEXT ( 'detailed design', #151, 'design' ) ;
#82 = VERTEX_POINT ( 'NONE', #299 ) ;
#83 = ORIENTED_EDGE ( 'NONE', *, *, #165, .F. ) ;
#84 = DIRECTION ( 'NONE',  ( -0.000000000000000000, -0.000000000000000000, -1.000000000000000000 ) ) ;
#85 = FACE_OUTER_BOUND ( 'NONE', #352, .T. ) ;
#86 = FACE_OUTER_BOUND ( 'NONE', #202, .T. ) ;
#87 = DIRECTION ( 'NONE',  ( 1.000000000000000000, 0.000000000000000000, 0.000000000000000000 ) ) ;
#88 = FACE_OUTER_BOUND ( 'NONE', #313, .T. ) ;
#89 = DIRECTION ( 'NONE',  ( -1.000000000000000000, 1.224646799147351482E-16, 0.000000000000000000 ) ) ;
#90 = DIRECTION ( 'NONE',  ( 0.000000000000000000, 0.000000000000000000, -1.000000000000000000 ) ) ;
#91 = FACE_OUTER_BOUND ( 'NONE', #131, .T. ) ;
#92 = CLOSED_SHELL ( 'NONE', ( #97, #117, #275, #295, #169, #109, #319, #240, #172, #56, #243 ) ) ;
#93 = ORIENTED_EDGE ( 'NONE', *, *, #155, .T. ) ;
#94 = DATE_AND_TIME ( #302, #287 ) ;
#95 = DIRECTION ( 'NONE',  ( 1.000000000000000000, 0.000000000000000000, 0.000000000000000000 ) ) ;
#96 = AXIS2_PLACEMENT_3D ( 'NONE', #306, #254, #338 ) ;
#97 = ADVANCED_FACE ( 'NONE', ( #85 ), #271, .F. ) ;
#98 = FACE_OUTER_BOUND ( 'NONE', #37, .T. ) ;
#99 = CARTESIAN_POINT ( 'NONE',  ( -10.00000000000000000, 0.000000000000000000, 7.000000000000000000 ) ) ;
#100 = ORGANIZATION ( 'NEURÈENÝ', 'NEURÈENÝ', '' ) ;
#101 = CALENDAR_DATE ( 2022, 8, 7 ) ;
#102 = ORIENTED_EDGE ( 'NONE', *, *, #250, .F. ) ;
#103 = EDGE_CURVE ( 'NONE', #140, #82, #343, .T. ) ;
#104 = COORDINATED_UNIVERSAL_TIME_OFFSET ( 1, 0, .AHEAD. ) ;
#105 = DIRECTION ( 'NONE',  ( -1.000000000000000000, 0.000000000000000000, 0.000000000000000000 ) ) ;
#106 = ORIENTED_EDGE ( 'NONE', *, *, #12, .T. ) ;
#107 = CC_DESIGN_PERSON_AND_ORGANIZATION_ASSIGNMENT ( #135, #159, ( #210 ) ) ;
#108 = CARTESIAN_POINT ( 'NONE',  ( 0.000000000000000000, 0.000000000000000000, 232.0000000000000000 ) ) ;
#109 = ADVANCED_FACE ( 'NONE', ( #246, #88 ), #270, .T. ) ;
#110 = AXIS2_PLACEMENT_3D ( 'NONE', #350, #316, #27 ) ;
#111 = CARTESIAN_POINT ( 'NONE',  ( 0.000000000000000000, 0.000000000000000000, 232.0000000000000000 ) ) ;
#112 = ORIENTED_EDGE ( 'NONE', *, *, #381, .F. ) ;
#113 = UNCERTAINTY_MEASURE_WITH_UNIT (LENGTH_MEASURE( 1.000000000000000082E-05 ), #296, 'distance_accuracy_value', 'NONE');
#114 = ORIENTED_EDGE ( 'NONE', *, *, #356, .T. ) ;
#115 = DIRECTION ( 'NONE',  ( 0.000000000000000000, 0.000000000000000000, 1.000000000000000000 ) ) ;
#116 = CC_DESIGN_APPROVAL ( #331, ( #11 ) ) ;
#117 = ADVANCED_FACE ( 'NONE', ( #185 ), #175, .F. ) ;
#118 = CARTESIAN_POINT ( 'NONE',  ( 0.000000000000000000, 0.000000000000000000, 0.000000000000000000 ) ) ;
#119 = CARTESIAN_POINT ( 'NONE',  ( 3.000000000000000444, 3.673940397442059868E-16, 232.0000000000000000 ) ) ;
#120 = CARTESIAN_POINT ( 'NONE',  ( 6.000000000000000888, 7.347880794884120722E-16, 232.0000000000000000 ) ) ;
#121 = AXIS2_PLACEMENT_3D ( 'NONE', #4, #90, #357 ) ;
#122 = DIRECTION ( 'NONE',  ( 1.000000000000000000, 0.000000000000000000, -0.000000000000000000 ) ) ;
#123 = CC_DESIGN_APPROVAL ( #253, ( #377 ) ) ;
#124 = CARTESIAN_POINT ( 'NONE',  ( 0.000000000000000000, 0.000000000000000000, 7.000000000000000000 ) ) ;
#125 = CARTESIAN_POINT ( 'NONE',  ( 3.000000000000000444, 3.673940397442059868E-16, 0.000000000000000000 ) ) ;
#126 = DIRECTION ( 'NONE',  ( 0.000000000000000000, 0.000000000000000000, 1.000000000000000000 ) ) ;
#127 = AXIS2_PLACEMENT_3D ( 'NONE', #49, #51, #167 ) ;
#128 = APPROVAL_PERSON_ORGANIZATION ( #48, #184, #372 ) ;
#129 = PRODUCT ( '3006', '3006', '', ( #333 ) ) ;
#130 = EDGE_LOOP ( 'NONE', ( #83, #114, #160, #39 ) ) ;
#131 = EDGE_LOOP ( 'NONE', ( #236, #282, #93, #138 ) ) ;
#132 = DIRECTION ( 'NONE',  ( 1.000000000000000000, 0.000000000000000000, -0.000000000000000000 ) ) ;
#133 = VERTEX_POINT ( 'NONE', #178 ) ;
#134 = CIRCLE ( 'NONE', #96, 10.00000000000000000 ) ;
#135 = PERSON_AND_ORGANIZATION ( #13, #100 ) ;
#136 = DIRECTION ( 'NONE',  ( 1.000000000000000000, 0.000000000000000000, 0.000000000000000000 ) ) ;
#137 = VERTEX_POINT ( 'NONE', #219 ) ;
#138 = ORIENTED_EDGE ( 'NONE', *, *, #147, .T. ) ;
#139 = APPLICATION_CONTEXT ( 'configuration controlled 3d designs of mechanical parts and assemblies' ) ;
#140 = VERTEX_POINT ( 'NONE', #125 ) ;
#141 = LOCAL_TIME ( 16, 54, 11.00000000000000000, #156 ) ;
#142 = DIRECTION ( 'NONE',  ( -1.000000000000000000, 0.000000000000000000, 0.000000000000000000 ) ) ;
#143 = ORIENTED_EDGE ( 'NONE', *, *, #165, .T. ) ;
#144 = CARTESIAN_POINT ( 'NONE',  ( -6.500000000000000888, 7.960204194457796463E-16, 7.500000000000007105 ) ) ;
#145 = CARTESIAN_POINT ( 'NONE',  ( 0.000000000000000000, 0.000000000000000000, 7.500000000000007105 ) ) ;
#146 = CC_DESIGN_PERSON_AND_ORGANIZATION_ASSIGNMENT ( #335, #35, ( #129 ) ) ;
#147 = EDGE_CURVE ( 'NONE', #133, #220, #226, .T. ) ;
#148 = DIRECTION ( 'NONE',  ( 1.224646799147353207E-16, 1.000000000000000000, -0.000000000000000000 ) ) ;
#149 = DIRECTION ( 'NONE',  ( 0.000000000000000000, 0.000000000000000000, -1.000000000000000000 ) ) ;
#150 = CIRCLE ( 'NONE', #44, 6.500000000000000888 ) ;
#151 = APPLICATION_CONTEXT ( 'configuration controlled 3d designs of mechanical parts and assemblies' ) ;
#152 = CARTESIAN_POINT ( 'NONE',  ( 0.000000000000000000, 0.000000000000000000, 0.000000000000000000 ) ) ;
#153 = CARTESIAN_POINT ( 'NONE',  ( -3.000000000000000444, 0.000000000000000000, 232.0000000000000000 ) ) ;
#154 = EDGE_LOOP ( 'NONE', ( #112, #342 ) ) ;
#155 = EDGE_CURVE ( 'NONE', #76, #133, #366, .T. ) ;
#156 = COORDINATED_UNIVERSAL_TIME_OFFSET ( 1, 0, .AHEAD. ) ;
#157 = VECTOR ( 'NONE', #18, 1000.000000000000000 ) ;
#158 = DIRECTION ( 'NONE',  ( 1.000000000000000000, 0.000000000000000000, 0.000000000000000000 ) ) ;
#159 = PERSON_AND_ORGANIZATION_ROLE ( 'creator' ) ;
#160 = ORIENTED_EDGE ( 'NONE', *, *, #31, .T. ) ;
#161 = DIRECTION ( 'NONE',  ( 1.000000000000000000, 0.000000000000000000, 0.000000000000000000 ) ) ;
#162 = ORIENTED_EDGE ( 'NONE', *, *, #346, .F. ) ;
#163 = DIRECTION ( 'NONE',  ( 1.000000000000000000, 0.000000000000000000, 0.000000000000000000 ) ) ;
#164 = CIRCLE ( 'NONE', #258, 0.5000000000000004441 ) ;
#165 = EDGE_CURVE ( 'NONE', #168, #238, #269, .T. ) ;
#166 = DIRECTION ( 'NONE',  ( 1.000000000000000000, 0.000000000000000000, 0.000000000000000000 ) ) ;
#167 = DIRECTION ( 'NONE',  ( 1.000000000000000000, 0.000000000000000000, 0.000000000000000000 ) ) ;
#168 = VERTEX_POINT ( 'NONE', #273 ) ;
#169 = ADVANCED_FACE ( 'NONE', ( #98 ), #10, .T. ) ;
#170 = ORIENTED_EDGE ( 'NONE', *, *, #147, .F. ) ;
#171 = CARTESIAN_POINT ( 'NONE',  ( 0.000000000000000000, 0.000000000000000000, 0.000000000000000000 ) ) ;
#172 = ADVANCED_FACE ( 'NONE', ( #187, #217 ), #193, .T. ) ;
#173 = CC_DESIGN_PERSON_AND_ORGANIZATION_ASSIGNMENT ( #188, #8, ( #377 ) ) ;
#174 = DIRECTION ( 'NONE',  ( 0.000000000000000000, 0.000000000000000000, 1.000000000000000000 ) ) ;
#175 = TOROIDAL_SURFACE ( 'NONE', #207, 6.500000000000000888, 0.5000000000000000000 ) ;
#176 = CARTESIAN_POINT ( 'NONE',  ( 0.000000000000000000, 0.000000000000000000, 232.0000000000000000 ) ) ;
#177 = ORIENTED_EDGE ( 'NONE', *, *, #314, .F. ) ;
#178 = CARTESIAN_POINT ( 'NONE',  ( -6.000000000000000888, 0.000000000000000000, 7.500000000000007105 ) ) ;
#179 = APPLICATION_PROTOCOL_DEFINITION ( 'international standard', 'config_control_design', 1994, #139 ) ;
#180 = DIRECTION ( 'NONE',  ( 1.000000000000000000, 0.000000000000000000, 0.000000000000000000 ) ) ;
#181 = AXIS2_PLACEMENT_3D ( 'NONE', #75, #289, #261 ) ;
#182 =( NAMED_UNIT ( * ) PLANE_ANGLE_UNIT ( ) SI_UNIT ( $, .RADIAN. ) );
#183 = EDGE_CURVE ( 'NONE', #284, #137, #150, .T. ) ;
#184 = APPROVAL ( #65, 'NEURÈENÝ' ) ;
#185 = FACE_OUTER_BOUND ( 'NONE', #262, .T. ) ;
#186 = PERSON_AND_ORGANIZATION ( #13, #100 ) ;
#187 = FACE_BOUND ( 'NONE', #28, .T. ) ;
#188 = PERSON_AND_ORGANIZATION ( #13, #100 ) ;
#189 = AXIS2_PLACEMENT_3D ( 'NONE', #24, #174, #136 ) ;
#190 = CARTESIAN_POINT ( 'NONE',  ( 0.000000000000000000, 0.000000000000000000, 7.000000000000000000 ) ) ;
#191 = DATE_AND_TIME ( #362, #370 ) ;
#192 = EDGE_CURVE ( 'NONE', #232, #371, #134, .T. ) ;
#193 = PLANE ( 'NONE',  #23 ) ;
#194 = CARTESIAN_POINT ( 'NONE',  ( 6.000000000000000888, 7.347880794884120722E-16, 7.500000000000007105 ) ) ;
#195 = DIRECTION ( 'NONE',  ( -1.000000000000000000, 0.000000000000000000, 0.000000000000000000 ) ) ;
#196 = AXIS2_PLACEMENT_3D ( 'NONE', #171, #283, #132 ) ;
#197 = CARTESIAN_POINT ( 'NONE',  ( 0.000000000000000000, 0.000000000000000000, 7.000000000000000000 ) ) ;
#198 = CALENDAR_DATE ( 2022, 8, 7 ) ;
#199 = ORIENTED_EDGE ( 'NONE', *, *, #31, .F. ) ;
#200 = AXIS2_PLACEMENT_3D ( 'NONE', #244, #63, #122 ) ;
#201 = DIRECTION ( 'NONE',  ( 1.000000000000000000, 0.000000000000000000, 0.000000000000000000 ) ) ;
#202 = EDGE_LOOP ( 'NONE', ( #378, #379, #224, #363 ) ) ;
#203 = CIRCLE ( 'NONE', #189, 3.000000000000000444 ) ;
#204 = CYLINDRICAL_SURFACE ( 'NONE', #351, 10.00000000000000000 ) ;
#205 = DIRECTION ( 'NONE',  ( -0.000000000000000000, -0.000000000000000000, -1.000000000000000000 ) ) ;
#206 = VERTEX_POINT ( 'NONE', #248 ) ;
#207 = AXIS2_PLACEMENT_3D ( 'NONE', #332, #60, #166 ) ;
#208 = PERSON_AND_ORGANIZATION ( #13, #100 ) ;
#209 = VERTEX_POINT ( 'NONE', #278 ) ;
#210 = PRODUCT_DEFINITION_FORMATION_WITH_SPECIFIED_SOURCE ( 'LIBOVOLNÝ', '', #129, .NOT_KNOWN. ) ;
#211 = CARTESIAN_POINT ( 'NONE',  ( 10.00000000000000000, 1.224646799147353256E-15, 0.000000000000000000 ) ) ;
#212 = DIRECTION ( 'NONE',  ( -0.000000000000000000, -0.000000000000000000, -1.000000000000000000 ) ) ;
#213 = ADVANCED_BREP_SHAPE_REPRESENTATION ( '3006', ( #247, #58 ), #228 ) ;
#214 = DIRECTION ( 'NONE',  ( 0.000000000000000000, 0.000000000000000000, 1.000000000000000000 ) ) ;
#215 = DIRECTION ( 'NONE',  ( 0.000000000000000000, -1.000000000000000000, 0.000000000000000000 ) ) ;
#216 = COORDINATED_UNIVERSAL_TIME_OFFSET ( 1, 0, .AHEAD. ) ;
#217 = FACE_OUTER_BOUND ( 'NONE', #47, .T. ) ;
#218 = DATE_TIME_ROLE ( 'creation_date' ) ;
#219 = CARTESIAN_POINT ( 'NONE',  ( 6.500000000000000888, 0.000000000000000000, 7.000000000000002665 ) ) ;
#220 = VERTEX_POINT ( 'NONE', #194 ) ;
#221 = APPROVAL_DATE_TIME ( #233, #184 ) ;
#222 = CYLINDRICAL_SURFACE ( 'NONE', #375, 6.000000000000000888 ) ;
#223 = CARTESIAN_POINT ( 'NONE',  ( 0.000000000000000000, 0.000000000000000000, 232.0000000000000000 ) ) ;
#224 = ORIENTED_EDGE ( 'NONE', *, *, #64, .T. ) ;
#225 = DIRECTION ( 'NONE',  ( -0.000000000000000000, -0.000000000000000000, -1.000000000000000000 ) ) ;
#226 = CIRCLE ( 'NONE', #272, 6.000000000000000888 ) ;
#227 = EDGE_CURVE ( 'NONE', #349, #140, #256, .T. ) ;
#228 =( GEOMETRIC_REPRESENTATION_CONTEXT ( 3 ) GLOBAL_UNCERTAINTY_ASSIGNED_CONTEXT ( ( #113 ) ) GLOBAL_UNIT_ASSIGNED_CONTEXT ( ( #296, #182, #330 ) ) REPRESENTATION_CONTEXT ( 'NONE', 'WORKASPACE' ) );
#229 = LOCAL_TIME ( 16, 54, 11.00000000000000000, #285 ) ;
#230 = EDGE_LOOP ( 'NONE', ( #280, #267, #74, #317 ) ) ;
#231 = PERSON_AND_ORGANIZATION ( #13, #100 ) ;
#232 = VERTEX_POINT ( 'NONE', #303 ) ;
#233 = DATE_AND_TIME ( #337, #229 ) ;
#234 = CC_DESIGN_PERSON_AND_ORGANIZATION_ASSIGNMENT ( #231, #365, ( #11 ) ) ;
#235 = PLANE ( 'NONE',  #196 ) ;
#236 = ORIENTED_EDGE ( 'NONE', *, *, #374, .F. ) ;
#237 = AXIS2_PLACEMENT_3D ( 'NONE', #292, #294, #180 ) ;
#238 = VERTEX_POINT ( 'NONE', #99 ) ;
#239 = AXIS2_PLACEMENT_3D ( 'NONE', #176, #25, #263 ) ;
#240 = ADVANCED_FACE ( 'NONE', ( #91 ), #222, .T. ) ;
#241 = DIRECTION ( 'NONE',  ( 0.000000000000000000, 0.000000000000000000, -1.000000000000000000 ) ) ;
#242 = EDGE_LOOP ( 'NONE', ( #26, #353 ) ) ;
#243 = ADVANCED_FACE ( 'NONE', ( #80 ), #290, .F. ) ;
#244 = CARTESIAN_POINT ( 'NONE',  ( 0.000000000000000000, 0.000000000000000000, 7.000000000000000000 ) ) ;
#245 = AXIS2_PLACEMENT_3D ( 'NONE', #301, #297, #158 ) ;
#246 = FACE_BOUND ( 'NONE', #242, .T. ) ;
#247 = MANIFOLD_SOLID_BREP ( 'Odebrat vysunutím3', #92 ) ;
#248 = CARTESIAN_POINT ( 'NONE',  ( 6.000000000000000888, 7.347880794884120722E-16, 232.0000000000000000 ) ) ;
#249 = ORIENTED_EDGE ( 'NONE', *, *, #192, .T. ) ;
#250 = EDGE_CURVE ( 'NONE', #349, #209, #203, .T. ) ;
#251 = EDGE_CURVE ( 'NONE', #238, #232, #312, .T. ) ;
#252 = VECTOR ( 'NONE', #205, 1000.000000000000000 ) ;
#253 = APPROVAL ( #69, 'NEURÈENÝ' ) ;
#254 = DIRECTION ( 'NONE',  ( 0.000000000000000000, 0.000000000000000000, 1.000000000000000000 ) ) ;
#255 = ORIENTED_EDGE ( 'NONE', *, *, #260, .T. ) ;
#256 = LINE ( 'NONE', #308, #367 ) ;
#257 = DATE_AND_TIME ( #198, #141 ) ;
#258 = AXIS2_PLACEMENT_3D ( 'NONE', #144, #148, #89 ) ;
#259 = APPROVAL_DATE_TIME ( #94, #253 ) ;
#260 = EDGE_CURVE ( 'NONE', #238, #168, #78, .T. ) ;
#261 = DIRECTION ( 'NONE',  ( 1.000000000000000000, 0.000000000000000000, 0.000000000000000000 ) ) ;
#262 = EDGE_LOOP ( 'NONE', ( #170, #266, #177, #360 ) ) ;
#263 = DIRECTION ( 'NONE',  ( 1.000000000000000000, 0.000000000000000000, 0.000000000000000000 ) ) ;
#264 = ORIENTED_EDGE ( 'NONE', *, *, #356, .F. ) ;
#265 = FACE_OUTER_BOUND ( 'NONE', #57, .T. ) ;
#266 = ORIENTED_EDGE ( 'NONE', *, *, #380, .T. ) ;
#267 = ORIENTED_EDGE ( 'NONE', *, *, #250, .T. ) ;
#268 = CARTESIAN_POINT ( 'NONE',  ( 6.500000000000000888, 0.000000000000000000, 7.500000000000007105 ) ) ;
#269 = CIRCLE ( 'NONE', #304, 10.00000000000000000 ) ;
#270 = PLANE ( 'NONE',  #200 ) ;
#271 = CYLINDRICAL_SURFACE ( 'NONE', #121, 3.000000000000000444 ) ;
#272 = AXIS2_PLACEMENT_3D ( 'NONE', #281, #19, #161 ) ;
#273 = CARTESIAN_POINT ( 'NONE',  ( 10.00000000000000000, 1.224646799147353256E-15, 7.000000000000000000 ) ) ;
#274 = SECURITY_CLASSIFICATION_LEVEL ( 'unclassified' ) ;
#275 = ADVANCED_FACE ( 'NONE', ( #265 ), #369, .T. ) ;
#276 = VECTOR ( 'NONE', #355, 1000.000000000000000 ) ;
#277 = EDGE_CURVE ( 'NONE', #76, #206, #298, .T. ) ;
#278 = CARTESIAN_POINT ( 'NONE',  ( -3.000000000000000444, 0.000000000000000000, 232.0000000000000000 ) ) ;
#279 = VECTOR ( 'NONE', #300, 1000.000000000000000 ) ;
#280 = ORIENTED_EDGE ( 'NONE', *, *, #227, .F. ) ;
#281 = CARTESIAN_POINT ( 'NONE',  ( 0.000000000000000000, 0.000000000000000000, 7.500000000000007105 ) ) ;
#282 = ORIENTED_EDGE ( 'NONE', *, *, #277, .F. ) ;
#283 = DIRECTION ( 'NONE',  ( 0.000000000000000000, 0.000000000000000000, 1.000000000000000000 ) ) ;
#284 = VERTEX_POINT ( 'NONE', #73 ) ;
#285 = COORDINATED_UNIVERSAL_TIME_OFFSET ( 1, 0, .AHEAD. ) ;
#286 = APPROVAL_PERSON_ORGANIZATION ( #208, #331, #66 ) ;
#287 = LOCAL_TIME ( 16, 54, 11.00000000000000000, #315 ) ;
#288 = ORIENTED_EDGE ( 'NONE', *, *, #192, .F. ) ;
#289 = DIRECTION ( 'NONE',  ( 0.000000000000000000, 0.000000000000000000, 1.000000000000000000 ) ) ;
#290 = CYLINDRICAL_SURFACE ( 'NONE', #361, 3.000000000000000444 ) ;
#291 = AXIS2_PLACEMENT_3D ( 'NONE', #268, #215, #149 ) ;
#292 = CARTESIAN_POINT ( 'NONE',  ( 0.000000000000000000, 0.000000000000000000, 232.0000000000000000 ) ) ;
#293 = ORIENTED_EDGE ( 'NONE', *, *, #45, .F. ) ;
#294 = DIRECTION ( 'NONE',  ( 0.000000000000000000, 0.000000000000000000, 1.000000000000000000 ) ) ;
#295 = ADVANCED_FACE ( 'NONE', ( #323 ), #204, .T. ) ;
#296 =( LENGTH_UNIT ( ) NAMED_UNIT ( * ) SI_UNIT ( .MILLI., .METRE. ) );
#297 = DIRECTION ( 'NONE',  ( 0.000000000000000000, 0.000000000000000000, 1.000000000000000000 ) ) ;
#298 = CIRCLE ( 'NONE', #36, 6.000000000000000888 ) ;
#299 = CARTESIAN_POINT ( 'NONE',  ( -3.000000000000000444, 0.000000000000000000, 0.000000000000000000 ) ) ;
#300 = DIRECTION ( 'NONE',  ( -0.000000000000000000, -0.000000000000000000, -1.000000000000000000 ) ) ;
#301 = CARTESIAN_POINT ( 'NONE',  ( 0.000000000000000000, 0.000000000000000000, 7.500000000000007105 ) ) ;
#302 = CALENDAR_DATE ( 2022, 8, 7 ) ;
#303 = CARTESIAN_POINT ( 'NONE',  ( -10.00000000000000000, 0.000000000000000000, 0.000000000000000000 ) ) ;
#304 = AXIS2_PLACEMENT_3D ( 'NONE', #190, #307, #163 ) ;
#305 = APPROVAL_ROLE ( '' ) ;
#306 = CARTESIAN_POINT ( 'NONE',  ( 0.000000000000000000, 0.000000000000000000, 0.000000000000000000 ) ) ;
#307 = DIRECTION ( 'NONE',  ( 0.000000000000000000, 0.000000000000000000, 1.000000000000000000 ) ) ;
#308 = CARTESIAN_POINT ( 'NONE',  ( 3.000000000000000444, 3.673940397442059868E-16, 232.0000000000000000 ) ) ;
#309 = CIRCLE ( 'NONE', #127, 6.500000000000000888 ) ;
#310 = CC_DESIGN_APPROVAL ( #184, ( #210 ) ) ;
#311 = DIRECTION ( 'NONE',  ( -0.000000000000000000, -0.000000000000000000, -1.000000000000000000 ) ) ;
#312 = LINE ( 'NONE', #348, #252 ) ;
#313 = EDGE_LOOP ( 'NONE', ( #255, #143 ) ) ;
#314 = EDGE_CURVE ( 'NONE', #137, #284, #309, .T. ) ;
#315 = COORDINATED_UNIVERSAL_TIME_OFFSET ( 1, 0, .AHEAD. ) ;
#316 = DIRECTION ( 'NONE',  ( -0.000000000000000000, -0.000000000000000000, -1.000000000000000000 ) ) ;
#317 = ORIENTED_EDGE ( 'NONE', *, *, #381, .T. ) ;
#318 = APPROVAL_DATE_TIME ( #347, #331 ) ;
#319 = ADVANCED_FACE ( 'NONE', ( #376, #320 ), #235, .F. ) ;
#320 = FACE_OUTER_BOUND ( 'NONE', #20, .T. ) ;
#321 = APPROVAL_PERSON_ORGANIZATION ( #77, #253, #305 ) ;
#322 = ORIENTED_EDGE ( 'NONE', *, *, #346, .T. ) ;
#323 = FACE_OUTER_BOUND ( 'NONE', #130, .T. ) ;
#324 = ORIENTED_EDGE ( 'NONE', *, *, #227, .T. ) ;
#325 = EDGE_CURVE ( 'NONE', #206, #76, #17, .T. ) ;
#326 = ORIENTED_EDGE ( 'NONE', *, *, #260, .F. ) ;
#327 = AXIS2_PLACEMENT_3D ( 'NONE', #145, #34, #59 ) ;
#328 = LOCAL_TIME ( 16, 54, 11.00000000000000000, #216 ) ;
#329 = ORIENTED_EDGE ( 'NONE', *, *, #325, .F. ) ;
#330 =( NAMED_UNIT ( * ) SI_UNIT ( $, .STERADIAN. ) SOLID_ANGLE_UNIT ( ) );
#331 = APPROVAL ( #22, 'NEURÈENÝ' ) ;
#332 = CARTESIAN_POINT ( 'NONE',  ( 0.000000000000000000, 0.000000000000000000, 7.500000000000007105 ) ) ;
#333 = MECHANICAL_CONTEXT ( 'NONE', #139, 'mechanical' ) ;
#334 = DIRECTION ( 'NONE',  ( 1.000000000000000000, 0.000000000000000000, 0.000000000000000000 ) ) ;
#335 = PERSON_AND_ORGANIZATION ( #13, #100 ) ;
#336 = CARTESIAN_POINT ( 'NONE',  ( -6.000000000000000888, 0.000000000000000000, 232.0000000000000000 ) ) ;
#337 = CALENDAR_DATE ( 2022, 8, 7 ) ;
#338 = DIRECTION ( 'NONE',  ( 1.000000000000000000, 0.000000000000000000, 0.000000000000000000 ) ) ;
#339 = PERSON_AND_ORGANIZATION_ROLE ( 'design_supplier' ) ;
#340 = DIRECTION ( 'NONE',  ( 0.000000000000000000, 0.000000000000000000, -1.000000000000000000 ) ) ;
#341 = DIRECTION ( 'NONE',  ( 1.000000000000000000, 0.000000000000000000, -0.000000000000000000 ) ) ;
#342 = ORIENTED_EDGE ( 'NONE', *, *, #103, .F. ) ;
#343 = CIRCLE ( 'NONE', #55, 3.000000000000000444 ) ;
#344 = DATE_TIME_ROLE ( 'classification_date' ) ;
#345 = DIRECTION ( 'NONE',  ( -1.000000000000000000, 0.000000000000000000, 0.000000000000000000 ) ) ;
#346 = EDGE_CURVE ( 'NONE', #209, #349, #16, .T. ) ;
#347 = DATE_AND_TIME ( #101, #328 ) ;
#348 = CARTESIAN_POINT ( 'NONE',  ( -10.00000000000000000, 0.000000000000000000, 7.000000000000000000 ) ) ;
#349 = VERTEX_POINT ( 'NONE', #119 ) ;
#350 = CARTESIAN_POINT ( 'NONE',  ( 0.000000000000000000, 0.000000000000000000, 232.0000000000000000 ) ) ;
#351 = AXIS2_PLACEMENT_3D ( 'NONE', #197, #54, #105 ) ;
#352 = EDGE_LOOP ( 'NONE', ( #322, #324, #43, #293 ) ) ;
#353 = ORIENTED_EDGE ( 'NONE', *, *, #183, .T. ) ;
#354 = APPLICATION_PROTOCOL_DEFINITION ( 'international standard', 'config_control_design', 1994, #151 ) ;
#355 = DIRECTION ( 'NONE',  ( 0.000000000000000000, 0.000000000000000000, -1.000000000000000000 ) ) ;
#356 = EDGE_CURVE ( 'NONE', #168, #371, #5, .T. ) ;
#357 = DIRECTION ( 'NONE',  ( -1.000000000000000000, 0.000000000000000000, 0.000000000000000000 ) ) ;
#358 = CIRCLE ( 'NONE', #327, 6.000000000000000888 ) ;
#359 = CARTESIAN_POINT ( 'NONE',  ( 10.00000000000000000, 1.224646799147353256E-15, 7.000000000000000000 ) ) ;
#360 = ORIENTED_EDGE ( 'NONE', *, *, #64, .F. ) ;
#361 = AXIS2_PLACEMENT_3D ( 'NONE', #111, #241, #345 ) ;
#362 = CALENDAR_DATE ( 2022, 8, 7 ) ;
#363 = ORIENTED_EDGE ( 'NONE', *, *, #183, .F. ) ;
#364 = CIRCLE ( 'NONE', #42, 10.00000000000000000 ) ;
#365 = PERSON_AND_ORGANIZATION_ROLE ( 'creator' ) ;
#366 = LINE ( 'NONE', #15, #157 ) ;
#367 = VECTOR ( 'NONE', #340, 1000.000000000000000 ) ;
#368 = CC_DESIGN_DATE_AND_TIME_ASSIGNMENT ( #191, #218, ( #11 ) ) ;
#369 = CYLINDRICAL_SURFACE ( 'NONE', #110, 6.000000000000000888 ) ;
#370 = LOCAL_TIME ( 16, 54, 11.00000000000000000, #104 ) ;
#371 = VERTEX_POINT ( 'NONE', #211 ) ;
#372 = APPROVAL_ROLE ( '' ) ;
#373 = DIRECTION ( 'NONE',  ( 0.000000000000000000, 0.000000000000000000, 1.000000000000000000 ) ) ;
#374 = EDGE_CURVE ( 'NONE', #206, #220, #32, .T. ) ;
#375 = AXIS2_PLACEMENT_3D ( 'NONE', #67, #38, #142 ) ;
#376 = FACE_BOUND ( 'NONE', #154, .T. ) ;
#377 = SECURITY_CLASSIFICATION ( '', '', #274 ) ;
#378 = ORIENTED_EDGE ( 'NONE', *, *, #380, .F. ) ;
#379 = ORIENTED_EDGE ( 'NONE', *, *, #12, .F. ) ;
#380 = EDGE_CURVE ( 'NONE', #133, #284, #164, .T. ) ;
#381 = EDGE_CURVE ( 'NONE', #82, #140, #29, .T. ) ;
ENDSEC;
END-ISO-10303-21;
