ISO-10303-21;
HEADER;
FILE_DESCRIPTION (( 'STEP AP203' ),
    '1' );
FILE_NAME ('cd4f.STEP',
    '2022-07-08T15:31:35',
    ( '' ),
    ( '' ),
    'SwSTEP 2.0',
    'SolidWorks 2019',
    '' );
FILE_SCHEMA (( 'CONFIG_CONTROL_DESIGN' ));
ENDSEC;

DATA;
#1 = DIRECTION ( 'NONE',  ( -1.000000000000000000, 1.224646799147351482E-16, 0.000000000000000000 ) ) ;
#2 = LOCAL_TIME ( 17, 31, 35.00000000000000000, #314 ) ;
#3 = VERTEX_POINT ( 'NONE', #213 ) ;
#4 =( NAMED_UNIT ( * ) PLANE_ANGLE_UNIT ( ) SI_UNIT ( $, .RADIAN. ) );
#5 = EDGE_LOOP ( 'NONE', ( #95, #326, #70, #151 ) ) ;
#6 = TOROIDAL_SURFACE ( 'NONE', #301, 4.500000000000000888, 0.5000000000000000000 ) ;
#7 = DESIGN_CONTEXT ( 'detailed design', #251, 'design' ) ;
#8 = FACE_OUTER_BOUND ( 'NONE', #278, .T. ) ;
#9 = CIRCLE ( 'NONE', #279, 7.000000000000000000 ) ;
#10 = PERSON_AND_ORGANIZATION ( #37, #112 ) ;
#11 = ORIENTED_EDGE ( 'NONE', *, *, #54, .T. ) ;
#12 = DIRECTION ( 'NONE',  ( 1.000000000000000000, 0.000000000000000000, 0.000000000000000000 ) ) ;
#13 = DATE_AND_TIME ( #340, #207 ) ;
#14 = EDGE_LOOP ( 'NONE', ( #308, #211, #208, #40 ) ) ;
#15 = APPROVAL ( #153, 'NEURÈENÝ' ) ;
#16 = CARTESIAN_POINT ( 'NONE',  ( 0.000000000000000000, 0.000000000000000000, 5.500000000000005329 ) ) ;
#17 = DIRECTION ( 'NONE',  ( -0.000000000000000000, -0.000000000000000000, -1.000000000000000000 ) ) ;
#18 = ADVANCED_FACE ( 'NONE', ( #332 ), #68, .T. ) ;
#19 = AXIS2_PLACEMENT_3D ( 'NONE', #325, #203, #58 ) ;
#20 = PERSON_AND_ORGANIZATION ( #37, #112 ) ;
#21 = CARTESIAN_POINT ( 'NONE',  ( -4.000000000000000000, 0.000000000000000000, 230.0000000000000000 ) ) ;
#22 = CARTESIAN_POINT ( 'NONE',  ( 0.000000000000000000, 0.000000000000000000, 5.500000000000005329 ) ) ;
#23 = AXIS2_PLACEMENT_3D ( 'NONE', #24, #17, #281 ) ;
#24 = CARTESIAN_POINT ( 'NONE',  ( 0.000000000000000000, 0.000000000000000000, 230.0000000000000000 ) ) ;
#25 = CIRCLE ( 'NONE', #61, 2.000000000000000000 ) ;
#26 = APPROVAL ( #132, 'NEURÈENÝ' ) ;
#27 = FACE_OUTER_BOUND ( 'NONE', #216, .T. ) ;
#28 = DIRECTION ( 'NONE',  ( 0.000000000000000000, 0.000000000000000000, 1.000000000000000000 ) ) ;
#29 = EDGE_LOOP ( 'NONE', ( #328, #36 ) ) ;
#30 = CIRCLE ( 'NONE', #204, 7.000000000000000000 ) ;
#31 = PLANE ( 'NONE',  #324 ) ;
#32 = AXIS2_PLACEMENT_3D ( 'NONE', #337, #229, #189 ) ;
#33 = CARTESIAN_POINT ( 'NONE',  ( 0.000000000000000000, 0.000000000000000000, 5.500000000000005329 ) ) ;
#34 = EDGE_LOOP ( 'NONE', ( #304, #154, #184, #361 ) ) ;
#35 = FACE_OUTER_BOUND ( 'NONE', #29, .T. ) ;
#36 = ORIENTED_EDGE ( 'NONE', *, *, #74, .T. ) ;
#37 = PERSON ( 'NEURÈENÝ', 'NEURÈENÝ', 'NEURÈENÝ', ('NEURÈENÝ'), ('NEURÈENÝ'), ('NEURÈENÝ') ) ;
#38 = CC_DESIGN_APPROVAL ( #15, ( #166 ) ) ;
#39 = ADVANCED_FACE ( 'NONE', ( #8 ), #6, .F. ) ;
#40 = ORIENTED_EDGE ( 'NONE', *, *, #196, .F. ) ;
#41 = ORIENTED_EDGE ( 'NONE', *, *, #344, .F. ) ;
#42 = VECTOR ( 'NONE', #99, 1000.000000000000000 ) ;
#43 = VERTEX_POINT ( 'NONE', #257 ) ;
#44 = PERSON_AND_ORGANIZATION_ROLE ( 'creator' ) ;
#45 = CC_DESIGN_APPROVAL ( #26, ( #91 ) ) ;
#46 = VERTEX_POINT ( 'NONE', #341 ) ;
#47 = PERSON_AND_ORGANIZATION ( #37, #112 ) ;
#48 = LINE ( 'NONE', #347, #351 ) ;
#49 = EDGE_CURVE ( 'NONE', #3, #201, #30, .T. ) ;
#50 = CARTESIAN_POINT ( 'NONE',  ( -4.500000000000000888, 5.510910596163088569E-16, 5.000000000000002665 ) ) ;
#51 = DIRECTION ( 'NONE',  ( -0.000000000000000000, -0.000000000000000000, -1.000000000000000000 ) ) ;
#52 = CARTESIAN_POINT ( 'NONE',  ( 0.000000000000000000, 0.000000000000000000, 230.0000000000000000 ) ) ;
#53 = CARTESIAN_POINT ( 'NONE',  ( 2.000000000000000000, 2.449293598294706414E-16, 230.0000000000000000 ) ) ;
#54 = EDGE_CURVE ( 'NONE', #186, #366, #312, .T. ) ;
#55 = CARTESIAN_POINT ( 'NONE',  ( 7.000000000000000000, 8.572527594031473190E-16, 5.000000000000000000 ) ) ;
#56 = APPROVAL_PERSON_ORGANIZATION ( #75, #15, #79 ) ;
#57 = FACE_OUTER_BOUND ( 'NONE', #60, .T. ) ;
#58 = DIRECTION ( 'NONE',  ( 1.000000000000000000, 0.000000000000000000, -0.000000000000000000 ) ) ;
#59 = FACE_OUTER_BOUND ( 'NONE', #5, .T. ) ;
#60 = EDGE_LOOP ( 'NONE', ( #329, #246, #275, #63 ) ) ;
#61 = AXIS2_PLACEMENT_3D ( 'NONE', #224, #128, #102 ) ;
#62 = DIRECTION ( 'NONE',  ( -0.000000000000000000, -0.000000000000000000, -1.000000000000000000 ) ) ;
#63 = ORIENTED_EDGE ( 'NONE', *, *, #299, .F. ) ;
#64 = EDGE_LOOP ( 'NONE', ( #242, #273, #116, #302 ) ) ;
#65 =( GEOMETRIC_REPRESENTATION_CONTEXT ( 3 ) GLOBAL_UNCERTAINTY_ASSIGNED_CONTEXT ( ( #247 ) ) GLOBAL_UNIT_ASSIGNED_CONTEXT ( ( #271, #4, #360 ) ) REPRESENTATION_CONTEXT ( 'NONE', 'WORKASPACE' ) );
#66 = AXIS2_PLACEMENT_3D ( 'NONE', #195, #315, #262 ) ;
#67 = EDGE_CURVE ( 'NONE', #97, #46, #317, .T. ) ;
#68 = CYLINDRICAL_SURFACE ( 'NONE', #77, 7.000000000000000000 ) ;
#69 = VERTEX_POINT ( 'NONE', #107 ) ;
#70 = ORIENTED_EDGE ( 'NONE', *, *, #344, .T. ) ;
#71 = DATE_AND_TIME ( #254, #338 ) ;
#72 = AXIS2_PLACEMENT_3D ( 'NONE', #22, #376, #348 ) ;
#73 = DIRECTION ( 'NONE',  ( 1.000000000000000000, 0.000000000000000000, 0.000000000000000000 ) ) ;
#74 = EDGE_CURVE ( 'NONE', #186, #124, #210, .T. ) ;
#75 = PERSON_AND_ORGANIZATION ( #37, #112 ) ;
#76 = CARTESIAN_POINT ( 'NONE',  ( 2.000000000000000000, 2.449293598294706414E-16, 230.0000000000000000 ) ) ;
#77 = AXIS2_PLACEMENT_3D ( 'NONE', #333, #182, #276 ) ;
#78 = DIRECTION ( 'NONE',  ( 0.000000000000000000, 0.000000000000000000, 1.000000000000000000 ) ) ;
#79 = APPROVAL_ROLE ( '' ) ;
#80 = CARTESIAN_POINT ( 'NONE',  ( 0.000000000000000000, 0.000000000000000000, 5.000000000000000000 ) ) ;
#81 = AXIS2_PLACEMENT_3D ( 'NONE', #137, #143, #265 ) ;
#82 = CARTESIAN_POINT ( 'NONE',  ( 4.000000000000000000, 4.898587196589412829E-16, 230.0000000000000000 ) ) ;
#83 = LINE ( 'NONE', #55, #90 ) ;
#84 = DIRECTION ( 'NONE',  ( 1.000000000000000000, 0.000000000000000000, 0.000000000000000000 ) ) ;
#85 = VECTOR ( 'NONE', #322, 1000.000000000000000 ) ;
#86 = DIRECTION ( 'NONE',  ( -1.000000000000000000, 0.000000000000000000, 0.000000000000000000 ) ) ;
#87 = DIRECTION ( 'NONE',  ( 0.000000000000000000, 0.000000000000000000, 1.000000000000000000 ) ) ;
#88 = DIRECTION ( 'NONE',  ( 1.000000000000000000, 0.000000000000000000, 0.000000000000000000 ) ) ;
#89 = ORIENTED_EDGE ( 'NONE', *, *, #54, .F. ) ;
#90 = VECTOR ( 'NONE', #269, 1000.000000000000000 ) ;
#91 = PRODUCT_DEFINITION ( 'NEZNÁMÝ', '', #214, #7 ) ;
#92 = COORDINATED_UNIVERSAL_TIME_OFFSET ( 1, 0, .AHEAD. ) ;
#93 = ORIENTED_EDGE ( 'NONE', *, *, #316, .T. ) ;
#94 = ORIENTED_EDGE ( 'NONE', *, *, #202, .T. ) ;
#95 = ORIENTED_EDGE ( 'NONE', *, *, #181, .T. ) ;
#96 = DIRECTION ( 'NONE',  ( -1.000000000000000000, 0.000000000000000000, 0.000000000000000000 ) ) ;
#97 = VERTEX_POINT ( 'NONE', #76 ) ;
#98 = CALENDAR_DATE ( 2022, 8, 7 ) ;
#99 = DIRECTION ( 'NONE',  ( -0.000000000000000000, -0.000000000000000000, -1.000000000000000000 ) ) ;
#100 = SECURITY_CLASSIFICATION_LEVEL ( 'unclassified' ) ;
#101 = VECTOR ( 'NONE', #285, 1000.000000000000000 ) ;
#102 = DIRECTION ( 'NONE',  ( 1.000000000000000000, 0.000000000000000000, 0.000000000000000000 ) ) ;
#103 = FACE_OUTER_BOUND ( 'NONE', #64, .T. ) ;
#104 = DATE_TIME_ROLE ( 'classification_date' ) ;
#105 = FACE_OUTER_BOUND ( 'NONE', #364, .T. ) ;
#106 = APPROVAL_ROLE ( '' ) ;
#107 = CARTESIAN_POINT ( 'NONE',  ( -7.000000000000000000, 0.000000000000000000, 0.000000000000000000 ) ) ;
#108 = DIRECTION ( 'NONE',  ( 1.000000000000000000, 0.000000000000000000, 0.000000000000000000 ) ) ;
#109 = CARTESIAN_POINT ( 'NONE',  ( 0.000000000000000000, 0.000000000000000000, 0.000000000000000000 ) ) ;
#110 = EDGE_CURVE ( 'NONE', #124, #186, #232, .T. ) ;
#111 = DIRECTION ( 'NONE',  ( -0.000000000000000000, -0.000000000000000000, -1.000000000000000000 ) ) ;
#112 = ORGANIZATION ( 'NEURÈENÝ', 'NEURÈENÝ', '' ) ;
#113 = CC_DESIGN_PERSON_AND_ORGANIZATION_ASSIGNMENT ( #47, #44, ( #214 ) ) ;
#114 = CARTESIAN_POINT ( 'NONE',  ( 4.000000000000000000, 4.898587196589412829E-16, 5.500000000000005329 ) ) ;
#115 = PLANE ( 'NONE',  #19 ) ;
#116 = ORIENTED_EDGE ( 'NONE', *, *, #196, .T. ) ;
#117 = SHAPE_DEFINITION_REPRESENTATION ( #146, #375 ) ;
#118 = ORIENTED_EDGE ( 'NONE', *, *, #159, .T. ) ;
#119 = APPLICATION_PROTOCOL_DEFINITION ( 'international standard', 'config_control_design', 1994, #251 ) ;
#120 = ORIENTED_EDGE ( 'NONE', *, *, #299, .T. ) ;
#121 = CIRCLE ( 'NONE', #72, 4.000000000000000000 ) ;
#122 = EDGE_LOOP ( 'NONE', ( #168, #93 ) ) ;
#123 = COORDINATED_UNIVERSAL_TIME_OFFSET ( 1, 0, .AHEAD. ) ;
#124 = VERTEX_POINT ( 'NONE', #158 ) ;
#125 = APPROVAL_ROLE ( '' ) ;
#126 = DIRECTION ( 'NONE',  ( -0.000000000000000000, -0.000000000000000000, -1.000000000000000000 ) ) ;
#127 = AXIS2_PLACEMENT_3D ( 'NONE', #323, #206, #352 ) ;
#128 = DIRECTION ( 'NONE',  ( 0.000000000000000000, 0.000000000000000000, 1.000000000000000000 ) ) ;
#129 = DIRECTION ( 'NONE',  ( -1.000000000000000000, 0.000000000000000000, 0.000000000000000000 ) ) ;
#130 = PERSON_AND_ORGANIZATION ( #37, #112 ) ;
#131 = DIRECTION ( 'NONE',  ( 0.000000000000000000, 0.000000000000000000, 1.000000000000000000 ) ) ;
#132 = APPROVAL_STATUS ( 'not_yet_approved' ) ;
#133 = DIRECTION ( 'NONE',  ( 0.000000000000000000, 0.000000000000000000, 1.000000000000000000 ) ) ;
#134 = CC_DESIGN_APPROVAL ( #198, ( #214 ) ) ;
#135 = CALENDAR_DATE ( 2022, 8, 7 ) ;
#136 = CARTESIAN_POINT ( 'NONE',  ( 0.000000000000000000, 0.000000000000000000, 230.0000000000000000 ) ) ;
#137 = CARTESIAN_POINT ( 'NONE',  ( 4.500000000000000888, 0.000000000000000000, 5.500000000000005329 ) ) ;
#138 = CC_DESIGN_PERSON_AND_ORGANIZATION_ASSIGNMENT ( #10, #274, ( #141 ) ) ;
#139 = DIRECTION ( 'NONE',  ( 1.000000000000000000, 0.000000000000000000, 0.000000000000000000 ) ) ;
#140 = EDGE_LOOP ( 'NONE', ( #381, #217 ) ) ;
#141 = PRODUCT ( 'cd4f', 'cd4f', '', ( #178 ) ) ;
#142 = CARTESIAN_POINT ( 'NONE',  ( 0.000000000000000000, 0.000000000000000000, 230.0000000000000000 ) ) ;
#143 = DIRECTION ( 'NONE',  ( 0.000000000000000000, -1.000000000000000000, 0.000000000000000000 ) ) ;
#144 = ORIENTED_EDGE ( 'NONE', *, *, #165, .F. ) ;
#145 = TOROIDAL_SURFACE ( 'NONE', #356, 4.500000000000000888, 0.5000000000000000000 ) ;
#146 = PRODUCT_DEFINITION_SHAPE ( 'NONE', 'NONE',  #91 ) ;
#147 = EDGE_CURVE ( 'NONE', #148, #150, #225, .T. ) ;
#148 = VERTEX_POINT ( 'NONE', #50 ) ;
#149 = CARTESIAN_POINT ( 'NONE',  ( 0.000000000000000000, 0.000000000000000000, 0.000000000000000000 ) ) ;
#150 = VERTEX_POINT ( 'NONE', #290 ) ;
#151 = ORIENTED_EDGE ( 'NONE', *, *, #284, .F. ) ;
#152 = AXIS2_PLACEMENT_3D ( 'NONE', #142, #357, #96 ) ;
#153 = APPROVAL_STATUS ( 'not_yet_approved' ) ;
#154 = ORIENTED_EDGE ( 'NONE', *, *, #212, .T. ) ;
#155 = PERSON_AND_ORGANIZATION ( #37, #112 ) ;
#156 = ADVANCED_FACE ( 'NONE', ( #105 ), #219, .T. ) ;
#157 = COORDINATED_UNIVERSAL_TIME_OFFSET ( 1, 0, .AHEAD. ) ;
#158 = CARTESIAN_POINT ( 'NONE',  ( -4.000000000000000000, 0.000000000000000000, 230.0000000000000000 ) ) ;
#159 = EDGE_CURVE ( 'NONE', #150, #148, #185, .T. ) ;
#160 = DIRECTION ( 'NONE',  ( 1.000000000000000000, 0.000000000000000000, 0.000000000000000000 ) ) ;
#161 = APPROVAL_PERSON_ORGANIZATION ( #244, #26, #106 ) ;
#162 = DIRECTION ( 'NONE',  ( 1.000000000000000000, 0.000000000000000000, 0.000000000000000000 ) ) ;
#163 = DIRECTION ( 'NONE',  ( -0.000000000000000000, -0.000000000000000000, -1.000000000000000000 ) ) ;
#164 = DIRECTION ( 'NONE',  ( 0.000000000000000000, 0.000000000000000000, -1.000000000000000000 ) ) ;
#165 = EDGE_CURVE ( 'NONE', #355, #69, #277, .T. ) ;
#166 = SECURITY_CLASSIFICATION ( '', '', #100 ) ;
#167 = DIRECTION ( 'NONE',  ( 0.000000000000000000, 0.000000000000000000, 1.000000000000000000 ) ) ;
#168 = ORIENTED_EDGE ( 'NONE', *, *, #49, .T. ) ;
#169 = MANIFOLD_SOLID_BREP ( 'Odebrat vysunutím3', #253 ) ;
#170 = AXIS2_PLACEMENT_3D ( 'NONE', #370, #78, #73 ) ;
#171 = DIRECTION ( 'NONE',  ( 0.000000000000000000, 0.000000000000000000, 1.000000000000000000 ) ) ;
#172 = CYLINDRICAL_SURFACE ( 'NONE', #152, 2.000000000000000000 ) ;
#173 = AXIS2_PLACEMENT_3D ( 'NONE', #235, #300, #1 ) ;
#174 = DATE_AND_TIME ( #135, #200 ) ;
#175 = DIRECTION ( 'NONE',  ( 1.000000000000000000, 0.000000000000000000, -0.000000000000000000 ) ) ;
#176 = ORIENTED_EDGE ( 'NONE', *, *, #327, .F. ) ;
#177 = ORIENTED_EDGE ( 'NONE', *, *, #147, .F. ) ;
#178 = MECHANICAL_CONTEXT ( 'NONE', #215, 'mechanical' ) ;
#179 = ORIENTED_EDGE ( 'NONE', *, *, #350, .F. ) ;
#180 = AXIS2_PLACEMENT_3D ( 'NONE', #52, #163, #289 ) ;
#181 = EDGE_CURVE ( 'NONE', #268, #97, #297, .T. ) ;
#182 = DIRECTION ( 'NONE',  ( -0.000000000000000000, -0.000000000000000000, -1.000000000000000000 ) ) ;
#183 = APPLICATION_PROTOCOL_DEFINITION ( 'international standard', 'config_control_design', 1994, #215 ) ;
#184 = ORIENTED_EDGE ( 'NONE', *, *, #284, .T. ) ;
#185 = CIRCLE ( 'NONE', #218, 4.500000000000000888 ) ;
#186 = VERTEX_POINT ( 'NONE', #310 ) ;
#187 = AXIS2_PLACEMENT_3D ( 'NONE', #136, #292, #86 ) ;
#188 = APPROVAL_DATE_TIME ( #71, #198 ) ;
#189 = DIRECTION ( 'NONE',  ( 1.000000000000000000, 0.000000000000000000, 0.000000000000000000 ) ) ;
#190 = FACE_OUTER_BOUND ( 'NONE', #362, .T. ) ;
#191 = DATE_AND_TIME ( #223, #2 ) ;
#192 = DIRECTION ( 'NONE',  ( -0.000000000000000000, -0.000000000000000000, -1.000000000000000000 ) ) ;
#193 = AXIS2_PLACEMENT_3D ( 'NONE', #221, #228, #129 ) ;
#194 = DIRECTION ( 'NONE',  ( 1.000000000000000000, 0.000000000000000000, 0.000000000000000000 ) ) ;
#195 = CARTESIAN_POINT ( 'NONE',  ( 0.000000000000000000, 0.000000000000000000, 0.000000000000000000 ) ) ;
#196 = EDGE_CURVE ( 'NONE', #3, #69, #48, .T. ) ;
#197 = CARTESIAN_POINT ( 'NONE',  ( -2.000000000000000000, 0.000000000000000000, 230.0000000000000000 ) ) ;
#198 = APPROVAL ( #259, 'NEURÈENÝ' ) ;
#199 = FACE_OUTER_BOUND ( 'NONE', #34, .T. ) ;
#200 = LOCAL_TIME ( 17, 31, 35.00000000000000000, #92 ) ;
#201 = VERTEX_POINT ( 'NONE', #368 ) ;
#202 = EDGE_CURVE ( 'NONE', #124, #43, #288, .T. ) ;
#203 = DIRECTION ( 'NONE',  ( 0.000000000000000000, 0.000000000000000000, 1.000000000000000000 ) ) ;
#204 = AXIS2_PLACEMENT_3D ( 'NONE', #345, #133, #194 ) ;
#205 = FACE_BOUND ( 'NONE', #140, .T. ) ;
#206 = DIRECTION ( 'NONE',  ( 0.000000000000000000, 0.000000000000000000, 1.000000000000000000 ) ) ;
#207 = LOCAL_TIME ( 17, 31, 35.00000000000000000, #157 ) ;
#208 = ORIENTED_EDGE ( 'NONE', *, *, #165, .T. ) ;
#209 = APPROVAL_DATE_TIME ( #174, #15 ) ;
#210 = CIRCLE ( 'NONE', #245, 4.000000000000000000 ) ;
#211 = ORIENTED_EDGE ( 'NONE', *, *, #237, .T. ) ;
#212 = EDGE_CURVE ( 'NONE', #97, #268, #25, .T. ) ;
#213 = CARTESIAN_POINT ( 'NONE',  ( -7.000000000000000000, 0.000000000000000000, 5.000000000000000000 ) ) ;
#214 = PRODUCT_DEFINITION_FORMATION_WITH_SPECIFIED_SOURCE ( 'LIBOVOLNÝ', '', #141, .NOT_KNOWN. ) ;
#215 = APPLICATION_CONTEXT ( 'configuration controlled 3d designs of mechanical parts and assemblies' ) ;
#216 = EDGE_LOOP ( 'NONE', ( #179, #144 ) ) ;
#217 = ORIENTED_EDGE ( 'NONE', *, *, #212, .F. ) ;
#218 = AXIS2_PLACEMENT_3D ( 'NONE', #260, #192, #162 ) ;
#219 = CYLINDRICAL_SURFACE ( 'NONE', #23, 4.000000000000000000 ) ;
#220 = CIRCLE ( 'NONE', #236, 4.000000000000000000 ) ;
#221 = CARTESIAN_POINT ( 'NONE',  ( 0.000000000000000000, 0.000000000000000000, 5.000000000000000000 ) ) ;
#222 = ADVANCED_FACE ( 'NONE', ( #103 ), #342, .T. ) ;
#223 = CALENDAR_DATE ( 2022, 8, 7 ) ;
#224 = CARTESIAN_POINT ( 'NONE',  ( 0.000000000000000000, 0.000000000000000000, 230.0000000000000000 ) ) ;
#225 = CIRCLE ( 'NONE', #282, 4.500000000000000888 ) ;
#226 = PERSON_AND_ORGANIZATION_ROLE ( 'classification_officer' ) ;
#227 = PRODUCT_RELATED_PRODUCT_CATEGORY ( 'detail', '', ( #141 ) ) ;
#228 = DIRECTION ( 'NONE',  ( -0.000000000000000000, -0.000000000000000000, -1.000000000000000000 ) ) ;
#229 = DIRECTION ( 'NONE',  ( 0.000000000000000000, 0.000000000000000000, 1.000000000000000000 ) ) ;
#230 = CARTESIAN_POINT ( 'NONE',  ( -2.000000000000000000, 0.000000000000000000, 0.000000000000000000 ) ) ;
#231 = ADVANCED_FACE ( 'NONE', ( #190 ), #372, .T. ) ;
#232 = CIRCLE ( 'NONE', #170, 4.000000000000000000 ) ;
#233 = PLANE ( 'NONE',  #266 ) ;
#234 = EDGE_CURVE ( 'NONE', #43, #366, #121, .T. ) ;
#235 = CARTESIAN_POINT ( 'NONE',  ( -4.500000000000000888, 5.510910596163089556E-16, 5.500000000000005329 ) ) ;
#236 = AXIS2_PLACEMENT_3D ( 'NONE', #374, #171, #238 ) ;
#237 = EDGE_CURVE ( 'NONE', #201, #355, #83, .T. ) ;
#238 = DIRECTION ( 'NONE',  ( 1.000000000000000000, 0.000000000000000000, 0.000000000000000000 ) ) ;
#239 = ORIENTED_EDGE ( 'NONE', *, *, #74, .F. ) ;
#240 = FACE_BOUND ( 'NONE', #250, .T. ) ;
#241 = CIRCLE ( 'NONE', #346, 2.000000000000000000 ) ;
#242 = ORIENTED_EDGE ( 'NONE', *, *, #237, .F. ) ;
#243 = EDGE_CURVE ( 'NONE', #359, #46, #241, .T. ) ;
#244 = PERSON_AND_ORGANIZATION ( #37, #112 ) ;
#245 = AXIS2_PLACEMENT_3D ( 'NONE', #373, #131, #160 ) ;
#246 = ORIENTED_EDGE ( 'NONE', *, *, #258, .T. ) ;
#247 = UNCERTAINTY_MEASURE_WITH_UNIT (LENGTH_MEASURE( 1.000000000000000082E-05 ), #271, 'distance_accuracy_value', 'NONE');
#248 = ORIENTED_EDGE ( 'NONE', *, *, #234, .T. ) ;
#249 = DIRECTION ( 'NONE',  ( 0.000000000000000000, 0.000000000000000000, 1.000000000000000000 ) ) ;
#250 = EDGE_LOOP ( 'NONE', ( #118, #252 ) ) ;
#251 = APPLICATION_CONTEXT ( 'configuration controlled 3d designs of mechanical parts and assemblies' ) ;
#252 = ORIENTED_EDGE ( 'NONE', *, *, #147, .T. ) ;
#253 = CLOSED_SHELL ( 'NONE', ( #369, #293, #231, #18, #222, #321, #365, #156, #305, #39, #363 ) ) ;
#254 = CALENDAR_DATE ( 2022, 8, 7 ) ;
#255 = DIRECTION ( 'NONE',  ( 1.000000000000000000, 0.000000000000000000, 0.000000000000000000 ) ) ;
#256 = CIRCLE ( 'NONE', #173, 0.5000000000000004441 ) ;
#257 = CARTESIAN_POINT ( 'NONE',  ( -4.000000000000000000, 0.000000000000000000, 5.500000000000005329 ) ) ;
#258 = EDGE_CURVE ( 'NONE', #43, #148, #256, .T. ) ;
#259 = APPROVAL_STATUS ( 'not_yet_approved' ) ;
#260 = CARTESIAN_POINT ( 'NONE',  ( 0.000000000000000000, 0.000000000000000000, 5.000000000000000000 ) ) ;
#261 = DIRECTION ( 'NONE',  ( 1.000000000000000000, 0.000000000000000000, 0.000000000000000000 ) ) ;
#262 = DIRECTION ( 'NONE',  ( 1.000000000000000000, 0.000000000000000000, 0.000000000000000000 ) ) ;
#263 = CARTESIAN_POINT ( 'NONE',  ( 0.000000000000000000, 0.000000000000000000, 0.000000000000000000 ) ) ;
#264 = VECTOR ( 'NONE', #164, 1000.000000000000000 ) ;
#265 = DIRECTION ( 'NONE',  ( 0.000000000000000000, 0.000000000000000000, -1.000000000000000000 ) ) ;
#266 = AXIS2_PLACEMENT_3D ( 'NONE', #378, #87, #175 ) ;
#267 = DIRECTION ( 'NONE',  ( 1.000000000000000000, 0.000000000000000000, -0.000000000000000000 ) ) ;
#268 = VERTEX_POINT ( 'NONE', #197 ) ;
#269 = DIRECTION ( 'NONE',  ( -0.000000000000000000, -0.000000000000000000, -1.000000000000000000 ) ) ;
#270 = CC_DESIGN_DATE_AND_TIME_ASSIGNMENT ( #336, #343, ( #91 ) ) ;
#271 =( LENGTH_UNIT ( ) NAMED_UNIT ( * ) SI_UNIT ( .MILLI., .METRE. ) );
#272 = CIRCLE ( 'NONE', #313, 2.000000000000000000 ) ;
#273 = ORIENTED_EDGE ( 'NONE', *, *, #49, .F. ) ;
#274 = PERSON_AND_ORGANIZATION_ROLE ( 'design_owner' ) ;
#275 = ORIENTED_EDGE ( 'NONE', *, *, #159, .F. ) ;
#276 = DIRECTION ( 'NONE',  ( -1.000000000000000000, 0.000000000000000000, 0.000000000000000000 ) ) ;
#277 = CIRCLE ( 'NONE', #66, 7.000000000000000000 ) ;
#278 = EDGE_LOOP ( 'NONE', ( #280, #176, #120, #177 ) ) ;
#279 = AXIS2_PLACEMENT_3D ( 'NONE', #349, #354, #84 ) ;
#280 = ORIENTED_EDGE ( 'NONE', *, *, #258, .F. ) ;
#281 = DIRECTION ( 'NONE',  ( -1.000000000000000000, 0.000000000000000000, 0.000000000000000000 ) ) ;
#282 = AXIS2_PLACEMENT_3D ( 'NONE', #80, #51, #255 ) ;
#283 = PERSON_AND_ORGANIZATION_ROLE ( 'creator' ) ;
#284 = EDGE_CURVE ( 'NONE', #268, #359, #318, .T. ) ;
#285 = DIRECTION ( 'NONE',  ( -0.000000000000000000, -0.000000000000000000, -1.000000000000000000 ) ) ;
#286 = CC_DESIGN_DATE_AND_TIME_ASSIGNMENT ( #191, #104, ( #166 ) ) ;
#287 = APPROVAL_DATE_TIME ( #13, #26 ) ;
#288 = LINE ( 'NONE', #21, #101 ) ;
#289 = DIRECTION ( 'NONE',  ( -1.000000000000000000, 0.000000000000000000, 0.000000000000000000 ) ) ;
#290 = CARTESIAN_POINT ( 'NONE',  ( 4.500000000000000888, 0.000000000000000000, 5.000000000000002665 ) ) ;
#291 = CC_DESIGN_PERSON_AND_ORGANIZATION_ASSIGNMENT ( #155, #367, ( #214 ) ) ;
#292 = DIRECTION ( 'NONE',  ( 0.000000000000000000, 0.000000000000000000, -1.000000000000000000 ) ) ;
#293 = ADVANCED_FACE ( 'NONE', ( #57 ), #145, .F. ) ;
#294 = CARTESIAN_POINT ( 'NONE',  ( 0.000000000000000000, 0.000000000000000000, 0.000000000000000000 ) ) ;
#295 = ORIENTED_EDGE ( 'NONE', *, *, #327, .T. ) ;
#296 = CYLINDRICAL_SURFACE ( 'NONE', #187, 2.000000000000000000 ) ;
#297 = CIRCLE ( 'NONE', #32, 2.000000000000000000 ) ;
#298 = CARTESIAN_POINT ( 'NONE',  ( -2.000000000000000000, 0.000000000000000000, 230.0000000000000000 ) ) ;
#299 = EDGE_CURVE ( 'NONE', #366, #150, #303, .T. ) ;
#300 = DIRECTION ( 'NONE',  ( 1.224646799147353207E-16, 1.000000000000000000, -0.000000000000000000 ) ) ;
#301 = AXIS2_PLACEMENT_3D ( 'NONE', #16, #311, #261 ) ;
#302 = ORIENTED_EDGE ( 'NONE', *, *, #350, .T. ) ;
#303 = CIRCLE ( 'NONE', #81, 0.5000000000000004441 ) ;
#304 = ORIENTED_EDGE ( 'NONE', *, *, #67, .F. ) ;
#305 = ADVANCED_FACE ( 'NONE', ( #205, #35 ), #233, .T. ) ;
#306 = ORIENTED_EDGE ( 'NONE', *, *, #110, .F. ) ;
#307 = EDGE_LOOP ( 'NONE', ( #335, #41 ) ) ;
#308 = ORIENTED_EDGE ( 'NONE', *, *, #316, .F. ) ;
#309 = APPROVAL_PERSON_ORGANIZATION ( #130, #198, #125 ) ;
#310 = CARTESIAN_POINT ( 'NONE',  ( 4.000000000000000000, 4.898587196589412829E-16, 230.0000000000000000 ) ) ;
#311 = DIRECTION ( 'NONE',  ( 0.000000000000000000, 0.000000000000000000, 1.000000000000000000 ) ) ;
#312 = LINE ( 'NONE', #82, #42 ) ;
#313 = AXIS2_PLACEMENT_3D ( 'NONE', #294, #62, #108 ) ;
#314 = COORDINATED_UNIVERSAL_TIME_OFFSET ( 1, 0, .AHEAD. ) ;
#315 = DIRECTION ( 'NONE',  ( 0.000000000000000000, 0.000000000000000000, 1.000000000000000000 ) ) ;
#316 = EDGE_CURVE ( 'NONE', #201, #3, #9, .T. ) ;
#317 = LINE ( 'NONE', #53, #264 ) ;
#318 = LINE ( 'NONE', #298, #85 ) ;
#319 = AXIS2_PLACEMENT_3D ( 'NONE', #149, #249, #12 ) ;
#320 = FACE_BOUND ( 'NONE', #307, .T. ) ;
#321 = ADVANCED_FACE ( 'NONE', ( #240, #380 ), #115, .T. ) ;
#322 = DIRECTION ( 'NONE',  ( 0.000000000000000000, 0.000000000000000000, -1.000000000000000000 ) ) ;
#323 = CARTESIAN_POINT ( 'NONE',  ( 0.000000000000000000, 0.000000000000000000, 0.000000000000000000 ) ) ;
#324 = AXIS2_PLACEMENT_3D ( 'NONE', #263, #28, #267 ) ;
#325 = CARTESIAN_POINT ( 'NONE',  ( 0.000000000000000000, 0.000000000000000000, 5.000000000000000000 ) ) ;
#326 = ORIENTED_EDGE ( 'NONE', *, *, #67, .T. ) ;
#327 = EDGE_CURVE ( 'NONE', #366, #43, #220, .T. ) ;
#328 = ORIENTED_EDGE ( 'NONE', *, *, #110, .T. ) ;
#329 = ORIENTED_EDGE ( 'NONE', *, *, #234, .F. ) ;
#330 = CIRCLE ( 'NONE', #127, 7.000000000000000000 ) ;
#331 = CC_DESIGN_SECURITY_CLASSIFICATION ( #166, ( #214 ) ) ;
#332 = FACE_OUTER_BOUND ( 'NONE', #14, .T. ) ;
#333 = CARTESIAN_POINT ( 'NONE',  ( 0.000000000000000000, 0.000000000000000000, 5.000000000000000000 ) ) ;
#334 = COORDINATED_UNIVERSAL_TIME_OFFSET ( 1, 0, .AHEAD. ) ;
#335 = ORIENTED_EDGE ( 'NONE', *, *, #243, .F. ) ;
#336 = DATE_AND_TIME ( #98, #379 ) ;
#337 = CARTESIAN_POINT ( 'NONE',  ( 0.000000000000000000, 0.000000000000000000, 230.0000000000000000 ) ) ;
#338 = LOCAL_TIME ( 17, 31, 35.00000000000000000, #334 ) ;
#339 = CC_DESIGN_PERSON_AND_ORGANIZATION_ASSIGNMENT ( #20, #283, ( #91 ) ) ;
#340 = CALENDAR_DATE ( 2022, 8, 7 ) ;
#341 = CARTESIAN_POINT ( 'NONE',  ( 2.000000000000000000, 2.449293598294706414E-16, 0.000000000000000000 ) ) ;
#342 = CYLINDRICAL_SURFACE ( 'NONE', #193, 7.000000000000000000 ) ;
#343 = DATE_TIME_ROLE ( 'creation_date' ) ;
#344 = EDGE_CURVE ( 'NONE', #46, #359, #272, .T. ) ;
#345 = CARTESIAN_POINT ( 'NONE',  ( 0.000000000000000000, 0.000000000000000000, 5.000000000000000000 ) ) ;
#346 = AXIS2_PLACEMENT_3D ( 'NONE', #109, #111, #88 ) ;
#347 = CARTESIAN_POINT ( 'NONE',  ( -7.000000000000000000, 0.000000000000000000, 5.000000000000000000 ) ) ;
#348 = DIRECTION ( 'NONE',  ( 1.000000000000000000, 0.000000000000000000, 0.000000000000000000 ) ) ;
#349 = CARTESIAN_POINT ( 'NONE',  ( 0.000000000000000000, 0.000000000000000000, 5.000000000000000000 ) ) ;
#350 = EDGE_CURVE ( 'NONE', #69, #355, #330, .T. ) ;
#351 = VECTOR ( 'NONE', #126, 1000.000000000000000 ) ;
#352 = DIRECTION ( 'NONE',  ( 1.000000000000000000, 0.000000000000000000, 0.000000000000000000 ) ) ;
#353 = CARTESIAN_POINT ( 'NONE',  ( 7.000000000000000000, 8.572527594031473190E-16, 0.000000000000000000 ) ) ;
#354 = DIRECTION ( 'NONE',  ( 0.000000000000000000, 0.000000000000000000, 1.000000000000000000 ) ) ;
#355 = VERTEX_POINT ( 'NONE', #353 ) ;
#356 = AXIS2_PLACEMENT_3D ( 'NONE', #33, #167, #139 ) ;
#357 = DIRECTION ( 'NONE',  ( 0.000000000000000000, 0.000000000000000000, -1.000000000000000000 ) ) ;
#358 = CC_DESIGN_PERSON_AND_ORGANIZATION_ASSIGNMENT ( #371, #226, ( #166 ) ) ;
#359 = VERTEX_POINT ( 'NONE', #230 ) ;
#360 =( NAMED_UNIT ( * ) SI_UNIT ( $, .STERADIAN. ) SOLID_ANGLE_UNIT ( ) );
#361 = ORIENTED_EDGE ( 'NONE', *, *, #243, .T. ) ;
#362 = EDGE_LOOP ( 'NONE', ( #239, #11, #295, #377 ) ) ;
#363 = ADVANCED_FACE ( 'NONE', ( #199 ), #296, .F. ) ;
#364 = EDGE_LOOP ( 'NONE', ( #89, #306, #94, #248 ) ) ;
#365 = ADVANCED_FACE ( 'NONE', ( #320, #27 ), #31, .F. ) ;
#366 = VERTEX_POINT ( 'NONE', #114 ) ;
#367 = PERSON_AND_ORGANIZATION_ROLE ( 'design_supplier' ) ;
#368 = CARTESIAN_POINT ( 'NONE',  ( 7.000000000000000000, 8.572527594031473190E-16, 5.000000000000000000 ) ) ;
#369 = ADVANCED_FACE ( 'NONE', ( #59 ), #172, .F. ) ;
#370 = CARTESIAN_POINT ( 'NONE',  ( 0.000000000000000000, 0.000000000000000000, 230.0000000000000000 ) ) ;
#371 = PERSON_AND_ORGANIZATION ( #37, #112 ) ;
#372 = CYLINDRICAL_SURFACE ( 'NONE', #180, 4.000000000000000000 ) ;
#373 = CARTESIAN_POINT ( 'NONE',  ( 0.000000000000000000, 0.000000000000000000, 230.0000000000000000 ) ) ;
#374 = CARTESIAN_POINT ( 'NONE',  ( 0.000000000000000000, 0.000000000000000000, 5.500000000000005329 ) ) ;
#375 = ADVANCED_BREP_SHAPE_REPRESENTATION ( 'cd4f', ( #169, #319 ), #65 ) ;
#376 = DIRECTION ( 'NONE',  ( 0.000000000000000000, 0.000000000000000000, 1.000000000000000000 ) ) ;
#377 = ORIENTED_EDGE ( 'NONE', *, *, #202, .F. ) ;
#378 = CARTESIAN_POINT ( 'NONE',  ( 0.000000000000000000, 0.000000000000000000, 230.0000000000000000 ) ) ;
#379 = LOCAL_TIME ( 17, 31, 35.00000000000000000, #123 ) ;
#380 = FACE_OUTER_BOUND ( 'NONE', #122, .T. ) ;
#381 = ORIENTED_EDGE ( 'NONE', *, *, #181, .F. ) ;
ENDSEC;
END-ISO-10303-21;
