ISO-10303-21;
HEADER;
FILE_DESCRIPTION (( 'STEP AP203' ),
    '1' );
FILE_NAME ('b3c8.STEP',
    '2022-07-08T14:38:26',
    ( '' ),
    ( '' ),
    'SwSTEP 2.0',
    'SolidWorks 2019',
    '' );
FILE_SCHEMA (( 'CONFIG_CONTROL_DESIGN' ));
ENDSEC;

DATA;
#1 = CIRCLE ( 'NONE', #97, 6.000000000000000888 ) ;
#2 = ORIENTED_EDGE ( 'NONE', *, *, #52, .F. ) ;
#3 = AXIS2_PLACEMENT_3D ( 'NONE', #361, #185, #42 ) ;
#4 = LOCAL_TIME ( 16, 38, 26.00000000000000000, #200 ) ;
#5 = ORIENTED_EDGE ( 'NONE', *, *, #188, .F. ) ;
#6 = VERTEX_POINT ( 'NONE', #134 ) ;
#7 = PRODUCT_DEFINITION ( 'NEZNÁMÝ', '', #192, #340 ) ;
#8 = DIRECTION ( 'NONE',  ( 1.000000000000000000, 0.000000000000000000, 0.000000000000000000 ) ) ;
#9 = EDGE_CURVE ( 'NONE', #209, #94, #229, .T. ) ;
#10 = EDGE_LOOP ( 'NONE', ( #350, #5 ) ) ;
#11 = CARTESIAN_POINT ( 'NONE',  ( -6.700000000000001066, 8.205133554287267548E-16, 7.000000000000006217 ) ) ;
#12 = CIRCLE ( 'NONE', #113, 4.000000000000000000 ) ;
#13 = ORIENTED_EDGE ( 'NONE', *, *, #225, .T. ) ;
#14 = CARTESIAN_POINT ( 'NONE',  ( 4.000000000000000000, 4.898587196589412829E-16, 257.0000000000000000 ) ) ;
#15 = DIRECTION ( 'NONE',  ( 1.000000000000000000, 0.000000000000000000, 0.000000000000000000 ) ) ;
#16 = CYLINDRICAL_SURFACE ( 'NONE', #287, 10.00000000000000000 ) ;
#17 = FACE_OUTER_BOUND ( 'NONE', #72, .T. ) ;
#18 = DIRECTION ( 'NONE',  ( 0.000000000000000000, 0.000000000000000000, 1.000000000000000000 ) ) ;
#19 = DIRECTION ( 'NONE',  ( 1.000000000000000000, 0.000000000000000000, 0.000000000000000000 ) ) ;
#20 = DIRECTION ( 'NONE',  ( 1.000000000000000000, 0.000000000000000000, 0.000000000000000000 ) ) ;
#21 = PRODUCT_RELATED_PRODUCT_CATEGORY ( 'detail', '', ( #302 ) ) ;
#22 = CARTESIAN_POINT ( 'NONE',  ( -4.000000000000000000, 0.000000000000000000, 0.000000000000000000 ) ) ;
#23 = EDGE_CURVE ( 'NONE', #38, #209, #279, .T. ) ;
#24 = CARTESIAN_POINT ( 'NONE',  ( 0.000000000000000000, 0.000000000000000000, 257.0000000000000000 ) ) ;
#25 = VECTOR ( 'NONE', #83, 1000.000000000000000 ) ;
#26 = MECHANICAL_CONTEXT ( 'NONE', #299, 'mechanical' ) ;
#27 = EDGE_CURVE ( 'NONE', #6, #246, #176, .T. ) ;
#28 = CALENDAR_DATE ( 2022, 8, 7 ) ;
#29 = PERSON_AND_ORGANIZATION_ROLE ( 'creator' ) ;
#30 = APPLICATION_PROTOCOL_DEFINITION ( 'international standard', 'config_control_design', 1994, #136 ) ;
#31 = DATE_AND_TIME ( #117, #44 ) ;
#32 = EDGE_CURVE ( 'NONE', #348, #324, #301, .T. ) ;
#33 = EDGE_LOOP ( 'NONE', ( #35, #186, #121, #351 ) ) ;
#34 = VECTOR ( 'NONE', #110, 1000.000000000000000 ) ;
#35 = ORIENTED_EDGE ( 'NONE', *, *, #314, .F. ) ;
#36 = CIRCLE ( 'NONE', #275, 6.700000000000001066 ) ;
#37 = AXIS2_PLACEMENT_3D ( 'NONE', #286, #303, #112 ) ;
#38 = VERTEX_POINT ( 'NONE', #49 ) ;
#39 = EDGE_CURVE ( 'NONE', #233, #94, #66, .T. ) ;
#40 = CYLINDRICAL_SURFACE ( 'NONE', #341, 6.000000000000000888 ) ;
#41 = EDGE_LOOP ( 'NONE', ( #274, #207 ) ) ;
#42 = DIRECTION ( 'NONE',  ( 1.000000000000000000, 0.000000000000000000, 0.000000000000000000 ) ) ;
#43 = TOROIDAL_SURFACE ( 'NONE', #202, 6.700000000000001066, 0.6999999999999999556 ) ;
#44 = LOCAL_TIME ( 16, 38, 26.00000000000000000, #293 ) ;
#45 = DIRECTION ( 'NONE',  ( 1.224646799147353207E-16, 1.000000000000000000, -0.000000000000000000 ) ) ;
#46 = DIRECTION ( 'NONE',  ( -1.000000000000000000, 0.000000000000000000, 0.000000000000000000 ) ) ;
#47 = ORIENTED_EDGE ( 'NONE', *, *, #237, .F. ) ;
#48 = CARTESIAN_POINT ( 'NONE',  ( 0.000000000000000000, 0.000000000000000000, 7.000000000000000000 ) ) ;
#49 = CARTESIAN_POINT ( 'NONE',  ( -6.000000000000000888, 0.000000000000000000, 7.700000000000012612 ) ) ;
#50 = DIRECTION ( 'NONE',  ( 0.000000000000000000, 0.000000000000000000, 1.000000000000000000 ) ) ;
#51 = CARTESIAN_POINT ( 'NONE',  ( 0.000000000000000000, 0.000000000000000000, 257.0000000000000000 ) ) ;
#52 = EDGE_CURVE ( 'NONE', #272, #324, #163, .T. ) ;
#53 = APPROVAL ( #205, 'NEURÈENÝ' ) ;
#54 = UNCERTAINTY_MEASURE_WITH_UNIT (LENGTH_MEASURE( 1.000000000000000082E-05 ), #85, 'distance_accuracy_value', 'NONE');
#55 = DATE_AND_TIME ( #235, #86 ) ;
#56 = AXIS2_PLACEMENT_3D ( 'NONE', #164, #50, #259 ) ;
#57 =( NAMED_UNIT ( * ) PLANE_ANGLE_UNIT ( ) SI_UNIT ( $, .RADIAN. ) );
#58 = ORIENTED_EDGE ( 'NONE', *, *, #327, .T. ) ;
#59 = DIRECTION ( 'NONE',  ( 0.000000000000000000, 0.000000000000000000, 1.000000000000000000 ) ) ;
#60 = CIRCLE ( 'NONE', #56, 4.000000000000000000 ) ;
#61 = CARTESIAN_POINT ( 'NONE',  ( 0.000000000000000000, 0.000000000000000000, 0.000000000000000000 ) ) ;
#62 = CC_DESIGN_PERSON_AND_ORGANIZATION_ASSIGNMENT ( #230, #263, ( #192 ) ) ;
#63 = ORIENTED_EDGE ( 'NONE', *, *, #225, .F. ) ;
#64 = CARTESIAN_POINT ( 'NONE',  ( 0.000000000000000000, 0.000000000000000000, 7.700000000000012612 ) ) ;
#65 = ORIENTED_EDGE ( 'NONE', *, *, #373, .T. ) ;
#66 = CIRCLE ( 'NONE', #116, 0.7000000000000000666 ) ;
#67 = CC_DESIGN_PERSON_AND_ORGANIZATION_ASSIGNMENT ( #180, #381, ( #302 ) ) ;
#68 = ORIENTED_EDGE ( 'NONE', *, *, #52, .T. ) ;
#69 = MANIFOLD_SOLID_BREP ( 'Odebrat vysunutím3', #127 ) ;
#70 = CARTESIAN_POINT ( 'NONE',  ( 0.000000000000000000, 0.000000000000000000, 257.0000000000000000 ) ) ;
#71 = LINE ( 'NONE', #189, #367 ) ;
#72 = EDGE_LOOP ( 'NONE', ( #96, #155, #295, #331 ) ) ;
#73 = CALENDAR_DATE ( 2022, 8, 7 ) ;
#74 = DIRECTION ( 'NONE',  ( -0.000000000000000000, -0.000000000000000000, -1.000000000000000000 ) ) ;
#75 = CARTESIAN_POINT ( 'NONE',  ( -6.700000000000001066, 8.205133554287267548E-16, 7.700000000000012612 ) ) ;
#76 = DIRECTION ( 'NONE',  ( 1.000000000000000000, 0.000000000000000000, 0.000000000000000000 ) ) ;
#77 = DIRECTION ( 'NONE',  ( 1.000000000000000000, 0.000000000000000000, 0.000000000000000000 ) ) ;
#78 = DIRECTION ( 'NONE',  ( -0.000000000000000000, -0.000000000000000000, -1.000000000000000000 ) ) ;
#79 = DIRECTION ( 'NONE',  ( -0.000000000000000000, -0.000000000000000000, -1.000000000000000000 ) ) ;
#80 = CARTESIAN_POINT ( 'NONE',  ( 10.00000000000000000, 1.224646799147353256E-15, 7.000000000000000000 ) ) ;
#81 = CARTESIAN_POINT ( 'NONE',  ( 0.000000000000000000, 0.000000000000000000, 7.000000000000000000 ) ) ;
#82 = ADVANCED_FACE ( 'NONE', ( #277 ), #16, .T. ) ;
#83 = DIRECTION ( 'NONE',  ( -0.000000000000000000, -0.000000000000000000, -1.000000000000000000 ) ) ;
#84 = CARTESIAN_POINT ( 'NONE',  ( 0.000000000000000000, 0.000000000000000000, 257.0000000000000000 ) ) ;
#85 =( LENGTH_UNIT ( ) NAMED_UNIT ( * ) SI_UNIT ( .MILLI., .METRE. ) );
#86 = LOCAL_TIME ( 16, 38, 26.00000000000000000, #290 ) ;
#87 = PERSON_AND_ORGANIZATION ( #141, #153 ) ;
#88 = EDGE_CURVE ( 'NONE', #246, #6, #280, .T. ) ;
#89 = AXIS2_PLACEMENT_3D ( 'NONE', #285, #253, #366 ) ;
#90 = PERSON_AND_ORGANIZATION_ROLE ( 'classification_officer' ) ;
#91 = ORIENTED_EDGE ( 'NONE', *, *, #119, .F. ) ;
#92 = CC_DESIGN_APPROVAL ( #300, ( #332 ) ) ;
#93 = FACE_OUTER_BOUND ( 'NONE', #216, .T. ) ;
#94 = VERTEX_POINT ( 'NONE', #193 ) ;
#95 = CARTESIAN_POINT ( 'NONE',  ( 6.000000000000000888, 7.347880794884120722E-16, 7.700000000000012612 ) ) ;
#96 = ORIENTED_EDGE ( 'NONE', *, *, #256, .F. ) ;
#97 = AXIS2_PLACEMENT_3D ( 'NONE', #369, #140, #137 ) ;
#98 = CYLINDRICAL_SURFACE ( 'NONE', #227, 4.000000000000000000 ) ;
#99 = ORIENTED_EDGE ( 'NONE', *, *, #356, .F. ) ;
#100 = CARTESIAN_POINT ( 'NONE',  ( 0.000000000000000000, 0.000000000000000000, 7.000000000000000000 ) ) ;
#101 = ORIENTED_EDGE ( 'NONE', *, *, #373, .F. ) ;
#102 = APPROVAL ( #178, 'NEURÈENÝ' ) ;
#103 = AXIS2_PLACEMENT_3D ( 'NONE', #51, #304, #15 ) ;
#104 = DIRECTION ( 'NONE',  ( 0.000000000000000000, 0.000000000000000000, 1.000000000000000000 ) ) ;
#105 = DIRECTION ( 'NONE',  ( -1.000000000000000000, 0.000000000000000000, 0.000000000000000000 ) ) ;
#106 = DIRECTION ( 'NONE',  ( 0.000000000000000000, 0.000000000000000000, -1.000000000000000000 ) ) ;
#107 = CARTESIAN_POINT ( 'NONE',  ( 0.000000000000000000, 0.000000000000000000, 7.000000000000000000 ) ) ;
#108 = CC_DESIGN_PERSON_AND_ORGANIZATION_ASSIGNMENT ( #204, #379, ( #7 ) ) ;
#109 = FACE_OUTER_BOUND ( 'NONE', #10, .T. ) ;
#110 = DIRECTION ( 'NONE',  ( 0.000000000000000000, 0.000000000000000000, -1.000000000000000000 ) ) ;
#111 = DIRECTION ( 'NONE',  ( -1.000000000000000000, 0.000000000000000000, 0.000000000000000000 ) ) ;
#112 = DIRECTION ( 'NONE',  ( 1.000000000000000000, 0.000000000000000000, -0.000000000000000000 ) ) ;
#113 = AXIS2_PLACEMENT_3D ( 'NONE', #308, #78, #145 ) ;
#114 = PERSON_AND_ORGANIZATION ( #141, #153 ) ;
#115 = COORDINATED_UNIVERSAL_TIME_OFFSET ( 1, 0, .AHEAD. ) ;
#116 = AXIS2_PLACEMENT_3D ( 'NONE', #363, #165, #278 ) ;
#117 = CALENDAR_DATE ( 2022, 8, 7 ) ;
#118 = PERSON_AND_ORGANIZATION ( #141, #153 ) ;
#119 = EDGE_CURVE ( 'NONE', #38, #233, #1, .T. ) ;
#120 = APPROVAL_ROLE ( '' ) ;
#121 = ORIENTED_EDGE ( 'NONE', *, *, #356, .T. ) ;
#122 = AXIS2_PLACEMENT_3D ( 'NONE', #48, #226, #19 ) ;
#123 = CARTESIAN_POINT ( 'NONE',  ( 0.000000000000000000, 0.000000000000000000, 257.0000000000000000 ) ) ;
#124 = ORIENTED_EDGE ( 'NONE', *, *, #39, .F. ) ;
#125 = DIRECTION ( 'NONE',  ( 0.000000000000000000, 0.000000000000000000, -1.000000000000000000 ) ) ;
#126 = EDGE_LOOP ( 'NONE', ( #380, #168, #68, #151 ) ) ;
#127 = CLOSED_SHELL ( 'NONE', ( #284, #214, #198, #82, #282, #175, #291, #360, #265, #212, #270 ) ) ;
#128 = EDGE_LOOP ( 'NONE', ( #326, #321, #177, #298 ) ) ;
#129 = CIRCLE ( 'NONE', #146, 10.00000000000000000 ) ;
#130 = AXIS2_PLACEMENT_3D ( 'NONE', #370, #104, #76 ) ;
#131 = LINE ( 'NONE', #211, #346 ) ;
#132 = FACE_OUTER_BOUND ( 'NONE', #181, .T. ) ;
#133 = EDGE_CURVE ( 'NONE', #233, #38, #245, .T. ) ;
#134 = CARTESIAN_POINT ( 'NONE',  ( -6.000000000000000888, 0.000000000000000000, 257.0000000000000000 ) ) ;
#135 = CARTESIAN_POINT ( 'NONE',  ( 4.000000000000000000, 4.898587196589412829E-16, 0.000000000000000000 ) ) ;
#136 = APPLICATION_CONTEXT ( 'configuration controlled 3d designs of mechanical parts and assemblies' ) ;
#137 = DIRECTION ( 'NONE',  ( 1.000000000000000000, 0.000000000000000000, 0.000000000000000000 ) ) ;
#138 = CC_DESIGN_DATE_AND_TIME_ASSIGNMENT ( #375, #349, ( #332 ) ) ;
#139 = CARTESIAN_POINT ( 'NONE',  ( 0.000000000000000000, 0.000000000000000000, 7.000000000000000000 ) ) ;
#140 = DIRECTION ( 'NONE',  ( 0.000000000000000000, 0.000000000000000000, 1.000000000000000000 ) ) ;
#141 = PERSON ( 'NEURÈENÝ', 'NEURÈENÝ', 'NEURÈENÝ', ('NEURÈENÝ'), ('NEURÈENÝ'), ('NEURÈENÝ') ) ;
#142 = LINE ( 'NONE', #252, #25 ) ;
#143 = DIRECTION ( 'NONE',  ( 0.000000000000000000, 0.000000000000000000, 1.000000000000000000 ) ) ;
#144 = CYLINDRICAL_SURFACE ( 'NONE', #179, 4.000000000000000000 ) ;
#145 = DIRECTION ( 'NONE',  ( 1.000000000000000000, 0.000000000000000000, 0.000000000000000000 ) ) ;
#146 = AXIS2_PLACEMENT_3D ( 'NONE', #281, #18, #224 ) ;
#147 = EDGE_CURVE ( 'NONE', #240, #297, #365, .T. ) ;
#148 = VECTOR ( 'NONE', #125, 1000.000000000000000 ) ;
#149 = VERTEX_POINT ( 'NONE', #335 ) ;
#150 = DIRECTION ( 'NONE',  ( 1.000000000000000000, 0.000000000000000000, 0.000000000000000000 ) ) ;
#151 = ORIENTED_EDGE ( 'NONE', *, *, #32, .F. ) ;
#152 = AXIS2_PLACEMENT_3D ( 'NONE', #107, #143, #218 ) ;
#153 = ORGANIZATION ( 'NEURÈENÝ', 'NEURÈENÝ', '' ) ;
#154 = DIRECTION ( 'NONE',  ( 0.000000000000000000, 0.000000000000000000, 1.000000000000000000 ) ) ;
#155 = ORIENTED_EDGE ( 'NONE', *, *, #147, .F. ) ;
#156 = ORIENTED_EDGE ( 'NONE', *, *, #147, .T. ) ;
#157 = CC_DESIGN_PERSON_AND_ORGANIZATION_ASSIGNMENT ( #114, #90, ( #332 ) ) ;
#158 = DIRECTION ( 'NONE',  ( 0.000000000000000000, 0.000000000000000000, 1.000000000000000000 ) ) ;
#159 = EDGE_LOOP ( 'NONE', ( #101, #2 ) ) ;
#160 = APPROVAL_PERSON_ORGANIZATION ( #310, #53, #345 ) ;
#161 = DIRECTION ( 'NONE',  ( -0.000000000000000000, -0.000000000000000000, -1.000000000000000000 ) ) ;
#162 = DIRECTION ( 'NONE',  ( 0.000000000000000000, 0.000000000000000000, 1.000000000000000000 ) ) ;
#163 = CIRCLE ( 'NONE', #376, 4.000000000000000000 ) ;
#164 = CARTESIAN_POINT ( 'NONE',  ( 0.000000000000000000, 0.000000000000000000, 257.0000000000000000 ) ) ;
#165 = DIRECTION ( 'NONE',  ( 0.000000000000000000, -1.000000000000000000, 0.000000000000000000 ) ) ;
#166 = CYLINDRICAL_SURFACE ( 'NONE', #232, 10.00000000000000000 ) ;
#167 =( GEOMETRIC_REPRESENTATION_CONTEXT ( 3 ) GLOBAL_UNCERTAINTY_ASSIGNED_CONTEXT ( ( #54 ) ) GLOBAL_UNIT_ASSIGNED_CONTEXT ( ( #85, #57, #316 ) ) REPRESENTATION_CONTEXT ( 'NONE', 'WORKASPACE' ) );
#168 = ORIENTED_EDGE ( 'NONE', *, *, #237, .T. ) ;
#169 = ADVANCED_BREP_SHAPE_REPRESENTATION ( 'b3c8', ( #69, #378 ), #167 ) ;
#170 = EDGE_CURVE ( 'NONE', #149, #354, #129, .T. ) ;
#171 = FACE_OUTER_BOUND ( 'NONE', #33, .T. ) ;
#172 = APPROVAL_ROLE ( '' ) ;
#173 = CIRCLE ( 'NONE', #3, 10.00000000000000000 ) ;
#174 = APPLICATION_PROTOCOL_DEFINITION ( 'international standard', 'config_control_design', 1994, #299 ) ;
#175 = ADVANCED_FACE ( 'NONE', ( #338, #132 ), #250, .T. ) ;
#176 = CIRCLE ( 'NONE', #103, 6.000000000000000888 ) ;
#177 = ORIENTED_EDGE ( 'NONE', *, *, #39, .T. ) ;
#178 = APPROVAL_STATUS ( 'not_yet_approved' ) ;
#179 = AXIS2_PLACEMENT_3D ( 'NONE', #24, #106, #111 ) ;
#180 = PERSON_AND_ORGANIZATION ( #141, #153 ) ;
#181 = EDGE_LOOP ( 'NONE', ( #156, #266 ) ) ;
#182 = DATE_AND_TIME ( #73, #283 ) ;
#183 = FACE_OUTER_BOUND ( 'NONE', #41, .T. ) ;
#184 = ORIENTED_EDGE ( 'NONE', *, *, #333, .F. ) ;
#185 = DIRECTION ( 'NONE',  ( 0.000000000000000000, 0.000000000000000000, 1.000000000000000000 ) ) ;
#186 = ORIENTED_EDGE ( 'NONE', *, *, #27, .F. ) ;
#187 = VERTEX_POINT ( 'NONE', #191 ) ;
#188 = EDGE_CURVE ( 'NONE', #354, #149, #173, .T. ) ;
#189 = CARTESIAN_POINT ( 'NONE',  ( 10.00000000000000000, 1.224646799147353256E-15, 7.000000000000000000 ) ) ;
#190 = ORIENTED_EDGE ( 'NONE', *, *, #314, .T. ) ;
#191 = CARTESIAN_POINT ( 'NONE',  ( 4.000000000000000000, 4.898587196589412829E-16, 257.0000000000000000 ) ) ;
#192 = PRODUCT_DEFINITION_FORMATION_WITH_SPECIFIED_SOURCE ( 'LIBOVOLNÝ', '', #302, .NOT_KNOWN. ) ;
#193 = CARTESIAN_POINT ( 'NONE',  ( 6.700000000000001066, 0.000000000000000000, 7.000000000000006217 ) ) ;
#194 = FACE_BOUND ( 'NONE', #159, .T. ) ;
#195 = CARTESIAN_POINT ( 'NONE',  ( 0.000000000000000000, 0.000000000000000000, 257.0000000000000000 ) ) ;
#196 = DIRECTION ( 'NONE',  ( 0.000000000000000000, 0.000000000000000000, 1.000000000000000000 ) ) ;
#197 = AXIS2_PLACEMENT_3D ( 'NONE', #355, #158, #150 ) ;
#198 = ADVANCED_FACE ( 'NONE', ( #217 ), #40, .T. ) ;
#199 = DIRECTION ( 'NONE',  ( -1.000000000000000000, 0.000000000000000000, 0.000000000000000000 ) ) ;
#200 = COORDINATED_UNIVERSAL_TIME_OFFSET ( 1, 0, .AHEAD. ) ;
#201 = CC_DESIGN_DATE_AND_TIME_ASSIGNMENT ( #309, #313, ( #7 ) ) ;
#202 = AXIS2_PLACEMENT_3D ( 'NONE', #64, #154, #8 ) ;
#203 = CIRCLE ( 'NONE', #122, 10.00000000000000000 ) ;
#204 = PERSON_AND_ORGANIZATION ( #141, #153 ) ;
#205 = APPROVAL_STATUS ( 'not_yet_approved' ) ;
#206 = AXIS2_PLACEMENT_3D ( 'NONE', #84, #257, #46 ) ;
#207 = ORIENTED_EDGE ( 'NONE', *, *, #88, .T. ) ;
#208 = CARTESIAN_POINT ( 'NONE',  ( 6.000000000000000888, 7.347880794884120722E-16, 257.0000000000000000 ) ) ;
#209 = VERTEX_POINT ( 'NONE', #11 ) ;
#210 = ORIENTED_EDGE ( 'NONE', *, *, #23, .T. ) ;
#211 = CARTESIAN_POINT ( 'NONE',  ( -10.00000000000000000, 0.000000000000000000, 7.000000000000000000 ) ) ;
#212 = ADVANCED_FACE ( 'NONE', ( #247 ), #221, .F. ) ;
#213 = EDGE_LOOP ( 'NONE', ( #248, #317 ) ) ;
#214 = ADVANCED_FACE ( 'NONE', ( #93 ), #43, .F. ) ;
#215 = DIRECTION ( 'NONE',  ( 1.000000000000000000, 0.000000000000000000, 0.000000000000000000 ) ) ;
#216 = EDGE_LOOP ( 'NONE', ( #91, #210, #63, #124 ) ) ;
#217 = FACE_OUTER_BOUND ( 'NONE', #296, .T. ) ;
#218 = DIRECTION ( 'NONE',  ( 1.000000000000000000, 0.000000000000000000, 0.000000000000000000 ) ) ;
#219 = CARTESIAN_POINT ( 'NONE',  ( -4.000000000000000000, 0.000000000000000000, 257.0000000000000000 ) ) ;
#220 = DIRECTION ( 'NONE',  ( -0.000000000000000000, -0.000000000000000000, -1.000000000000000000 ) ) ;
#221 = TOROIDAL_SURFACE ( 'NONE', #197, 6.700000000000001066, 0.6999999999999999556 ) ;
#222 = CC_DESIGN_SECURITY_CLASSIFICATION ( #332, ( #192 ) ) ;
#223 = DIRECTION ( 'NONE',  ( 1.000000000000000000, 0.000000000000000000, 0.000000000000000000 ) ) ;
#224 = DIRECTION ( 'NONE',  ( 1.000000000000000000, 0.000000000000000000, 0.000000000000000000 ) ) ;
#225 = EDGE_CURVE ( 'NONE', #94, #209, #36, .T. ) ;
#226 = DIRECTION ( 'NONE',  ( 0.000000000000000000, 0.000000000000000000, 1.000000000000000000 ) ) ;
#227 = AXIS2_PLACEMENT_3D ( 'NONE', #70, #334, #199 ) ;
#228 = CALENDAR_DATE ( 2022, 8, 7 ) ;
#229 = CIRCLE ( 'NONE', #337, 6.700000000000001066 ) ;
#230 = PERSON_AND_ORGANIZATION ( #141, #153 ) ;
#231 = APPROVAL_DATE_TIME ( #31, #53 ) ;
#232 = AXIS2_PLACEMENT_3D ( 'NONE', #139, #254, #368 ) ;
#233 = VERTEX_POINT ( 'NONE', #95 ) ;
#234 = SECURITY_CLASSIFICATION_LEVEL ( 'unclassified' ) ;
#235 = CALENDAR_DATE ( 2022, 8, 7 ) ;
#236 = AXIS2_PLACEMENT_3D ( 'NONE', #195, #162, #77 ) ;
#237 = EDGE_CURVE ( 'NONE', #187, #272, #325, .T. ) ;
#238 = ORIENTED_EDGE ( 'NONE', *, *, #32, .T. ) ;
#239 = AXIS2_PLACEMENT_3D ( 'NONE', #81, #196, #329 ) ;
#240 = VERTEX_POINT ( 'NONE', #320 ) ;
#241 = FACE_OUTER_BOUND ( 'NONE', #319, .T. ) ;
#242 = ORIENTED_EDGE ( 'NONE', *, *, #9, .T. ) ;
#243 = EDGE_CURVE ( 'NONE', #240, #149, #131, .T. ) ;
#244 = FACE_BOUND ( 'NONE', #213, .T. ) ;
#245 = CIRCLE ( 'NONE', #89, 6.000000000000000888 ) ;
#246 = VERTEX_POINT ( 'NONE', #208 ) ;
#247 = FACE_OUTER_BOUND ( 'NONE', #128, .T. ) ;
#248 = ORIENTED_EDGE ( 'NONE', *, *, #377, .F. ) ;
#249 = VECTOR ( 'NONE', #330, 1000.000000000000000 ) ;
#250 = PLANE ( 'NONE',  #239 ) ;
#251 = CARTESIAN_POINT ( 'NONE',  ( 0.000000000000000000, 0.000000000000000000, 7.000000000000000000 ) ) ;
#252 = CARTESIAN_POINT ( 'NONE',  ( -6.000000000000000888, 0.000000000000000000, 257.0000000000000000 ) ) ;
#253 = DIRECTION ( 'NONE',  ( 0.000000000000000000, 0.000000000000000000, 1.000000000000000000 ) ) ;
#254 = DIRECTION ( 'NONE',  ( -0.000000000000000000, -0.000000000000000000, -1.000000000000000000 ) ) ;
#255 = CARTESIAN_POINT ( 'NONE',  ( 0.000000000000000000, 0.000000000000000000, 0.000000000000000000 ) ) ;
#256 = EDGE_CURVE ( 'NONE', #297, #354, #71, .T. ) ;
#257 = DIRECTION ( 'NONE',  ( -0.000000000000000000, -0.000000000000000000, -1.000000000000000000 ) ) ;
#258 = DIRECTION ( 'NONE',  ( -0.000000000000000000, -0.000000000000000000, -1.000000000000000000 ) ) ;
#259 = DIRECTION ( 'NONE',  ( 1.000000000000000000, 0.000000000000000000, 0.000000000000000000 ) ) ;
#260 = PERSON_AND_ORGANIZATION ( #141, #153 ) ;
#261 = APPROVAL_PERSON_ORGANIZATION ( #87, #300, #172 ) ;
#262 = APPROVAL_DATE_TIME ( #55, #102 ) ;
#263 = PERSON_AND_ORGANIZATION_ROLE ( 'design_supplier' ) ;
#264 = DIRECTION ( 'NONE',  ( 1.000000000000000000, 0.000000000000000000, 0.000000000000000000 ) ) ;
#265 = ADVANCED_FACE ( 'NONE', ( #244, #183 ), #268, .T. ) ;
#266 = ORIENTED_EDGE ( 'NONE', *, *, #333, .T. ) ;
#267 = APPROVAL_DATE_TIME ( #182, #300 ) ;
#268 = PLANE ( 'NONE',  #289 ) ;
#269 = ORIENTED_EDGE ( 'NONE', *, *, #188, .T. ) ;
#270 = ADVANCED_FACE ( 'NONE', ( #241 ), #98, .F. ) ;
#271 = DIRECTION ( 'NONE',  ( 0.000000000000000000, 0.000000000000000000, 1.000000000000000000 ) ) ;
#272 = VERTEX_POINT ( 'NONE', #135 ) ;
#273 = ORIENTED_EDGE ( 'NONE', *, *, #88, .F. ) ;
#274 = ORIENTED_EDGE ( 'NONE', *, *, #27, .T. ) ;
#275 = AXIS2_PLACEMENT_3D ( 'NONE', #100, #328, #215 ) ;
#276 = DIRECTION ( 'NONE',  ( -1.000000000000000000, 0.000000000000000000, 0.000000000000000000 ) ) ;
#277 = FACE_OUTER_BOUND ( 'NONE', #294, .T. ) ;
#278 = DIRECTION ( 'NONE',  ( 0.000000000000000000, 0.000000000000000000, -1.000000000000000000 ) ) ;
#279 = CIRCLE ( 'NONE', #371, 0.7000000000000000666 ) ;
#280 = CIRCLE ( 'NONE', #236, 6.000000000000000888 ) ;
#281 = CARTESIAN_POINT ( 'NONE',  ( 0.000000000000000000, 0.000000000000000000, 0.000000000000000000 ) ) ;
#282 = ADVANCED_FACE ( 'NONE', ( #17 ), #166, .T. ) ;
#283 = LOCAL_TIME ( 16, 38, 26.00000000000000000, #288 ) ;
#284 = ADVANCED_FACE ( 'NONE', ( #372 ), #144, .F. ) ;
#285 = CARTESIAN_POINT ( 'NONE',  ( 0.000000000000000000, 0.000000000000000000, 7.700000000000012612 ) ) ;
#286 = CARTESIAN_POINT ( 'NONE',  ( 0.000000000000000000, 0.000000000000000000, 0.000000000000000000 ) ) ;
#287 = AXIS2_PLACEMENT_3D ( 'NONE', #306, #79, #105 ) ;
#288 = COORDINATED_UNIVERSAL_TIME_OFFSET ( 1, 0, .AHEAD. ) ;
#289 = AXIS2_PLACEMENT_3D ( 'NONE', #123, #271, #323 ) ;
#290 = COORDINATED_UNIVERSAL_TIME_OFFSET ( 1, 0, .AHEAD. ) ;
#291 = ADVANCED_FACE ( 'NONE', ( #194, #109 ), #336, .F. ) ;
#292 = CC_DESIGN_APPROVAL ( #53, ( #7 ) ) ;
#293 = COORDINATED_UNIVERSAL_TIME_OFFSET ( 1, 0, .AHEAD. ) ;
#294 = EDGE_LOOP ( 'NONE', ( #184, #352, #269, #315 ) ) ;
#295 = ORIENTED_EDGE ( 'NONE', *, *, #243, .T. ) ;
#296 = EDGE_LOOP ( 'NONE', ( #273, #190, #359, #99 ) ) ;
#297 = VERTEX_POINT ( 'NONE', #80 ) ;
#298 = ORIENTED_EDGE ( 'NONE', *, *, #9, .F. ) ;
#299 = APPLICATION_CONTEXT ( 'configuration controlled 3d designs of mechanical parts and assemblies' ) ;
#300 = APPROVAL ( #344, 'NEURÈENÝ' ) ;
#301 = LINE ( 'NONE', #362, #34 ) ;
#302 = PRODUCT ( 'b3c8', 'b3c8', '', ( #26 ) ) ;
#303 = DIRECTION ( 'NONE',  ( 0.000000000000000000, 0.000000000000000000, 1.000000000000000000 ) ) ;
#304 = DIRECTION ( 'NONE',  ( 0.000000000000000000, 0.000000000000000000, 1.000000000000000000 ) ) ;
#305 = LINE ( 'NONE', #339, #249 ) ;
#306 = CARTESIAN_POINT ( 'NONE',  ( 0.000000000000000000, 0.000000000000000000, 7.000000000000000000 ) ) ;
#307 = DIRECTION ( 'NONE',  ( -1.000000000000000000, 1.224646799147353454E-16, 0.000000000000000000 ) ) ;
#308 = CARTESIAN_POINT ( 'NONE',  ( 0.000000000000000000, 0.000000000000000000, 0.000000000000000000 ) ) ;
#309 = DATE_AND_TIME ( #28, #4 ) ;
#310 = PERSON_AND_ORGANIZATION ( #141, #153 ) ;
#311 = CC_DESIGN_APPROVAL ( #102, ( #192 ) ) ;
#312 = EDGE_LOOP ( 'NONE', ( #13, #242 ) ) ;
#313 = DATE_TIME_ROLE ( 'creation_date' ) ;
#314 = EDGE_CURVE ( 'NONE', #246, #233, #305, .T. ) ;
#315 = ORIENTED_EDGE ( 'NONE', *, *, #243, .F. ) ;
#316 =( NAMED_UNIT ( * ) SI_UNIT ( $, .STERADIAN. ) SOLID_ANGLE_UNIT ( ) );
#317 = ORIENTED_EDGE ( 'NONE', *, *, #327, .F. ) ;
#318 = DIRECTION ( 'NONE',  ( -0.000000000000000000, -0.000000000000000000, -1.000000000000000000 ) ) ;
#319 = EDGE_LOOP ( 'NONE', ( #47, #58, #238, #65 ) ) ;
#320 = CARTESIAN_POINT ( 'NONE',  ( -10.00000000000000000, 0.000000000000000000, 7.000000000000000000 ) ) ;
#321 = ORIENTED_EDGE ( 'NONE', *, *, #133, .F. ) ;
#322 = SHAPE_DEFINITION_REPRESENTATION ( #358, #169 ) ;
#323 = DIRECTION ( 'NONE',  ( 1.000000000000000000, 0.000000000000000000, -0.000000000000000000 ) ) ;
#324 = VERTEX_POINT ( 'NONE', #22 ) ;
#325 = LINE ( 'NONE', #14, #148 ) ;
#326 = ORIENTED_EDGE ( 'NONE', *, *, #23, .F. ) ;
#327 = EDGE_CURVE ( 'NONE', #187, #348, #60, .T. ) ;
#328 = DIRECTION ( 'NONE',  ( -0.000000000000000000, -0.000000000000000000, -1.000000000000000000 ) ) ;
#329 = DIRECTION ( 'NONE',  ( 1.000000000000000000, 0.000000000000000000, -0.000000000000000000 ) ) ;
#330 = DIRECTION ( 'NONE',  ( -0.000000000000000000, -0.000000000000000000, -1.000000000000000000 ) ) ;
#331 = ORIENTED_EDGE ( 'NONE', *, *, #170, .T. ) ;
#332 = SECURITY_CLASSIFICATION ( '', '', #234 ) ;
#333 = EDGE_CURVE ( 'NONE', #297, #240, #203, .T. ) ;
#334 = DIRECTION ( 'NONE',  ( 0.000000000000000000, 0.000000000000000000, -1.000000000000000000 ) ) ;
#335 = CARTESIAN_POINT ( 'NONE',  ( -10.00000000000000000, 0.000000000000000000, 0.000000000000000000 ) ) ;
#336 = PLANE ( 'NONE',  #37 ) ;
#337 = AXIS2_PLACEMENT_3D ( 'NONE', #251, #220, #20 ) ;
#338 = FACE_BOUND ( 'NONE', #312, .T. ) ;
#339 = CARTESIAN_POINT ( 'NONE',  ( 6.000000000000000888, 7.347880794884120722E-16, 257.0000000000000000 ) ) ;
#340 = DESIGN_CONTEXT ( 'detailed design', #136, 'design' ) ;
#341 = AXIS2_PLACEMENT_3D ( 'NONE', #353, #161, #276 ) ;
#342 = APPROVAL_PERSON_ORGANIZATION ( #118, #102, #120 ) ;
#343 = CARTESIAN_POINT ( 'NONE',  ( 10.00000000000000000, 1.224646799147353256E-15, 0.000000000000000000 ) ) ;
#344 = APPROVAL_STATUS ( 'not_yet_approved' ) ;
#345 = APPROVAL_ROLE ( '' ) ;
#346 = VECTOR ( 'NONE', #74, 1000.000000000000000 ) ;
#347 = CC_DESIGN_PERSON_AND_ORGANIZATION_ASSIGNMENT ( #260, #29, ( #192 ) ) ;
#348 = VERTEX_POINT ( 'NONE', #219 ) ;
#349 = DATE_TIME_ROLE ( 'classification_date' ) ;
#350 = ORIENTED_EDGE ( 'NONE', *, *, #170, .F. ) ;
#351 = ORIENTED_EDGE ( 'NONE', *, *, #119, .T. ) ;
#352 = ORIENTED_EDGE ( 'NONE', *, *, #256, .T. ) ;
#353 = CARTESIAN_POINT ( 'NONE',  ( 0.000000000000000000, 0.000000000000000000, 257.0000000000000000 ) ) ;
#354 = VERTEX_POINT ( 'NONE', #343 ) ;
#355 = CARTESIAN_POINT ( 'NONE',  ( 0.000000000000000000, 0.000000000000000000, 7.700000000000012612 ) ) ;
#356 = EDGE_CURVE ( 'NONE', #6, #38, #142, .T. ) ;
#357 = CIRCLE ( 'NONE', #130, 4.000000000000000000 ) ;
#358 = PRODUCT_DEFINITION_SHAPE ( 'NONE', 'NONE',  #7 ) ;
#359 = ORIENTED_EDGE ( 'NONE', *, *, #133, .T. ) ;
#360 = ADVANCED_FACE ( 'NONE', ( #171 ), #364, .T. ) ;
#361 = CARTESIAN_POINT ( 'NONE',  ( 0.000000000000000000, 0.000000000000000000, 0.000000000000000000 ) ) ;
#362 = CARTESIAN_POINT ( 'NONE',  ( -4.000000000000000000, 0.000000000000000000, 257.0000000000000000 ) ) ;
#363 = CARTESIAN_POINT ( 'NONE',  ( 6.700000000000001066, 0.000000000000000000, 7.700000000000012612 ) ) ;
#364 = CYLINDRICAL_SURFACE ( 'NONE', #206, 6.000000000000000888 ) ;
#365 = CIRCLE ( 'NONE', #152, 10.00000000000000000 ) ;
#366 = DIRECTION ( 'NONE',  ( 1.000000000000000000, 0.000000000000000000, 0.000000000000000000 ) ) ;
#367 = VECTOR ( 'NONE', #318, 1000.000000000000000 ) ;
#368 = DIRECTION ( 'NONE',  ( -1.000000000000000000, 0.000000000000000000, 0.000000000000000000 ) ) ;
#369 = CARTESIAN_POINT ( 'NONE',  ( 0.000000000000000000, 0.000000000000000000, 7.700000000000012612 ) ) ;
#370 = CARTESIAN_POINT ( 'NONE',  ( 0.000000000000000000, 0.000000000000000000, 257.0000000000000000 ) ) ;
#371 = AXIS2_PLACEMENT_3D ( 'NONE', #75, #45, #307 ) ;
#372 = FACE_OUTER_BOUND ( 'NONE', #126, .T. ) ;
#373 = EDGE_CURVE ( 'NONE', #324, #272, #12, .T. ) ;
#374 = LOCAL_TIME ( 16, 38, 26.00000000000000000, #115 ) ;
#375 = DATE_AND_TIME ( #228, #374 ) ;
#376 = AXIS2_PLACEMENT_3D ( 'NONE', #255, #258, #223 ) ;
#377 = EDGE_CURVE ( 'NONE', #348, #187, #357, .T. ) ;
#378 = AXIS2_PLACEMENT_3D ( 'NONE', #61, #59, #264 ) ;
#379 = PERSON_AND_ORGANIZATION_ROLE ( 'creator' ) ;
#380 = ORIENTED_EDGE ( 'NONE', *, *, #377, .T. ) ;
#381 = PERSON_AND_ORGANIZATION_ROLE ( 'design_owner' ) ;
ENDSEC;
END-ISO-10303-21;
