ISO-10303-21;
HEADER;
FILE_DESCRIPTION (( 'STEP AP203' ),
    '1' );
FILE_NAME ('dd92.STEP',
    '2022-07-08T15:41:54',
    ( '' ),
    ( '' ),
    'SwSTEP 2.0',
    'SolidWorks 2019',
    '' );
FILE_SCHEMA (( 'CONFIG_CONTROL_DESIGN' ));
ENDSEC;

DATA;
#1 = APPROVAL_STATUS ( 'not_yet_approved' ) ;
#2 = AXIS2_PLACEMENT_3D ( 'NONE', #41, #104, #18 ) ;
#3 = AXIS2_PLACEMENT_3D ( 'NONE', #166, #82, #314 ) ;
#4 = DATE_AND_TIME ( #360, #270 ) ;
#5 = EDGE_CURVE ( 'NONE', #309, #122, #334, .T. ) ;
#6 = CALENDAR_DATE ( 2022, 8, 7 ) ;
#7 = ORIENTED_EDGE ( 'NONE', *, *, #109, .F. ) ;
#8 = AXIS2_PLACEMENT_3D ( 'NONE', #182, #232, #298 ) ;
#9 = PRODUCT_DEFINITION_FORMATION_WITH_SPECIFIED_SOURCE ( 'LIBOVOLNÝ', '', #231, .NOT_KNOWN. ) ;
#10 = ORIENTED_EDGE ( 'NONE', *, *, #52, .T. ) ;
#11 = PERSON_AND_ORGANIZATION ( #253, #187 ) ;
#12 = CARTESIAN_POINT ( 'NONE',  ( 1.600000000000000089, 1.959434878635765230E-16, 278.0000000000000000 ) ) ;
#13 = CARTESIAN_POINT ( 'NONE',  ( 0.000000000000000000, 0.000000000000000000, 3.000000000000000000 ) ) ;
#14 = AXIS2_PLACEMENT_3D ( 'NONE', #102, #121, #209 ) ;
#15 = CIRCLE ( 'NONE', #112, 5.000000000000000000 ) ;
#16 = CARTESIAN_POINT ( 'NONE',  ( 5.000000000000000000, 6.123233995736766282E-16, 0.000000000000000000 ) ) ;
#17 = PRODUCT_RELATED_PRODUCT_CATEGORY ( 'detail', '', ( #231 ) ) ;
#18 = DIRECTION ( 'NONE',  ( -1.000000000000000000, 0.000000000000000000, 0.000000000000000000 ) ) ;
#19 = DIRECTION ( 'NONE',  ( 0.000000000000000000, 0.000000000000000000, 1.000000000000000000 ) ) ;
#20 = ORIENTED_EDGE ( 'NONE', *, *, #318, .F. ) ;
#21 = DIRECTION ( 'NONE',  ( 0.000000000000000000, 0.000000000000000000, 1.000000000000000000 ) ) ;
#22 = CIRCLE ( 'NONE', #283, 2.500000000000000000 ) ;
#23 = SECURITY_CLASSIFICATION ( '', '', #319 ) ;
#24 = VERTEX_POINT ( 'NONE', #173 ) ;
#25 = ADVANCED_FACE ( 'NONE', ( #311 ), #193, .T. ) ;
#26 = FACE_BOUND ( 'NONE', #127, .T. ) ;
#27 = ORIENTED_EDGE ( 'NONE', *, *, #287, .F. ) ;
#28 = ORIENTED_EDGE ( 'NONE', *, *, #159, .T. ) ;
#29 = DIRECTION ( 'NONE',  ( 0.000000000000000000, 0.000000000000000000, 1.000000000000000000 ) ) ;
#30 = AXIS2_PLACEMENT_3D ( 'NONE', #87, #96, #170 ) ;
#31 =( NAMED_UNIT ( * ) PLANE_ANGLE_UNIT ( ) SI_UNIT ( $, .RADIAN. ) );
#32 = CARTESIAN_POINT ( 'NONE',  ( 5.000000000000000000, 6.123233995736766282E-16, 3.000000000000000000 ) ) ;
#33 = APPROVAL_DATE_TIME ( #199, #137 ) ;
#34 = DIRECTION ( 'NONE',  ( 1.000000000000000000, 0.000000000000000000, 0.000000000000000000 ) ) ;
#35 = APPROVAL_STATUS ( 'not_yet_approved' ) ;
#36 = EDGE_LOOP ( 'NONE', ( #210, #77, #202, #27 ) ) ;
#37 = AXIS2_PLACEMENT_3D ( 'NONE', #211, #366, #71 ) ;
#38 = DIRECTION ( 'NONE',  ( -0.000000000000000000, -0.000000000000000000, -1.000000000000000000 ) ) ;
#39 = DIRECTION ( 'NONE',  ( -0.000000000000000000, -0.000000000000000000, -1.000000000000000000 ) ) ;
#40 = CYLINDRICAL_SURFACE ( 'NONE', #194, 2.500000000000000000 ) ;
#41 = CARTESIAN_POINT ( 'NONE',  ( 0.000000000000000000, 0.000000000000000000, 278.0000000000000000 ) ) ;
#42 = DESIGN_CONTEXT ( 'detailed design', #75, 'design' ) ;
#43 = CYLINDRICAL_SURFACE ( 'NONE', #370, 5.000000000000000000 ) ;
#44 = EDGE_CURVE ( 'NONE', #271, #361, #233, .T. ) ;
#45 = ORIENTED_EDGE ( 'NONE', *, *, #52, .F. ) ;
#46 = DIRECTION ( 'NONE',  ( -1.000000000000000000, 0.000000000000000000, 0.000000000000000000 ) ) ;
#47 = ORIENTED_EDGE ( 'NONE', *, *, #133, .T. ) ;
#48 = CARTESIAN_POINT ( 'NONE',  ( 2.799999999999999822, 0.000000000000000000, 3.300000000000025135 ) ) ;
#49 = ORIENTED_EDGE ( 'NONE', *, *, #155, .T. ) ;
#50 = CARTESIAN_POINT ( 'NONE',  ( -2.500000000000000000, 0.000000000000000000, 278.0000000000000000 ) ) ;
#51 = CARTESIAN_POINT ( 'NONE',  ( -5.000000000000000000, 0.000000000000000000, 0.000000000000000000 ) ) ;
#52 = EDGE_CURVE ( 'NONE', #276, #373, #174, .T. ) ;
#53 = ORIENTED_EDGE ( 'NONE', *, *, #324, .T. ) ;
#54 = CALENDAR_DATE ( 2022, 8, 7 ) ;
#55 = APPROVAL_PERSON_ORGANIZATION ( #198, #137, #255 ) ;
#56 = DIRECTION ( 'NONE',  ( 0.000000000000000000, 0.000000000000000000, 1.000000000000000000 ) ) ;
#57 = LINE ( 'NONE', #50, #284 ) ;
#58 = DIRECTION ( 'NONE',  ( 0.000000000000000000, 0.000000000000000000, 1.000000000000000000 ) ) ;
#59 = ADVANCED_FACE ( 'NONE', ( #138 ), #200, .F. ) ;
#60 = PERSON_AND_ORGANIZATION_ROLE ( 'creator' ) ;
#61 = LOCAL_TIME ( 17, 41, 54.00000000000000000, #219 ) ;
#62 = DIRECTION ( 'NONE',  ( 0.000000000000000000, 0.000000000000000000, 1.000000000000000000 ) ) ;
#63 = VERTEX_POINT ( 'NONE', #279 ) ;
#64 = CARTESIAN_POINT ( 'NONE',  ( 2.799999999999999822, 0.000000000000000000, 3.000000000000012434 ) ) ;
#65 = ORIENTED_EDGE ( 'NONE', *, *, #192, .F. ) ;
#66 = ADVANCED_FACE ( 'NONE', ( #110 ), #342, .F. ) ;
#67 = FACE_OUTER_BOUND ( 'NONE', #286, .T. ) ;
#68 = CARTESIAN_POINT ( 'NONE',  ( -5.000000000000000000, 0.000000000000000000, 3.000000000000000000 ) ) ;
#69 = AXIS2_PLACEMENT_3D ( 'NONE', #237, #332, #46 ) ;
#70 = CC_DESIGN_SECURITY_CLASSIFICATION ( #23, ( #9 ) ) ;
#71 = DIRECTION ( 'NONE',  ( 1.000000000000000000, 0.000000000000000000, -0.000000000000000000 ) ) ;
#72 = EDGE_CURVE ( 'NONE', #299, #24, #277, .T. ) ;
#73 = EDGE_LOOP ( 'NONE', ( #347, #145 ) ) ;
#74 = CARTESIAN_POINT ( 'NONE',  ( 0.000000000000000000, 0.000000000000000000, 278.0000000000000000 ) ) ;
#75 = APPLICATION_CONTEXT ( 'configuration controlled 3d designs of mechanical parts and assemblies' ) ;
#76 = EDGE_CURVE ( 'NONE', #301, #126, #22, .T. ) ;
#77 = ORIENTED_EDGE ( 'NONE', *, *, #109, .T. ) ;
#78 = DIRECTION ( 'NONE',  ( -1.000000000000000000, 0.000000000000000000, 0.000000000000000000 ) ) ;
#79 = VERTEX_POINT ( 'NONE', #64 ) ;
#80 = CIRCLE ( 'NONE', #320, 2.500000000000000000 ) ;
#81 = CARTESIAN_POINT ( 'NONE',  ( 0.000000000000000000, 0.000000000000000000, 3.300000000000025135 ) ) ;
#82 = DIRECTION ( 'NONE',  ( 0.000000000000000000, 0.000000000000000000, 1.000000000000000000 ) ) ;
#83 = ORIENTED_EDGE ( 'NONE', *, *, #5, .T. ) ;
#84 = LINE ( 'NONE', #32, #325 ) ;
#85 = APPROVAL_ROLE ( '' ) ;
#86 = CIRCLE ( 'NONE', #290, 1.600000000000000089 ) ;
#87 = CARTESIAN_POINT ( 'NONE',  ( 0.000000000000000000, 0.000000000000000000, 3.300000000000025135 ) ) ;
#88 = CARTESIAN_POINT ( 'NONE',  ( 0.000000000000000000, 0.000000000000000000, 278.0000000000000000 ) ) ;
#89 = DATE_TIME_ROLE ( 'creation_date' ) ;
#90 = DATE_AND_TIME ( #171, #343 ) ;
#91 = AXIS2_PLACEMENT_3D ( 'NONE', #289, #177, #256 ) ;
#92 = CC_DESIGN_APPROVAL ( #137, ( #23 ) ) ;
#93 = APPROVAL_ROLE ( '' ) ;
#94 = CARTESIAN_POINT ( 'NONE',  ( 0.000000000000000000, 0.000000000000000000, 0.000000000000000000 ) ) ;
#95 = CARTESIAN_POINT ( 'NONE',  ( 0.000000000000000000, 0.000000000000000000, 278.0000000000000000 ) ) ;
#96 = DIRECTION ( 'NONE',  ( 0.000000000000000000, 0.000000000000000000, 1.000000000000000000 ) ) ;
#97 = DIRECTION ( 'NONE',  ( 1.000000000000000000, 0.000000000000000000, 0.000000000000000000 ) ) ;
#98 = DIRECTION ( 'NONE',  ( 0.000000000000000000, 0.000000000000000000, -1.000000000000000000 ) ) ;
#99 = UNCERTAINTY_MEASURE_WITH_UNIT (LENGTH_MEASURE( 1.000000000000000082E-05 ), #251, 'distance_accuracy_value', 'NONE');
#100 = CARTESIAN_POINT ( 'NONE',  ( -2.500000000000000000, 0.000000000000000000, 278.0000000000000000 ) ) ;
#101 = CLOSED_SHELL ( 'NONE', ( #296, #339, #227, #305, #25, #348, #236, #281, #212, #66, #59 ) ) ;
#102 = CARTESIAN_POINT ( 'NONE',  ( 0.000000000000000000, 0.000000000000000000, 3.000000000000000000 ) ) ;
#103 = ORIENTED_EDGE ( 'NONE', *, *, #147, .F. ) ;
#104 = DIRECTION ( 'NONE',  ( 0.000000000000000000, 0.000000000000000000, -1.000000000000000000 ) ) ;
#105 = ORIENTED_EDGE ( 'NONE', *, *, #331, .T. ) ;
#106 = CIRCLE ( 'NONE', #129, 2.799999999999999822 ) ;
#107 = ORIENTED_EDGE ( 'NONE', *, *, #310, .F. ) ;
#108 = EDGE_LOOP ( 'NONE', ( #376, #359, #140, #307 ) ) ;
#109 = EDGE_CURVE ( 'NONE', #243, #271, #84, .T. ) ;
#110 = FACE_OUTER_BOUND ( 'NONE', #218, .T. ) ;
#111 = PERSON_AND_ORGANIZATION ( #253, #187 ) ;
#112 = AXIS2_PLACEMENT_3D ( 'NONE', #341, #58, #188 ) ;
#113 = ORIENTED_EDGE ( 'NONE', *, *, #331, .F. ) ;
#114 = LOCAL_TIME ( 17, 41, 54.00000000000000000, #201 ) ;
#115 = DIRECTION ( 'NONE',  ( -1.000000000000000000, 0.000000000000000000, 0.000000000000000000 ) ) ;
#116 = DIRECTION ( 'NONE',  ( 0.000000000000000000, 0.000000000000000000, -1.000000000000000000 ) ) ;
#117 = CC_DESIGN_PERSON_AND_ORGANIZATION_ASSIGNMENT ( #250, #280, ( #231 ) ) ;
#118 = FACE_BOUND ( 'NONE', #73, .T. ) ;
#119 = PLANE ( 'NONE',  #37 ) ;
#120 = CC_DESIGN_PERSON_AND_ORGANIZATION_ASSIGNMENT ( #259, #168, ( #23 ) ) ;
#121 = DIRECTION ( 'NONE',  ( 0.000000000000000000, 0.000000000000000000, 1.000000000000000000 ) ) ;
#122 = VERTEX_POINT ( 'NONE', #144 ) ;
#123 = CARTESIAN_POINT ( 'NONE',  ( 0.000000000000000000, 0.000000000000000000, 3.000000000000000000 ) ) ;
#124 = EDGE_LOOP ( 'NONE', ( #226, #163, #49, #152 ) ) ;
#125 = CARTESIAN_POINT ( 'NONE',  ( -1.600000000000000089, 0.000000000000000000, 0.000000000000000000 ) ) ;
#126 = VERTEX_POINT ( 'NONE', #321 ) ;
#127 = EDGE_LOOP ( 'NONE', ( #105, #185 ) ) ;
#128 = VECTOR ( 'NONE', #98, 1000.000000000000000 ) ;
#129 = AXIS2_PLACEMENT_3D ( 'NONE', #356, #190, #244 ) ;
#130 = ORIENTED_EDGE ( 'NONE', *, *, #44, .F. ) ;
#131 = CARTESIAN_POINT ( 'NONE',  ( 0.000000000000000000, 0.000000000000000000, 3.000000000000000000 ) ) ;
#132 = EDGE_LOOP ( 'NONE', ( #20, #130 ) ) ;
#133 = EDGE_CURVE ( 'NONE', #299, #213, #186, .T. ) ;
#134 = COORDINATED_UNIVERSAL_TIME_OFFSET ( 1, 0, .AHEAD. ) ;
#135 = AXIS2_PLACEMENT_3D ( 'NONE', #94, #62, #34 ) ;
#136 = APPROVAL_PERSON_ORGANIZATION ( #377, #352, #85 ) ;
#137 = APPROVAL ( #228, 'NEURÈENÝ' ) ;
#138 = FACE_OUTER_BOUND ( 'NONE', #108, .T. ) ;
#139 = COORDINATED_UNIVERSAL_TIME_OFFSET ( 1, 0, .AHEAD. ) ;
#140 = ORIENTED_EDGE ( 'NONE', *, *, #150, .T. ) ;
#141 = AXIS2_PLACEMENT_3D ( 'NONE', #292, #196, #115 ) ;
#142 = EDGE_CURVE ( 'NONE', #122, #276, #260, .T. ) ;
#143 = COORDINATED_UNIVERSAL_TIME_OFFSET ( 1, 0, .AHEAD. ) ;
#144 = CARTESIAN_POINT ( 'NONE',  ( 1.600000000000000089, 1.959434878635765230E-16, 278.0000000000000000 ) ) ;
#145 = ORIENTED_EDGE ( 'NONE', *, *, #254, .F. ) ;
#146 = CARTESIAN_POINT ( 'NONE',  ( 0.000000000000000000, 0.000000000000000000, 278.0000000000000000 ) ) ;
#147 = EDGE_CURVE ( 'NONE', #213, #79, #369, .T. ) ;
#148 = AXIS2_PLACEMENT_3D ( 'NONE', #131, #379, #224 ) ;
#149 = CARTESIAN_POINT ( 'NONE',  ( 5.000000000000000000, 6.123233995736766282E-16, 3.000000000000000000 ) ) ;
#150 = EDGE_CURVE ( 'NONE', #309, #373, #269, .T. ) ;
#151 = DIRECTION ( 'NONE',  ( -0.000000000000000000, -0.000000000000000000, -1.000000000000000000 ) ) ;
#152 = ORIENTED_EDGE ( 'NONE', *, *, #365, .F. ) ;
#153 = CARTESIAN_POINT ( 'NONE',  ( -2.500000000000000000, 0.000000000000000000, 3.300000000000025135 ) ) ;
#154 = ORIENTED_EDGE ( 'NONE', *, *, #72, .T. ) ;
#155 = EDGE_CURVE ( 'NONE', #24, #299, #80, .T. ) ;
#156 = AXIS2_PLACEMENT_3D ( 'NONE', #88, #278, #162 ) ;
#157 = DIRECTION ( 'NONE',  ( 0.000000000000000000, -1.000000000000000000, 0.000000000000000000 ) ) ;
#158 = EDGE_LOOP ( 'NONE', ( #83, #183, #10, #239 ) ) ;
#159 = EDGE_CURVE ( 'NONE', #243, #63, #303, .T. ) ;
#160 = PLANE ( 'NONE',  #3 ) ;
#161 = ORIENTED_EDGE ( 'NONE', *, *, #345, .T. ) ;
#162 = DIRECTION ( 'NONE',  ( 1.000000000000000000, 0.000000000000000000, 0.000000000000000000 ) ) ;
#163 = ORIENTED_EDGE ( 'NONE', *, *, #215, .T. ) ;
#164 = DATE_AND_TIME ( #54, #61 ) ;
#165 = DIRECTION ( 'NONE',  ( -1.000000000000000000, 0.000000000000000000, 0.000000000000000000 ) ) ;
#166 = CARTESIAN_POINT ( 'NONE',  ( 0.000000000000000000, 0.000000000000000000, 3.000000000000000000 ) ) ;
#167 = DIRECTION ( 'NONE',  ( 0.000000000000000000, 0.000000000000000000, 1.000000000000000000 ) ) ;
#168 = PERSON_AND_ORGANIZATION_ROLE ( 'classification_officer' ) ;
#169 = CC_DESIGN_APPROVAL ( #315, ( #9 ) ) ;
#170 = DIRECTION ( 'NONE',  ( 1.000000000000000000, 0.000000000000000000, 0.000000000000000000 ) ) ;
#171 = CALENDAR_DATE ( 2022, 8, 7 ) ;
#172 = DIRECTION ( 'NONE',  ( 0.000000000000000000, 0.000000000000000000, 1.000000000000000000 ) ) ;
#173 = CARTESIAN_POINT ( 'NONE',  ( 2.500000000000000000, 3.061616997868383141E-16, 3.300000000000025135 ) ) ;
#174 = CIRCLE ( 'NONE', #175, 1.600000000000000089 ) ;
#175 = AXIS2_PLACEMENT_3D ( 'NONE', #222, #221, #323 ) ;
#176 = CC_DESIGN_DATE_AND_TIME_ASSIGNMENT ( #90, #89, ( #329 ) ) ;
#177 = DIRECTION ( 'NONE',  ( 1.224646799147353207E-16, 1.000000000000000000, -0.000000000000000000 ) ) ;
#178 = PLANE ( 'NONE',  #8 ) ;
#179 = CARTESIAN_POINT ( 'NONE',  ( -2.799999999999999822, 3.429011037612589276E-16, 3.000000000000012434 ) ) ;
#180 = VECTOR ( 'NONE', #205, 1000.000000000000000 ) ;
#181 = DIRECTION ( 'NONE',  ( -1.000000000000000000, 0.000000000000000000, 0.000000000000000000 ) ) ;
#182 = CARTESIAN_POINT ( 'NONE',  ( 0.000000000000000000, 0.000000000000000000, 278.0000000000000000 ) ) ;
#183 = ORIENTED_EDGE ( 'NONE', *, *, #142, .T. ) ;
#184 = DIRECTION ( 'NONE',  ( 1.000000000000000000, 0.000000000000000000, 0.000000000000000000 ) ) ;
#185 = ORIENTED_EDGE ( 'NONE', *, *, #147, .T. ) ;
#186 = CIRCLE ( 'NONE', #91, 0.2999999999999999334 ) ;
#187 = ORGANIZATION ( 'NEURÈENÝ', 'NEURÈENÝ', '' ) ;
#188 = DIRECTION ( 'NONE',  ( 1.000000000000000000, 0.000000000000000000, 0.000000000000000000 ) ) ;
#189 = ORIENTED_EDGE ( 'NONE', *, *, #324, .F. ) ;
#190 = DIRECTION ( 'NONE',  ( -0.000000000000000000, -0.000000000000000000, -1.000000000000000000 ) ) ;
#191 = DIRECTION ( 'NONE',  ( 1.000000000000000000, 0.000000000000000000, 0.000000000000000000 ) ) ;
#192 = EDGE_CURVE ( 'NONE', #373, #276, #216, .T. ) ;
#193 = CYLINDRICAL_SURFACE ( 'NONE', #312, 5.000000000000000000 ) ;
#194 = AXIS2_PLACEMENT_3D ( 'NONE', #146, #234, #181 ) ;
#195 = APPROVAL_DATE_TIME ( #164, #352 ) ;
#196 = DIRECTION ( 'NONE',  ( 0.000000000000000000, 0.000000000000000000, -1.000000000000000000 ) ) ;
#197 = PERSON_AND_ORGANIZATION_ROLE ( 'creator' ) ;
#198 = PERSON_AND_ORGANIZATION ( #253, #187 ) ;
#199 = DATE_AND_TIME ( #6, #358 ) ;
#200 = CYLINDRICAL_SURFACE ( 'NONE', #141, 1.600000000000000089 ) ;
#201 = COORDINATED_UNIVERSAL_TIME_OFFSET ( 1, 0, .AHEAD. ) ;
#202 = ORIENTED_EDGE ( 'NONE', *, *, #44, .T. ) ;
#203 = CARTESIAN_POINT ( 'NONE',  ( 0.000000000000000000, 0.000000000000000000, 3.000000000000000000 ) ) ;
#204 = AXIS2_PLACEMENT_3D ( 'NONE', #203, #39, #328 ) ;
#205 = DIRECTION ( 'NONE',  ( -0.000000000000000000, -0.000000000000000000, -1.000000000000000000 ) ) ;
#206 = CYLINDRICAL_SURFACE ( 'NONE', #69, 2.500000000000000000 ) ;
#207 = FACE_OUTER_BOUND ( 'NONE', #36, .T. ) ;
#208 = CIRCLE ( 'NONE', #156, 2.500000000000000000 ) ;
#209 = DIRECTION ( 'NONE',  ( 1.000000000000000000, 0.000000000000000000, 0.000000000000000000 ) ) ;
#210 = ORIENTED_EDGE ( 'NONE', *, *, #159, .F. ) ;
#211 = CARTESIAN_POINT ( 'NONE',  ( 0.000000000000000000, 0.000000000000000000, 0.000000000000000000 ) ) ;
#212 = ADVANCED_FACE ( 'NONE', ( #118, #67 ), #178, .T. ) ;
#213 = VERTEX_POINT ( 'NONE', #179 ) ;
#214 = ORIENTED_EDGE ( 'NONE', *, *, #287, .T. ) ;
#215 = EDGE_CURVE ( 'NONE', #126, #24, #364, .T. ) ;
#216 = CIRCLE ( 'NONE', #263, 1.600000000000000089 ) ;
#217 = TOROIDAL_SURFACE ( 'NONE', #327, 2.799999999999999822, 0.2999999999999999889 ) ;
#218 = EDGE_LOOP ( 'NONE', ( #245, #335, #268, #103 ) ) ;
#219 = COORDINATED_UNIVERSAL_TIME_OFFSET ( 1, 0, .AHEAD. ) ;
#220 = ADVANCED_BREP_SHAPE_REPRESENTATION ( 'dd92', ( #267, #264 ), #304 ) ;
#221 = DIRECTION ( 'NONE',  ( -0.000000000000000000, -0.000000000000000000, -1.000000000000000000 ) ) ;
#222 = CARTESIAN_POINT ( 'NONE',  ( 0.000000000000000000, 0.000000000000000000, 0.000000000000000000 ) ) ;
#223 = CC_DESIGN_APPROVAL ( #352, ( #329 ) ) ;
#224 = DIRECTION ( 'NONE',  ( 1.000000000000000000, 0.000000000000000000, 0.000000000000000000 ) ) ;
#225 = AXIS2_PLACEMENT_3D ( 'NONE', #48, #157, #272 ) ;
#226 = ORIENTED_EDGE ( 'NONE', *, *, #345, .F. ) ;
#227 = ADVANCED_FACE ( 'NONE', ( #330 ), #40, .T. ) ;
#228 = APPROVAL_STATUS ( 'not_yet_approved' ) ;
#229 = APPROVAL_DATE_TIME ( #4, #315 ) ;
#230 = DIRECTION ( 'NONE',  ( -0.000000000000000000, -0.000000000000000000, -1.000000000000000000 ) ) ;
#231 = PRODUCT ( 'dd92', 'dd92', '', ( #246 ) ) ;
#232 = DIRECTION ( 'NONE',  ( 0.000000000000000000, 0.000000000000000000, 1.000000000000000000 ) ) ;
#233 = CIRCLE ( 'NONE', #135, 5.000000000000000000 ) ;
#234 = DIRECTION ( 'NONE',  ( -0.000000000000000000, -0.000000000000000000, -1.000000000000000000 ) ) ;
#235 = FACE_OUTER_BOUND ( 'NONE', #158, .T. ) ;
#236 = ADVANCED_FACE ( 'NONE', ( #262, #333 ), #119, .F. ) ;
#237 = CARTESIAN_POINT ( 'NONE',  ( 0.000000000000000000, 0.000000000000000000, 278.0000000000000000 ) ) ;
#238 = AXIS2_PLACEMENT_3D ( 'NONE', #95, #56, #381 ) ;
#239 = ORIENTED_EDGE ( 'NONE', *, *, #150, .F. ) ;
#240 = CIRCLE ( 'NONE', #148, 5.000000000000000000 ) ;
#241 = CC_DESIGN_PERSON_AND_ORGANIZATION_ASSIGNMENT ( #111, #197, ( #329 ) ) ;
#242 = DIRECTION ( 'NONE',  ( -0.000000000000000000, -0.000000000000000000, -1.000000000000000000 ) ) ;
#243 = VERTEX_POINT ( 'NONE', #149 ) ;
#244 = DIRECTION ( 'NONE',  ( 1.000000000000000000, 0.000000000000000000, 0.000000000000000000 ) ) ;
#245 = ORIENTED_EDGE ( 'NONE', *, *, #133, .F. ) ;
#246 = MECHANICAL_CONTEXT ( 'NONE', #380, 'mechanical' ) ;
#247 = CC_DESIGN_PERSON_AND_ORGANIZATION_ASSIGNMENT ( #257, #288, ( #9 ) ) ;
#248 = ORIENTED_EDGE ( 'NONE', *, *, #318, .T. ) ;
#249 = CIRCLE ( 'NONE', #225, 0.2999999999999999334 ) ;
#250 = PERSON_AND_ORGANIZATION ( #253, #187 ) ;
#251 =( LENGTH_UNIT ( ) NAMED_UNIT ( * ) SI_UNIT ( .MILLI., .METRE. ) );
#252 = ORIENTED_EDGE ( 'NONE', *, *, #365, .T. ) ;
#253 = PERSON ( 'NEURÈENÝ', 'NEURÈENÝ', 'NEURÈENÝ', ('NEURÈENÝ'), ('NEURÈENÝ'), ('NEURÈENÝ') ) ;
#254 = EDGE_CURVE ( 'NONE', #122, #309, #86, .T. ) ;
#255 = APPROVAL_ROLE ( '' ) ;
#256 = DIRECTION ( 'NONE',  ( -1.000000000000000000, 1.224646799147353207E-16, 0.000000000000000000 ) ) ;
#257 = PERSON_AND_ORGANIZATION ( #253, #187 ) ;
#258 = EDGE_LOOP ( 'NONE', ( #337, #47, #113, #107 ) ) ;
#259 = PERSON_AND_ORGANIZATION ( #253, #187 ) ;
#260 = LINE ( 'NONE', #12, #297 ) ;
#261 = EDGE_LOOP ( 'NONE', ( #371, #340, #252, #154 ) ) ;
#262 = FACE_BOUND ( 'NONE', #344, .T. ) ;
#263 = AXIS2_PLACEMENT_3D ( 'NONE', #336, #367, #184 ) ;
#264 = AXIS2_PLACEMENT_3D ( 'NONE', #346, #29, #191 ) ;
#265 = LINE ( 'NONE', #68, #355 ) ;
#266 = CARTESIAN_POINT ( 'NONE',  ( -1.600000000000000089, 0.000000000000000000, 278.0000000000000000 ) ) ;
#267 = MANIFOLD_SOLID_BREP ( 'Odebrat vysunutím3', #101 ) ;
#268 = ORIENTED_EDGE ( 'NONE', *, *, #310, .T. ) ;
#269 = LINE ( 'NONE', #266, #128 ) ;
#270 = LOCAL_TIME ( 17, 41, 54.00000000000000000, #139 ) ;
#271 = VERTEX_POINT ( 'NONE', #16 ) ;
#272 = DIRECTION ( 'NONE',  ( 0.000000000000000000, 0.000000000000000000, -1.000000000000000000 ) ) ;
#273 = EDGE_LOOP ( 'NONE', ( #7, #189, #214, #248 ) ) ;
#274 = DIRECTION ( 'NONE',  ( -0.000000000000000000, -0.000000000000000000, -1.000000000000000000 ) ) ;
#275 = EDGE_LOOP ( 'NONE', ( #53, #28 ) ) ;
#276 = VERTEX_POINT ( 'NONE', #368 ) ;
#277 = CIRCLE ( 'NONE', #30, 2.500000000000000000 ) ;
#278 = DIRECTION ( 'NONE',  ( 0.000000000000000000, 0.000000000000000000, 1.000000000000000000 ) ) ;
#279 = CARTESIAN_POINT ( 'NONE',  ( -5.000000000000000000, 0.000000000000000000, 3.000000000000000000 ) ) ;
#280 = PERSON_AND_ORGANIZATION_ROLE ( 'design_owner' ) ;
#281 = ADVANCED_FACE ( 'NONE', ( #300 ), #206, .T. ) ;
#282 = CALENDAR_DATE ( 2022, 8, 7 ) ;
#283 = AXIS2_PLACEMENT_3D ( 'NONE', #362, #350, #316 ) ;
#284 = VECTOR ( 'NONE', #274, 1000.000000000000000 ) ;
#285 = DATE_TIME_ROLE ( 'classification_date' ) ;
#286 = EDGE_LOOP ( 'NONE', ( #375, #161 ) ) ;
#287 = EDGE_CURVE ( 'NONE', #63, #361, #265, .T. ) ;
#288 = PERSON_AND_ORGANIZATION_ROLE ( 'design_supplier' ) ;
#289 = CARTESIAN_POINT ( 'NONE',  ( -2.799999999999999822, 3.429011037612588783E-16, 3.300000000000025135 ) ) ;
#290 = AXIS2_PLACEMENT_3D ( 'NONE', #74, #21, #97 ) ;
#291 = DIRECTION ( 'NONE',  ( 1.000000000000000000, 0.000000000000000000, 0.000000000000000000 ) ) ;
#292 = CARTESIAN_POINT ( 'NONE',  ( 0.000000000000000000, 0.000000000000000000, 278.0000000000000000 ) ) ;
#293 = CC_DESIGN_PERSON_AND_ORGANIZATION_ASSIGNMENT ( #11, #60, ( #9 ) ) ;
#294 = DIRECTION ( 'NONE',  ( 1.000000000000000000, 0.000000000000000000, 0.000000000000000000 ) ) ;
#295 = CYLINDRICAL_SURFACE ( 'NONE', #2, 1.600000000000000089 ) ;
#296 = ADVANCED_FACE ( 'NONE', ( #235 ), #295, .F. ) ;
#297 = VECTOR ( 'NONE', #116, 1000.000000000000000 ) ;
#298 = DIRECTION ( 'NONE',  ( 1.000000000000000000, 0.000000000000000000, -0.000000000000000000 ) ) ;
#299 = VERTEX_POINT ( 'NONE', #153 ) ;
#300 = FACE_OUTER_BOUND ( 'NONE', #261, .T. ) ;
#301 = VERTEX_POINT ( 'NONE', #100 ) ;
#302 = CARTESIAN_POINT ( 'NONE',  ( -1.600000000000000089, 0.000000000000000000, 278.0000000000000000 ) ) ;
#303 = CIRCLE ( 'NONE', #14, 5.000000000000000000 ) ;
#304 =( GEOMETRIC_REPRESENTATION_CONTEXT ( 3 ) GLOBAL_UNCERTAINTY_ASSIGNED_CONTEXT ( ( #99 ) ) GLOBAL_UNIT_ASSIGNED_CONTEXT ( ( #251, #31, #374 ) ) REPRESENTATION_CONTEXT ( 'NONE', 'WORKASPACE' ) );
#305 = ADVANCED_FACE ( 'NONE', ( #207 ), #43, .T. ) ;
#306 = DIRECTION ( 'NONE',  ( 1.000000000000000000, 0.000000000000000000, 0.000000000000000000 ) ) ;
#307 = ORIENTED_EDGE ( 'NONE', *, *, #192, .T. ) ;
#308 = FACE_OUTER_BOUND ( 'NONE', #275, .T. ) ;
#309 = VERTEX_POINT ( 'NONE', #302 ) ;
#310 = EDGE_CURVE ( 'NONE', #24, #79, #249, .T. ) ;
#311 = FACE_OUTER_BOUND ( 'NONE', #273, .T. ) ;
#312 = AXIS2_PLACEMENT_3D ( 'NONE', #13, #230, #165 ) ;
#313 = APPROVAL_PERSON_ORGANIZATION ( #357, #315, #93 ) ;
#314 = DIRECTION ( 'NONE',  ( 1.000000000000000000, 0.000000000000000000, -0.000000000000000000 ) ) ;
#315 = APPROVAL ( #35, 'NEURÈENÝ' ) ;
#316 = DIRECTION ( 'NONE',  ( 1.000000000000000000, 0.000000000000000000, 0.000000000000000000 ) ) ;
#317 = FACE_OUTER_BOUND ( 'NONE', #258, .T. ) ;
#318 = EDGE_CURVE ( 'NONE', #361, #271, #15, .T. ) ;
#319 = SECURITY_CLASSIFICATION_LEVEL ( 'unclassified' ) ;
#320 = AXIS2_PLACEMENT_3D ( 'NONE', #372, #19, #294 ) ;
#321 = CARTESIAN_POINT ( 'NONE',  ( 2.500000000000000000, 3.061616997868383141E-16, 278.0000000000000000 ) ) ;
#322 = SHAPE_DEFINITION_REPRESENTATION ( #353, #220 ) ;
#323 = DIRECTION ( 'NONE',  ( 1.000000000000000000, 0.000000000000000000, 0.000000000000000000 ) ) ;
#324 = EDGE_CURVE ( 'NONE', #63, #243, #240, .T. ) ;
#325 = VECTOR ( 'NONE', #38, 1000.000000000000000 ) ;
#326 = DATE_AND_TIME ( #282, #114 ) ;
#327 = AXIS2_PLACEMENT_3D ( 'NONE', #81, #167, #306 ) ;
#328 = DIRECTION ( 'NONE',  ( 1.000000000000000000, 0.000000000000000000, 0.000000000000000000 ) ) ;
#329 = PRODUCT_DEFINITION ( 'NEZNÁMÝ', '', #9, #42 ) ;
#330 = FACE_OUTER_BOUND ( 'NONE', #124, .T. ) ;
#331 = EDGE_CURVE ( 'NONE', #79, #213, #106, .T. ) ;
#332 = DIRECTION ( 'NONE',  ( -0.000000000000000000, -0.000000000000000000, -1.000000000000000000 ) ) ;
#333 = FACE_OUTER_BOUND ( 'NONE', #132, .T. ) ;
#334 = CIRCLE ( 'NONE', #238, 1.600000000000000089 ) ;
#335 = ORIENTED_EDGE ( 'NONE', *, *, #155, .F. ) ;
#336 = CARTESIAN_POINT ( 'NONE',  ( 0.000000000000000000, 0.000000000000000000, 0.000000000000000000 ) ) ;
#337 = ORIENTED_EDGE ( 'NONE', *, *, #72, .F. ) ;
#338 = CARTESIAN_POINT ( 'NONE',  ( 2.500000000000000000, 3.061616997868383141E-16, 278.0000000000000000 ) ) ;
#339 = ADVANCED_FACE ( 'NONE', ( #317 ), #217, .F. ) ;
#340 = ORIENTED_EDGE ( 'NONE', *, *, #76, .F. ) ;
#341 = CARTESIAN_POINT ( 'NONE',  ( 0.000000000000000000, 0.000000000000000000, 0.000000000000000000 ) ) ;
#342 = TOROIDAL_SURFACE ( 'NONE', #363, 2.799999999999999822, 0.2999999999999999889 ) ;
#343 = LOCAL_TIME ( 17, 41, 54.00000000000000000, #143 ) ;
#344 = EDGE_LOOP ( 'NONE', ( #65, #45 ) ) ;
#345 = EDGE_CURVE ( 'NONE', #126, #301, #208, .T. ) ;
#346 = CARTESIAN_POINT ( 'NONE',  ( 0.000000000000000000, 0.000000000000000000, 0.000000000000000000 ) ) ;
#347 = ORIENTED_EDGE ( 'NONE', *, *, #5, .F. ) ;
#348 = ADVANCED_FACE ( 'NONE', ( #26, #308 ), #160, .T. ) ;
#349 = APPLICATION_PROTOCOL_DEFINITION ( 'international standard', 'config_control_design', 1994, #380 ) ;
#350 = DIRECTION ( 'NONE',  ( 0.000000000000000000, 0.000000000000000000, 1.000000000000000000 ) ) ;
#351 = APPLICATION_PROTOCOL_DEFINITION ( 'international standard', 'config_control_design', 1994, #75 ) ;
#352 = APPROVAL ( #1, 'NEURÈENÝ' ) ;
#353 = PRODUCT_DEFINITION_SHAPE ( 'NONE', 'NONE',  #329 ) ;
#354 = CARTESIAN_POINT ( 'NONE',  ( 0.000000000000000000, 0.000000000000000000, 3.300000000000025135 ) ) ;
#355 = VECTOR ( 'NONE', #151, 1000.000000000000000 ) ;
#356 = CARTESIAN_POINT ( 'NONE',  ( 0.000000000000000000, 0.000000000000000000, 3.000000000000000000 ) ) ;
#357 = PERSON_AND_ORGANIZATION ( #253, #187 ) ;
#358 = LOCAL_TIME ( 17, 41, 54.00000000000000000, #134 ) ;
#359 = ORIENTED_EDGE ( 'NONE', *, *, #254, .T. ) ;
#360 = CALENDAR_DATE ( 2022, 8, 7 ) ;
#361 = VERTEX_POINT ( 'NONE', #51 ) ;
#362 = CARTESIAN_POINT ( 'NONE',  ( 0.000000000000000000, 0.000000000000000000, 278.0000000000000000 ) ) ;
#363 = AXIS2_PLACEMENT_3D ( 'NONE', #354, #172, #291 ) ;
#364 = LINE ( 'NONE', #338, #180 ) ;
#365 = EDGE_CURVE ( 'NONE', #301, #299, #57, .T. ) ;
#366 = DIRECTION ( 'NONE',  ( 0.000000000000000000, 0.000000000000000000, 1.000000000000000000 ) ) ;
#367 = DIRECTION ( 'NONE',  ( -0.000000000000000000, -0.000000000000000000, -1.000000000000000000 ) ) ;
#368 = CARTESIAN_POINT ( 'NONE',  ( 1.600000000000000089, 1.959434878635765230E-16, 0.000000000000000000 ) ) ;
#369 = CIRCLE ( 'NONE', #204, 2.799999999999999822 ) ;
#370 = AXIS2_PLACEMENT_3D ( 'NONE', #123, #242, #78 ) ;
#371 = ORIENTED_EDGE ( 'NONE', *, *, #215, .F. ) ;
#372 = CARTESIAN_POINT ( 'NONE',  ( 0.000000000000000000, 0.000000000000000000, 3.300000000000025135 ) ) ;
#373 = VERTEX_POINT ( 'NONE', #125 ) ;
#374 =( NAMED_UNIT ( * ) SI_UNIT ( $, .STERADIAN. ) SOLID_ANGLE_UNIT ( ) );
#375 = ORIENTED_EDGE ( 'NONE', *, *, #76, .T. ) ;
#376 = ORIENTED_EDGE ( 'NONE', *, *, #142, .F. ) ;
#377 = PERSON_AND_ORGANIZATION ( #253, #187 ) ;
#378 = CC_DESIGN_DATE_AND_TIME_ASSIGNMENT ( #326, #285, ( #23 ) ) ;
#379 = DIRECTION ( 'NONE',  ( 0.000000000000000000, 0.000000000000000000, 1.000000000000000000 ) ) ;
#380 = APPLICATION_CONTEXT ( 'configuration controlled 3d designs of mechanical parts and assemblies' ) ;
#381 = DIRECTION ( 'NONE',  ( 1.000000000000000000, 0.000000000000000000, 0.000000000000000000 ) ) ;
ENDSEC;
END-ISO-10303-21;
