ISO-10303-21;
HEADER;
FILE_DESCRIPTION (( 'STEP AP203' ),
    '1' );
FILE_NAME ('b9f9.STEP',
    '2022-07-08T15:32:47',
    ( '' ),
    ( '' ),
    'SwSTEP 2.0',
    'SolidWorks 2019',
    '' );
FILE_SCHEMA (( 'CONFIG_CONTROL_DESIGN' ));
ENDSEC;

DATA;
#1 = ORIENTED_EDGE ( 'NONE', *, *, #15, .T. ) ;
#2 = CARTESIAN_POINT ( 'NONE',  ( 0.000000000000000000, 0.000000000000000000, 5.000000000000000000 ) ) ;
#3 = DIRECTION ( 'NONE',  ( 1.000000000000000000, 0.000000000000000000, -0.000000000000000000 ) ) ;
#4 = CARTESIAN_POINT ( 'NONE',  ( 0.000000000000000000, 0.000000000000000000, 5.000000000000000000 ) ) ;
#5 = CIRCLE ( 'NONE', #219, 0.5000000000000004441 ) ;
#6 = PERSON_AND_ORGANIZATION_ROLE ( 'design_owner' ) ;
#7 = CARTESIAN_POINT ( 'NONE',  ( 0.000000000000000000, 0.000000000000000000, 80.00000000000000000 ) ) ;
#8 = ORIENTED_EDGE ( 'NONE', *, *, #325, .F. ) ;
#9 = CC_DESIGN_PERSON_AND_ORGANIZATION_ASSIGNMENT ( #88, #179, ( #232 ) ) ;
#10 = SECURITY_CLASSIFICATION_LEVEL ( 'unclassified' ) ;
#11 = CALENDAR_DATE ( 2022, 8, 7 ) ;
#12 = DIRECTION ( 'NONE',  ( -0.000000000000000000, -0.000000000000000000, -1.000000000000000000 ) ) ;
#13 = LOCAL_TIME ( 17, 32, 47.00000000000000000, #297 ) ;
#14 = ORIENTED_EDGE ( 'NONE', *, *, #218, .F. ) ;
#15 = EDGE_CURVE ( 'NONE', #95, #250, #321, .T. ) ;
#16 = DIRECTION ( 'NONE',  ( 0.000000000000000000, 0.000000000000000000, 1.000000000000000000 ) ) ;
#17 = CARTESIAN_POINT ( 'NONE',  ( 0.000000000000000000, 0.000000000000000000, 0.000000000000000000 ) ) ;
#18 = CIRCLE ( 'NONE', #100, 7.000000000000000000 ) ;
#19 = CARTESIAN_POINT ( 'NONE',  ( 7.000000000000000000, 8.572527594031473190E-16, 5.000000000000000000 ) ) ;
#20 = ORIENTED_EDGE ( 'NONE', *, *, #360, .F. ) ;
#21 = FACE_OUTER_BOUND ( 'NONE', #202, .T. ) ;
#22 = CIRCLE ( 'NONE', #341, 4.500000000000000888 ) ;
#23 = DIRECTION ( 'NONE',  ( -1.000000000000000000, 1.224646799147351482E-16, 0.000000000000000000 ) ) ;
#24 = ORIENTED_EDGE ( 'NONE', *, *, #234, .F. ) ;
#25 = FACE_OUTER_BOUND ( 'NONE', #278, .T. ) ;
#26 = EDGE_LOOP ( 'NONE', ( #309, #252 ) ) ;
#27 = TOROIDAL_SURFACE ( 'NONE', #52, 4.500000000000000888, 0.5000000000000000000 ) ;
#28 = EDGE_CURVE ( 'NONE', #250, #352, #38, .T. ) ;
#29 =( NAMED_UNIT ( * ) PLANE_ANGLE_UNIT ( ) SI_UNIT ( $, .RADIAN. ) );
#30 = PERSON_AND_ORGANIZATION ( #57, #353 ) ;
#31 = VERTEX_POINT ( 'NONE', #265 ) ;
#32 = EDGE_CURVE ( 'NONE', #347, #301, #111, .T. ) ;
#33 = CIRCLE ( 'NONE', #87, 2.000000000000000000 ) ;
#34 = MECHANICAL_CONTEXT ( 'NONE', #288, 'mechanical' ) ;
#35 = DIRECTION ( 'NONE',  ( -0.000000000000000000, -0.000000000000000000, -1.000000000000000000 ) ) ;
#36 = CC_DESIGN_PERSON_AND_ORGANIZATION_ASSIGNMENT ( #30, #6, ( #124 ) ) ;
#37 = PERSON_AND_ORGANIZATION_ROLE ( 'creator' ) ;
#38 = LINE ( 'NONE', #215, #266 ) ;
#39 = ORIENTED_EDGE ( 'NONE', *, *, #32, .F. ) ;
#40 = AXIS2_PLACEMENT_3D ( 'NONE', #7, #326, #296 ) ;
#41 = SHAPE_DEFINITION_REPRESENTATION ( #195, #300 ) ;
#42 = EDGE_CURVE ( 'NONE', #352, #245, #85, .T. ) ;
#43 = FACE_OUTER_BOUND ( 'NONE', #349, .T. ) ;
#44 = EDGE_CURVE ( 'NONE', #301, #347, #22, .T. ) ;
#45 = DIRECTION ( 'NONE',  ( 1.000000000000000000, 0.000000000000000000, 0.000000000000000000 ) ) ;
#46 = ORIENTED_EDGE ( 'NONE', *, *, #44, .F. ) ;
#47 = DIRECTION ( 'NONE',  ( 1.000000000000000000, 0.000000000000000000, 0.000000000000000000 ) ) ;
#48 = ADVANCED_FACE ( 'NONE', ( #263 ), #151, .F. ) ;
#49 = EDGE_LOOP ( 'NONE', ( #233, #319 ) ) ;
#50 = ADVANCED_FACE ( 'NONE', ( #293 ), #69, .F. ) ;
#51 = DIRECTION ( 'NONE',  ( 0.000000000000000000, 0.000000000000000000, 1.000000000000000000 ) ) ;
#52 = AXIS2_PLACEMENT_3D ( 'NONE', #345, #101, #220 ) ;
#53 = ORIENTED_EDGE ( 'NONE', *, *, #310, .F. ) ;
#54 = DIRECTION ( 'NONE',  ( 1.000000000000000000, 0.000000000000000000, 0.000000000000000000 ) ) ;
#55 = ORIENTED_EDGE ( 'NONE', *, *, #336, .T. ) ;
#56 = LINE ( 'NONE', #172, #269 ) ;
#57 = PERSON ( 'NEURÈENÝ', 'NEURÈENÝ', 'NEURÈENÝ', ('NEURÈENÝ'), ('NEURÈENÝ'), ('NEURÈENÝ') ) ;
#58 = DIRECTION ( 'NONE',  ( 0.000000000000000000, 0.000000000000000000, 1.000000000000000000 ) ) ;
#59 = CARTESIAN_POINT ( 'NONE',  ( -7.000000000000000000, 0.000000000000000000, 5.000000000000000000 ) ) ;
#60 = COORDINATED_UNIVERSAL_TIME_OFFSET ( 1, 0, .AHEAD. ) ;
#61 = COORDINATED_UNIVERSAL_TIME_OFFSET ( 1, 0, .AHEAD. ) ;
#62 = DIRECTION ( 'NONE',  ( -1.000000000000000000, 0.000000000000000000, 0.000000000000000000 ) ) ;
#63 = SECURITY_CLASSIFICATION ( '', '', #10 ) ;
#64 = DIRECTION ( 'NONE',  ( 1.000000000000000000, 0.000000000000000000, 0.000000000000000000 ) ) ;
#65 = DATE_AND_TIME ( #11, #294 ) ;
#66 = FACE_OUTER_BOUND ( 'NONE', #91, .T. ) ;
#67 = COORDINATED_UNIVERSAL_TIME_OFFSET ( 1, 0, .AHEAD. ) ;
#68 = CARTESIAN_POINT ( 'NONE',  ( -7.000000000000000000, 0.000000000000000000, 5.000000000000000000 ) ) ;
#69 = TOROIDAL_SURFACE ( 'NONE', #222, 4.500000000000000888, 0.5000000000000000000 ) ;
#70 = AXIS2_PLACEMENT_3D ( 'NONE', #160, #338, #221 ) ;
#71 = APPROVAL_PERSON_ORGANIZATION ( #237, #292, #324 ) ;
#72 = CARTESIAN_POINT ( 'NONE',  ( 0.000000000000000000, 0.000000000000000000, 5.500000000000005329 ) ) ;
#73 = CARTESIAN_POINT ( 'NONE',  ( 7.000000000000000000, 8.572527594031473190E-16, 5.000000000000000000 ) ) ;
#74 = VERTEX_POINT ( 'NONE', #68 ) ;
#75 = DIRECTION ( 'NONE',  ( 0.000000000000000000, 0.000000000000000000, 1.000000000000000000 ) ) ;
#76 = DIRECTION ( 'NONE',  ( 0.000000000000000000, 0.000000000000000000, 1.000000000000000000 ) ) ;
#77 = ORIENTED_EDGE ( 'NONE', *, *, #328, .F. ) ;
#78 = CC_DESIGN_PERSON_AND_ORGANIZATION_ASSIGNMENT ( #264, #358, ( #232 ) ) ;
#79 = CARTESIAN_POINT ( 'NONE',  ( -2.000000000000000000, 0.000000000000000000, 0.000000000000000000 ) ) ;
#80 = CIRCLE ( 'NONE', #371, 7.000000000000000000 ) ;
#81 = ORIENTED_EDGE ( 'NONE', *, *, #196, .T. ) ;
#82 = DIRECTION ( 'NONE',  ( 1.000000000000000000, 0.000000000000000000, 0.000000000000000000 ) ) ;
#83 = ADVANCED_FACE ( 'NONE', ( #66 ), #368, .T. ) ;
#84 = CARTESIAN_POINT ( 'NONE',  ( 7.000000000000000000, 8.572527594031473190E-16, 0.000000000000000000 ) ) ;
#85 = CIRCLE ( 'NONE', #286, 2.000000000000000000 ) ;
#86 = CARTESIAN_POINT ( 'NONE',  ( 0.000000000000000000, 0.000000000000000000, 80.00000000000000000 ) ) ;
#87 = AXIS2_PLACEMENT_3D ( 'NONE', #373, #75, #129 ) ;
#88 = PERSON_AND_ORGANIZATION ( #57, #353 ) ;
#89 = DIRECTION ( 'NONE',  ( 1.000000000000000000, 0.000000000000000000, 0.000000000000000000 ) ) ;
#90 = DATE_TIME_ROLE ( 'creation_date' ) ;
#91 = EDGE_LOOP ( 'NONE', ( #53, #331, #55, #135 ) ) ;
#92 = APPLICATION_PROTOCOL_DEFINITION ( 'international standard', 'config_control_design', 1994, #288 ) ;
#93 = DATE_AND_TIME ( #362, #377 ) ;
#94 = ADVANCED_FACE ( 'NONE', ( #366 ), #186, .T. ) ;
#95 = VERTEX_POINT ( 'NONE', #298 ) ;
#96 = ORIENTED_EDGE ( 'NONE', *, *, #131, .T. ) ;
#97 = UNCERTAINTY_MEASURE_WITH_UNIT (LENGTH_MEASURE( 1.000000000000000082E-05 ), #289, 'distance_accuracy_value', 'NONE');
#98 = PRODUCT_RELATED_PRODUCT_CATEGORY ( 'detail', '', ( #124 ) ) ;
#99 = AXIS2_PLACEMENT_3D ( 'NONE', #354, #143, #312 ) ;
#100 = AXIS2_PLACEMENT_3D ( 'NONE', #348, #76, #82 ) ;
#101 = DIRECTION ( 'NONE',  ( 0.000000000000000000, 0.000000000000000000, 1.000000000000000000 ) ) ;
#102 = ORIENTED_EDGE ( 'NONE', *, *, #138, .T. ) ;
#103 = DIRECTION ( 'NONE',  ( 0.000000000000000000, 0.000000000000000000, 1.000000000000000000 ) ) ;
#104 = ORIENTED_EDGE ( 'NONE', *, *, #131, .F. ) ;
#105 = CARTESIAN_POINT ( 'NONE',  ( 0.000000000000000000, 0.000000000000000000, 80.00000000000000000 ) ) ;
#106 = VECTOR ( 'NONE', #158, 1000.000000000000000 ) ;
#107 = DIRECTION ( 'NONE',  ( -0.000000000000000000, -0.000000000000000000, -1.000000000000000000 ) ) ;
#108 = ORIENTED_EDGE ( 'NONE', *, *, #380, .T. ) ;
#109 = PLANE ( 'NONE',  #370 ) ;
#110 = ORIENTED_EDGE ( 'NONE', *, *, #44, .T. ) ;
#111 = CIRCLE ( 'NONE', #254, 4.500000000000000888 ) ;
#112 = CARTESIAN_POINT ( 'NONE',  ( 4.500000000000000888, 0.000000000000000000, 5.000000000000002665 ) ) ;
#113 = DIRECTION ( 'NONE',  ( 0.000000000000000000, 0.000000000000000000, -1.000000000000000000 ) ) ;
#114 = CIRCLE ( 'NONE', #334, 4.000000000000000000 ) ;
#115 = AXIS2_PLACEMENT_3D ( 'NONE', #105, #223, #45 ) ;
#116 = CC_DESIGN_APPROVAL ( #225, ( #63 ) ) ;
#117 = DIRECTION ( 'NONE',  ( 0.000000000000000000, 0.000000000000000000, -1.000000000000000000 ) ) ;
#118 = ORIENTED_EDGE ( 'NONE', *, *, #218, .T. ) ;
#119 = PERSON_AND_ORGANIZATION ( #57, #353 ) ;
#120 = CARTESIAN_POINT ( 'NONE',  ( 0.000000000000000000, 0.000000000000000000, 5.500000000000005329 ) ) ;
#121 = ORIENTED_EDGE ( 'NONE', *, *, #351, .T. ) ;
#122 = EDGE_CURVE ( 'NONE', #230, #31, #114, .T. ) ;
#123 = CARTESIAN_POINT ( 'NONE',  ( 4.000000000000000000, 4.898587196589412829E-16, 5.500000000000005329 ) ) ;
#124 = PRODUCT ( 'b9f9', 'b9f9', '', ( #34 ) ) ;
#125 = CIRCLE ( 'NONE', #235, 4.000000000000000000 ) ;
#126 = PLANE ( 'NONE',  #280 ) ;
#127 = CARTESIAN_POINT ( 'NONE',  ( 0.000000000000000000, 0.000000000000000000, 0.000000000000000000 ) ) ;
#128 = EDGE_LOOP ( 'NONE', ( #165, #20, #246, #96 ) ) ;
#129 = DIRECTION ( 'NONE',  ( 1.000000000000000000, 0.000000000000000000, 0.000000000000000000 ) ) ;
#130 = ORIENTED_EDGE ( 'NONE', *, *, #122, .F. ) ;
#131 = EDGE_CURVE ( 'NONE', #31, #230, #142, .T. ) ;
#132 = CC_DESIGN_PERSON_AND_ORGANIZATION_ASSIGNMENT ( #271, #37, ( #270 ) ) ;
#133 = CARTESIAN_POINT ( 'NONE',  ( -2.000000000000000000, 0.000000000000000000, 80.00000000000000000 ) ) ;
#134 = CIRCLE ( 'NONE', #115, 4.000000000000000000 ) ;
#135 = ORIENTED_EDGE ( 'NONE', *, *, #351, .F. ) ;
#136 = CYLINDRICAL_SURFACE ( 'NONE', #244, 2.000000000000000000 ) ;
#137 = ORIENTED_EDGE ( 'NONE', *, *, #42, .F. ) ;
#138 = EDGE_CURVE ( 'NONE', #245, #352, #314, .T. ) ;
#139 = PLANE ( 'NONE',  #162 ) ;
#140 = VERTEX_POINT ( 'NONE', #200 ) ;
#141 = DIRECTION ( 'NONE',  ( 0.000000000000000000, 0.000000000000000000, -1.000000000000000000 ) ) ;
#142 = CIRCLE ( 'NONE', #365, 4.000000000000000000 ) ;
#143 = DIRECTION ( 'NONE',  ( 0.000000000000000000, 0.000000000000000000, 1.000000000000000000 ) ) ;
#144 = CARTESIAN_POINT ( 'NONE',  ( 0.000000000000000000, 0.000000000000000000, 0.000000000000000000 ) ) ;
#145 = CALENDAR_DATE ( 2022, 8, 7 ) ;
#146 = EDGE_CURVE ( 'NONE', #140, #230, #191, .T. ) ;
#147 = DIRECTION ( 'NONE',  ( 1.000000000000000000, 0.000000000000000000, 0.000000000000000000 ) ) ;
#148 = CARTESIAN_POINT ( 'NONE',  ( 0.000000000000000000, 0.000000000000000000, 5.000000000000000000 ) ) ;
#149 = CALENDAR_DATE ( 2022, 8, 7 ) ;
#150 = EDGE_CURVE ( 'NONE', #230, #347, #337, .T. ) ;
#151 = CYLINDRICAL_SURFACE ( 'NONE', #340, 2.000000000000000000 ) ;
#152 = APPROVAL_ROLE ( '' ) ;
#153 = DIRECTION ( 'NONE',  ( -1.000000000000000000, 0.000000000000000000, 0.000000000000000000 ) ) ;
#154 = AXIS2_PLACEMENT_3D ( 'NONE', #277, #376, #339 ) ;
#155 = CARTESIAN_POINT ( 'NONE',  ( 0.000000000000000000, 0.000000000000000000, 0.000000000000000000 ) ) ;
#156 = DIRECTION ( 'NONE',  ( 1.000000000000000000, 0.000000000000000000, 0.000000000000000000 ) ) ;
#157 = DESIGN_CONTEXT ( 'detailed design', #255, 'design' ) ;
#158 = DIRECTION ( 'NONE',  ( -0.000000000000000000, -0.000000000000000000, -1.000000000000000000 ) ) ;
#159 = EDGE_CURVE ( 'NONE', #201, #378, #306, .T. ) ;
#160 = CARTESIAN_POINT ( 'NONE',  ( 0.000000000000000000, 0.000000000000000000, 5.000000000000000000 ) ) ;
#161 = ORIENTED_EDGE ( 'NONE', *, *, #336, .F. ) ;
#162 = AXIS2_PLACEMENT_3D ( 'NONE', #2, #51, #356 ) ;
#163 = DIRECTION ( 'NONE',  ( 1.000000000000000000, 0.000000000000000000, 0.000000000000000000 ) ) ;
#164 = CARTESIAN_POINT ( 'NONE',  ( 2.000000000000000000, 2.449293598294706414E-16, 0.000000000000000000 ) ) ;
#165 = ORIENTED_EDGE ( 'NONE', *, *, #146, .F. ) ;
#166 = DIRECTION ( 'NONE',  ( 0.000000000000000000, 0.000000000000000000, 1.000000000000000000 ) ) ;
#167 = EDGE_LOOP ( 'NONE', ( #81, #108, #102, #205 ) ) ;
#168 = LINE ( 'NONE', #59, #307 ) ;
#169 = CIRCLE ( 'NONE', #302, 7.000000000000000000 ) ;
#170 = ORIENTED_EDGE ( 'NONE', *, *, #138, .F. ) ;
#171 = FACE_OUTER_BOUND ( 'NONE', #26, .T. ) ;
#172 = CARTESIAN_POINT ( 'NONE',  ( 2.000000000000000000, 2.449293598294706414E-16, 80.00000000000000000 ) ) ;
#173 = DIRECTION ( 'NONE',  ( -1.000000000000000000, 0.000000000000000000, 0.000000000000000000 ) ) ;
#174 = DIRECTION ( 'NONE',  ( 0.000000000000000000, 0.000000000000000000, 1.000000000000000000 ) ) ;
#175 = AXIS2_PLACEMENT_3D ( 'NONE', #194, #304, #197 ) ;
#176 = CARTESIAN_POINT ( 'NONE',  ( 0.000000000000000000, 0.000000000000000000, 80.00000000000000000 ) ) ;
#177 = DATE_AND_TIME ( #240, #13 ) ;
#178 = CLOSED_SHELL ( 'NONE', ( #48, #50, #184, #83, #282, #346, #323, #94, #287, #279, #311 ) ) ;
#179 = PERSON_AND_ORGANIZATION_ROLE ( 'design_supplier' ) ;
#180 = ORIENTED_EDGE ( 'NONE', *, *, #380, .F. ) ;
#181 = COORDINATED_UNIVERSAL_TIME_OFFSET ( 1, 0, .AHEAD. ) ;
#182 = EDGE_LOOP ( 'NONE', ( #104, #199, #39, #275 ) ) ;
#183 = CC_DESIGN_DATE_AND_TIME_ASSIGNMENT ( #177, #332, ( #63 ) ) ;
#184 = ADVANCED_FACE ( 'NONE', ( #21 ), #335, .T. ) ;
#185 = DIRECTION ( 'NONE',  ( 0.000000000000000000, 0.000000000000000000, 1.000000000000000000 ) ) ;
#186 = CYLINDRICAL_SURFACE ( 'NONE', #216, 4.000000000000000000 ) ;
#187 = DATE_AND_TIME ( #145, #281 ) ;
#188 = MANIFOLD_SOLID_BREP ( 'Odebrat vysunutím3', #178 ) ;
#189 = DIRECTION ( 'NONE',  ( -0.000000000000000000, -0.000000000000000000, -1.000000000000000000 ) ) ;
#190 =( GEOMETRIC_REPRESENTATION_CONTEXT ( 3 ) GLOBAL_UNCERTAINTY_ASSIGNED_CONTEXT ( ( #97 ) ) GLOBAL_UNIT_ASSIGNED_CONTEXT ( ( #289, #29, #322 ) ) REPRESENTATION_CONTEXT ( 'NONE', 'WORKASPACE' ) );
#191 = LINE ( 'NONE', #192, #343 ) ;
#192 = CARTESIAN_POINT ( 'NONE',  ( 4.000000000000000000, 4.898587196589412829E-16, 80.00000000000000000 ) ) ;
#193 = EDGE_LOOP ( 'NONE', ( #228, #110 ) ) ;
#194 = CARTESIAN_POINT ( 'NONE',  ( 4.500000000000000888, 0.000000000000000000, 5.500000000000005329 ) ) ;
#195 = PRODUCT_DEFINITION_SHAPE ( 'NONE', 'NONE',  #270 ) ;
#196 = EDGE_CURVE ( 'NONE', #250, #95, #33, .T. ) ;
#197 = DIRECTION ( 'NONE',  ( 0.000000000000000000, 0.000000000000000000, -1.000000000000000000 ) ) ;
#198 = CC_DESIGN_DATE_AND_TIME_ASSIGNMENT ( #65, #90, ( #270 ) ) ;
#199 = ORIENTED_EDGE ( 'NONE', *, *, #290, .T. ) ;
#200 = CARTESIAN_POINT ( 'NONE',  ( 4.000000000000000000, 4.898587196589412829E-16, 80.00000000000000000 ) ) ;
#201 = VERTEX_POINT ( 'NONE', #19 ) ;
#202 = EDGE_LOOP ( 'NONE', ( #24, #256, #274, #77 ) ) ;
#203 = FACE_OUTER_BOUND ( 'NONE', #224, .T. ) ;
#204 = APPROVAL_PERSON_ORGANIZATION ( #239, #225, #209 ) ;
#205 = ORIENTED_EDGE ( 'NONE', *, *, #28, .F. ) ;
#206 = DIRECTION ( 'NONE',  ( -1.000000000000000000, 0.000000000000000000, 0.000000000000000000 ) ) ;
#207 = APPROVAL ( #291, 'NEURÈENÝ' ) ;
#208 = CC_DESIGN_APPROVAL ( #207, ( #270 ) ) ;
#209 = APPROVAL_ROLE ( '' ) ;
#210 = CARTESIAN_POINT ( 'NONE',  ( 0.000000000000000000, 0.000000000000000000, 80.00000000000000000 ) ) ;
#211 = APPROVAL_DATE_TIME ( #330, #292 ) ;
#212 = CARTESIAN_POINT ( 'NONE',  ( 0.000000000000000000, 0.000000000000000000, 5.500000000000005329 ) ) ;
#213 = CARTESIAN_POINT ( 'NONE',  ( 0.000000000000000000, 0.000000000000000000, 5.000000000000000000 ) ) ;
#214 = APPROVAL_DATE_TIME ( #93, #207 ) ;
#215 = CARTESIAN_POINT ( 'NONE',  ( -2.000000000000000000, 0.000000000000000000, 80.00000000000000000 ) ) ;
#216 = AXIS2_PLACEMENT_3D ( 'NONE', #272, #12, #173 ) ;
#217 = DIRECTION ( 'NONE',  ( -0.000000000000000000, -0.000000000000000000, -1.000000000000000000 ) ) ;
#218 = EDGE_CURVE ( 'NONE', #374, #378, #169, .T. ) ;
#219 = AXIS2_PLACEMENT_3D ( 'NONE', #283, #227, #23 ) ;
#220 = DIRECTION ( 'NONE',  ( 1.000000000000000000, 0.000000000000000000, 0.000000000000000000 ) ) ;
#221 = DIRECTION ( 'NONE',  ( -1.000000000000000000, 0.000000000000000000, 0.000000000000000000 ) ) ;
#222 = AXIS2_PLACEMENT_3D ( 'NONE', #212, #58, #64 ) ;
#223 = DIRECTION ( 'NONE',  ( 0.000000000000000000, 0.000000000000000000, 1.000000000000000000 ) ) ;
#224 = EDGE_LOOP ( 'NONE', ( #180, #1, #313, #329 ) ) ;
#225 = APPROVAL ( #364, 'NEURÈENÝ' ) ;
#226 = EDGE_LOOP ( 'NONE', ( #268, #130, #242, #46 ) ) ;
#227 = DIRECTION ( 'NONE',  ( 1.224646799147353207E-16, 1.000000000000000000, -0.000000000000000000 ) ) ;
#228 = ORIENTED_EDGE ( 'NONE', *, *, #32, .T. ) ;
#229 = DIRECTION ( 'NONE',  ( -0.000000000000000000, -0.000000000000000000, -1.000000000000000000 ) ) ;
#230 = VERTEX_POINT ( 'NONE', #123 ) ;
#231 = CARTESIAN_POINT ( 'NONE',  ( -4.000000000000000000, 0.000000000000000000, 80.00000000000000000 ) ) ;
#232 = PRODUCT_DEFINITION_FORMATION_WITH_SPECIFIED_SOURCE ( 'LIBOVOLNÝ', '', #124, .NOT_KNOWN. ) ;
#233 = ORIENTED_EDGE ( 'NONE', *, *, #196, .F. ) ;
#234 = EDGE_CURVE ( 'NONE', #140, #276, #134, .T. ) ;
#235 = AXIS2_PLACEMENT_3D ( 'NONE', #176, #174, #253 ) ;
#236 = DIRECTION ( 'NONE',  ( 1.000000000000000000, 0.000000000000000000, 0.000000000000000000 ) ) ;
#237 = PERSON_AND_ORGANIZATION ( #57, #353 ) ;
#238 = DIRECTION ( 'NONE',  ( -0.000000000000000000, -0.000000000000000000, -1.000000000000000000 ) ) ;
#239 = PERSON_AND_ORGANIZATION ( #57, #353 ) ;
#240 = CALENDAR_DATE ( 2022, 8, 7 ) ;
#241 = DIRECTION ( 'NONE',  ( 0.000000000000000000, 0.000000000000000000, 1.000000000000000000 ) ) ;
#242 = ORIENTED_EDGE ( 'NONE', *, *, #150, .T. ) ;
#243 = FACE_OUTER_BOUND ( 'NONE', #226, .T. ) ;
#244 = AXIS2_PLACEMENT_3D ( 'NONE', #86, #113, #206 ) ;
#245 = VERTEX_POINT ( 'NONE', #164 ) ;
#246 = ORIENTED_EDGE ( 'NONE', *, *, #328, .T. ) ;
#247 = AXIS2_PLACEMENT_3D ( 'NONE', #17, #107, #47 ) ;
#248 = AXIS2_PLACEMENT_3D ( 'NONE', #155, #185, #147 ) ;
#249 = CARTESIAN_POINT ( 'NONE',  ( -4.000000000000000000, 0.000000000000000000, 80.00000000000000000 ) ) ;
#250 = VERTEX_POINT ( 'NONE', #133 ) ;
#251 = LINE ( 'NONE', #231, #359 ) ;
#252 = ORIENTED_EDGE ( 'NONE', *, *, #310, .T. ) ;
#253 = DIRECTION ( 'NONE',  ( 1.000000000000000000, 0.000000000000000000, 0.000000000000000000 ) ) ;
#254 = AXIS2_PLACEMENT_3D ( 'NONE', #148, #238, #236 ) ;
#255 = APPLICATION_CONTEXT ( 'configuration controlled 3d designs of mechanical parts and assemblies' ) ;
#256 = ORIENTED_EDGE ( 'NONE', *, *, #146, .T. ) ;
#257 = DIRECTION ( 'NONE',  ( 0.000000000000000000, 0.000000000000000000, 1.000000000000000000 ) ) ;
#258 = CC_DESIGN_SECURITY_CLASSIFICATION ( #63, ( #232 ) ) ;
#259 = CARTESIAN_POINT ( 'NONE',  ( -4.500000000000000888, 5.510910596163088569E-16, 5.000000000000002665 ) ) ;
#260 = CIRCLE ( 'NONE', #99, 7.000000000000000000 ) ;
#261 = EDGE_LOOP ( 'NONE', ( #137, #170 ) ) ;
#262 = PERSON_AND_ORGANIZATION_ROLE ( 'classification_officer' ) ;
#263 = FACE_OUTER_BOUND ( 'NONE', #167, .T. ) ;
#264 = PERSON_AND_ORGANIZATION ( #57, #353 ) ;
#265 = CARTESIAN_POINT ( 'NONE',  ( -4.000000000000000000, 0.000000000000000000, 5.500000000000005329 ) ) ;
#266 = VECTOR ( 'NONE', #117, 1000.000000000000000 ) ;
#267 = APPROVAL_STATUS ( 'not_yet_approved' ) ;
#268 = ORIENTED_EDGE ( 'NONE', *, *, #290, .F. ) ;
#269 = VECTOR ( 'NONE', #141, 1000.000000000000000 ) ;
#270 = PRODUCT_DEFINITION ( 'NEZNÁMÝ', '', #232, #157 ) ;
#271 = PERSON_AND_ORGANIZATION ( #57, #353 ) ;
#272 = CARTESIAN_POINT ( 'NONE',  ( 0.000000000000000000, 0.000000000000000000, 80.00000000000000000 ) ) ;
#273 = FACE_OUTER_BOUND ( 'NONE', #355, .T. ) ;
#274 = ORIENTED_EDGE ( 'NONE', *, *, #122, .T. ) ;
#275 = ORIENTED_EDGE ( 'NONE', *, *, #150, .F. ) ;
#276 = VERTEX_POINT ( 'NONE', #249 ) ;
#277 = CARTESIAN_POINT ( 'NONE',  ( 0.000000000000000000, 0.000000000000000000, 80.00000000000000000 ) ) ;
#278 = EDGE_LOOP ( 'NONE', ( #14, #161 ) ) ;
#279 = ADVANCED_FACE ( 'NONE', ( #243 ), #27, .F. ) ;
#280 = AXIS2_PLACEMENT_3D ( 'NONE', #372, #103, #350 ) ;
#281 = LOCAL_TIME ( 17, 32, 47.00000000000000000, #67 ) ;
#282 = ADVANCED_FACE ( 'NONE', ( #43 ), #369, .T. ) ;
#283 = CARTESIAN_POINT ( 'NONE',  ( -4.500000000000000888, 5.510910596163089556E-16, 5.500000000000005329 ) ) ;
#284 = ORIENTED_EDGE ( 'NONE', *, *, #360, .T. ) ;
#285 = ORIENTED_EDGE ( 'NONE', *, *, #234, .T. ) ;
#286 = AXIS2_PLACEMENT_3D ( 'NONE', #361, #35, #89 ) ;
#287 = ADVANCED_FACE ( 'NONE', ( #305, #273 ), #126, .T. ) ;
#288 = APPLICATION_CONTEXT ( 'configuration controlled 3d designs of mechanical parts and assemblies' ) ;
#289 =( LENGTH_UNIT ( ) NAMED_UNIT ( * ) SI_UNIT ( .MILLI., .METRE. ) );
#290 = EDGE_CURVE ( 'NONE', #31, #301, #5, .T. ) ;
#291 = APPROVAL_STATUS ( 'not_yet_approved' ) ;
#292 = APPROVAL ( #267, 'NEURÈENÝ' ) ;
#293 = FACE_OUTER_BOUND ( 'NONE', #182, .T. ) ;
#294 = LOCAL_TIME ( 17, 32, 47.00000000000000000, #181 ) ;
#295 = PERSON_AND_ORGANIZATION ( #57, #353 ) ;
#296 = DIRECTION ( 'NONE',  ( 1.000000000000000000, 0.000000000000000000, 0.000000000000000000 ) ) ;
#297 = COORDINATED_UNIVERSAL_TIME_OFFSET ( 1, 0, .AHEAD. ) ;
#298 = CARTESIAN_POINT ( 'NONE',  ( 2.000000000000000000, 2.449293598294706414E-16, 80.00000000000000000 ) ) ;
#299 = APPROVAL_DATE_TIME ( #187, #225 ) ;
#300 = ADVANCED_BREP_SHAPE_REPRESENTATION ( 'b9f9', ( #188, #248 ), #190 ) ;
#301 = VERTEX_POINT ( 'NONE', #259 ) ;
#302 = AXIS2_PLACEMENT_3D ( 'NONE', #127, #16, #308 ) ;
#303 = CC_DESIGN_APPROVAL ( #292, ( #232 ) ) ;
#304 = DIRECTION ( 'NONE',  ( 0.000000000000000000, -1.000000000000000000, 0.000000000000000000 ) ) ;
#305 = FACE_BOUND ( 'NONE', #49, .T. ) ;
#306 = LINE ( 'NONE', #73, #106 ) ;
#307 = VECTOR ( 'NONE', #229, 1000.000000000000000 ) ;
#308 = DIRECTION ( 'NONE',  ( 1.000000000000000000, 0.000000000000000000, 0.000000000000000000 ) ) ;
#309 = ORIENTED_EDGE ( 'NONE', *, *, #325, .T. ) ;
#310 = EDGE_CURVE ( 'NONE', #201, #74, #260, .T. ) ;
#311 = ADVANCED_FACE ( 'NONE', ( #203 ), #136, .F. ) ;
#312 = DIRECTION ( 'NONE',  ( 1.000000000000000000, 0.000000000000000000, 0.000000000000000000 ) ) ;
#313 = ORIENTED_EDGE ( 'NONE', *, *, #28, .T. ) ;
#314 = CIRCLE ( 'NONE', #247, 2.000000000000000000 ) ;
#315 = LOCAL_TIME ( 17, 32, 47.00000000000000000, #60 ) ;
#316 = FACE_BOUND ( 'NONE', #261, .T. ) ;
#317 = ORIENTED_EDGE ( 'NONE', *, *, #159, .F. ) ;
#318 = FACE_BOUND ( 'NONE', #193, .T. ) ;
#319 = ORIENTED_EDGE ( 'NONE', *, *, #15, .F. ) ;
#320 = DIRECTION ( 'NONE',  ( 0.000000000000000000, 0.000000000000000000, 1.000000000000000000 ) ) ;
#321 = CIRCLE ( 'NONE', #40, 2.000000000000000000 ) ;
#322 =( NAMED_UNIT ( * ) SI_UNIT ( $, .STERADIAN. ) SOLID_ANGLE_UNIT ( ) );
#323 = ADVANCED_FACE ( 'NONE', ( #316, #25 ), #109, .F. ) ;
#324 = APPROVAL_ROLE ( '' ) ;
#325 = EDGE_CURVE ( 'NONE', #74, #201, #80, .T. ) ;
#326 = DIRECTION ( 'NONE',  ( 0.000000000000000000, 0.000000000000000000, 1.000000000000000000 ) ) ;
#327 = APPLICATION_PROTOCOL_DEFINITION ( 'international standard', 'config_control_design', 1994, #255 ) ;
#328 = EDGE_CURVE ( 'NONE', #276, #31, #251, .T. ) ;
#329 = ORIENTED_EDGE ( 'NONE', *, *, #42, .T. ) ;
#330 = DATE_AND_TIME ( #149, #315 ) ;
#331 = ORIENTED_EDGE ( 'NONE', *, *, #159, .T. ) ;
#332 = DATE_TIME_ROLE ( 'classification_date' ) ;
#333 = DIRECTION ( 'NONE',  ( 0.000000000000000000, 0.000000000000000000, -1.000000000000000000 ) ) ;
#334 = AXIS2_PLACEMENT_3D ( 'NONE', #120, #241, #367 ) ;
#335 = CYLINDRICAL_SURFACE ( 'NONE', #154, 4.000000000000000000 ) ;
#336 = EDGE_CURVE ( 'NONE', #378, #374, #18, .T. ) ;
#337 = CIRCLE ( 'NONE', #175, 0.5000000000000004441 ) ;
#338 = DIRECTION ( 'NONE',  ( -0.000000000000000000, -0.000000000000000000, -1.000000000000000000 ) ) ;
#339 = DIRECTION ( 'NONE',  ( -1.000000000000000000, 0.000000000000000000, 0.000000000000000000 ) ) ;
#340 = AXIS2_PLACEMENT_3D ( 'NONE', #210, #333, #62 ) ;
#341 = AXIS2_PLACEMENT_3D ( 'NONE', #363, #217, #156 ) ;
#342 = DIRECTION ( 'NONE',  ( -0.000000000000000000, -0.000000000000000000, -1.000000000000000000 ) ) ;
#343 = VECTOR ( 'NONE', #342, 1000.000000000000000 ) ;
#344 = APPROVAL_PERSON_ORGANIZATION ( #295, #207, #152 ) ;
#345 = CARTESIAN_POINT ( 'NONE',  ( 0.000000000000000000, 0.000000000000000000, 5.500000000000005329 ) ) ;
#346 = ADVANCED_FACE ( 'NONE', ( #318, #171 ), #139, .T. ) ;
#347 = VERTEX_POINT ( 'NONE', #112 ) ;
#348 = CARTESIAN_POINT ( 'NONE',  ( 0.000000000000000000, 0.000000000000000000, 0.000000000000000000 ) ) ;
#349 = EDGE_LOOP ( 'NONE', ( #317, #8, #121, #118 ) ) ;
#350 = DIRECTION ( 'NONE',  ( 1.000000000000000000, 0.000000000000000000, -0.000000000000000000 ) ) ;
#351 = EDGE_CURVE ( 'NONE', #74, #374, #168, .T. ) ;
#352 = VERTEX_POINT ( 'NONE', #79 ) ;
#353 = ORGANIZATION ( 'NEURÈENÝ', 'NEURÈENÝ', '' ) ;
#354 = CARTESIAN_POINT ( 'NONE',  ( 0.000000000000000000, 0.000000000000000000, 5.000000000000000000 ) ) ;
#355 = EDGE_LOOP ( 'NONE', ( #284, #285 ) ) ;
#356 = DIRECTION ( 'NONE',  ( 1.000000000000000000, 0.000000000000000000, -0.000000000000000000 ) ) ;
#357 = AXIS2_PLACEMENT_3D ( 'NONE', #213, #189, #153 ) ;
#358 = PERSON_AND_ORGANIZATION_ROLE ( 'creator' ) ;
#359 = VECTOR ( 'NONE', #379, 1000.000000000000000 ) ;
#360 = EDGE_CURVE ( 'NONE', #276, #140, #125, .T. ) ;
#361 = CARTESIAN_POINT ( 'NONE',  ( 0.000000000000000000, 0.000000000000000000, 0.000000000000000000 ) ) ;
#362 = CALENDAR_DATE ( 2022, 8, 7 ) ;
#363 = CARTESIAN_POINT ( 'NONE',  ( 0.000000000000000000, 0.000000000000000000, 5.000000000000000000 ) ) ;
#364 = APPROVAL_STATUS ( 'not_yet_approved' ) ;
#365 = AXIS2_PLACEMENT_3D ( 'NONE', #72, #166, #163 ) ;
#366 = FACE_OUTER_BOUND ( 'NONE', #128, .T. ) ;
#367 = DIRECTION ( 'NONE',  ( 1.000000000000000000, 0.000000000000000000, 0.000000000000000000 ) ) ;
#368 = CYLINDRICAL_SURFACE ( 'NONE', #357, 7.000000000000000000 ) ;
#369 = CYLINDRICAL_SURFACE ( 'NONE', #70, 7.000000000000000000 ) ;
#370 = AXIS2_PLACEMENT_3D ( 'NONE', #144, #320, #3 ) ;
#371 = AXIS2_PLACEMENT_3D ( 'NONE', #4, #257, #54 ) ;
#372 = CARTESIAN_POINT ( 'NONE',  ( 0.000000000000000000, 0.000000000000000000, 80.00000000000000000 ) ) ;
#373 = CARTESIAN_POINT ( 'NONE',  ( 0.000000000000000000, 0.000000000000000000, 80.00000000000000000 ) ) ;
#374 = VERTEX_POINT ( 'NONE', #381 ) ;
#375 = CC_DESIGN_PERSON_AND_ORGANIZATION_ASSIGNMENT ( #119, #262, ( #63 ) ) ;
#376 = DIRECTION ( 'NONE',  ( -0.000000000000000000, -0.000000000000000000, -1.000000000000000000 ) ) ;
#377 = LOCAL_TIME ( 17, 32, 47.00000000000000000, #61 ) ;
#378 = VERTEX_POINT ( 'NONE', #84 ) ;
#379 = DIRECTION ( 'NONE',  ( -0.000000000000000000, -0.000000000000000000, -1.000000000000000000 ) ) ;
#380 = EDGE_CURVE ( 'NONE', #95, #245, #56, .T. ) ;
#381 = CARTESIAN_POINT ( 'NONE',  ( -7.000000000000000000, 0.000000000000000000, 0.000000000000000000 ) ) ;
ENDSEC;
END-ISO-10303-21;
