ISO-10303-21;
HEADER;
FILE_DESCRIPTION (( 'STEP AP203' ),
    '1' );
FILE_NAME ('4482.STEP',
    '2022-07-08T15:02:34',
    ( '' ),
    ( '' ),
    'SwSTEP 2.0',
    'SolidWorks 2019',
    '' );
FILE_SCHEMA (( 'CONFIG_CONTROL_DESIGN' ));
ENDSEC;

DATA;
#1 = DIRECTION ( 'NONE',  ( 1.000000000000000000, 0.000000000000000000, 0.000000000000000000 ) ) ;
#2 = AXIS2_PLACEMENT_3D ( 'NONE', #343, #82, #22 ) ;
#3 = APPROVAL ( #363, 'NEURÈENÝ' ) ;
#4 = PLANE ( 'NONE',  #123 ) ;
#5 = AXIS2_PLACEMENT_3D ( 'NONE', #121, #203, #354 ) ;
#6 = CARTESIAN_POINT ( 'NONE',  ( 0.000000000000000000, 0.000000000000000000, 0.000000000000000000 ) ) ;
#7 = EDGE_LOOP ( 'NONE', ( #364, #214, #136, #157 ) ) ;
#8 = ORIENTED_EDGE ( 'NONE', *, *, #91, .F. ) ;
#9 = DIRECTION ( 'NONE',  ( 0.000000000000000000, 0.000000000000000000, 1.000000000000000000 ) ) ;
#10 = UNCERTAINTY_MEASURE_WITH_UNIT (LENGTH_MEASURE( 1.000000000000000082E-05 ), #324, 'distance_accuracy_value', 'NONE');
#11 = ADVANCED_FACE ( 'NONE', ( #51 ), #165, .F. ) ;
#12 = LOCAL_TIME ( 17, 2, 34.00000000000000000, #137 ) ;
#13 = VERTEX_POINT ( 'NONE', #302 ) ;
#14 = ORIENTED_EDGE ( 'NONE', *, *, #179, .T. ) ;
#15 = PERSON_AND_ORGANIZATION_ROLE ( 'creator' ) ;
#16 = CC_DESIGN_PERSON_AND_ORGANIZATION_ASSIGNMENT ( #249, #15, ( #52 ) ) ;
#17 = ORIENTED_EDGE ( 'NONE', *, *, #265, .T. ) ;
#18 = COORDINATED_UNIVERSAL_TIME_OFFSET ( 1, 0, .AHEAD. ) ;
#19 = CIRCLE ( 'NONE', #360, 2.750000000000000000 ) ;
#20 = ORIENTED_EDGE ( 'NONE', *, *, #298, .T. ) ;
#21 = PERSON_AND_ORGANIZATION ( #215, #226 ) ;
#22 = DIRECTION ( 'NONE',  ( 0.000000000000000000, 0.000000000000000000, -1.000000000000000000 ) ) ;
#23 = ADVANCED_FACE ( 'NONE', ( #103 ), #319, .F. ) ;
#24 = CARTESIAN_POINT ( 'NONE',  ( 0.000000000000000000, 0.000000000000000000, 7.000000000000000000 ) ) ;
#25 = CC_DESIGN_SECURITY_CLASSIFICATION ( #185, ( #52 ) ) ;
#26 = DIRECTION ( 'NONE',  ( 0.000000000000000000, 0.000000000000000000, 1.000000000000000000 ) ) ;
#27 = DIRECTION ( 'NONE',  ( 1.000000000000000000, 0.000000000000000000, 0.000000000000000000 ) ) ;
#28 = ADVANCED_FACE ( 'NONE', ( #217 ), #77, .T. ) ;
#29 = CARTESIAN_POINT ( 'NONE',  ( 0.000000000000000000, 0.000000000000000000, 7.500000000000007105 ) ) ;
#30 = APPROVAL_PERSON_ORGANIZATION ( #244, #3, #247 ) ;
#31 = CARTESIAN_POINT ( 'NONE',  ( 0.000000000000000000, 0.000000000000000000, 7.000000000000000000 ) ) ;
#32 = CC_DESIGN_PERSON_AND_ORGANIZATION_ASSIGNMENT ( #337, #158, ( #94 ) ) ;
#33 = ORIENTED_EDGE ( 'NONE', *, *, #55, .T. ) ;
#34 = CARTESIAN_POINT ( 'NONE',  ( 0.000000000000000000, 0.000000000000000000, 0.000000000000000000 ) ) ;
#35 = LOCAL_TIME ( 17, 2, 34.00000000000000000, #308 ) ;
#36 = DIRECTION ( 'NONE',  ( 0.000000000000000000, 0.000000000000000000, 1.000000000000000000 ) ) ;
#37 = CYLINDRICAL_SURFACE ( 'NONE', #205, 6.000000000000000888 ) ;
#38 = EDGE_CURVE ( 'NONE', #325, #46, #255, .T. ) ;
#39 = ORIENTED_EDGE ( 'NONE', *, *, #175, .T. ) ;
#40 = CARTESIAN_POINT ( 'NONE',  ( 10.00000000000000000, 1.224646799147353256E-15, 7.000000000000000000 ) ) ;
#41 = EDGE_LOOP ( 'NONE', ( #304, #159, #75, #14 ) ) ;
#42 = CALENDAR_DATE ( 2022, 8, 7 ) ;
#43 = CARTESIAN_POINT ( 'NONE',  ( 0.000000000000000000, 0.000000000000000000, 7.500000000000007105 ) ) ;
#44 = EDGE_LOOP ( 'NONE', ( #339, #17 ) ) ;
#45 = EDGE_CURVE ( 'NONE', #13, #325, #70, .T. ) ;
#46 = VERTEX_POINT ( 'NONE', #198 ) ;
#47 = APPROVAL_STATUS ( 'not_yet_approved' ) ;
#48 = AXIS2_PLACEMENT_3D ( 'NONE', #43, #213, #371 ) ;
#49 = ORIENTED_EDGE ( 'NONE', *, *, #162, .F. ) ;
#50 = LOCAL_TIME ( 17, 2, 34.00000000000000000, #273 ) ;
#51 = FACE_OUTER_BOUND ( 'NONE', #331, .T. ) ;
#52 = PRODUCT_DEFINITION_FORMATION_WITH_SPECIFIED_SOURCE ( 'LIBOVOLNÝ', '', #201, .NOT_KNOWN. ) ;
#53 = CARTESIAN_POINT ( 'NONE',  ( -2.750000000000000000, 0.000000000000000000, 107.0000000000000142 ) ) ;
#54 = DIRECTION ( 'NONE',  ( 1.000000000000000000, 0.000000000000000000, 0.000000000000000000 ) ) ;
#55 = EDGE_CURVE ( 'NONE', #305, #128, #173, .T. ) ;
#56 = CARTESIAN_POINT ( 'NONE',  ( 0.000000000000000000, 0.000000000000000000, 107.0000000000000142 ) ) ;
#57 = DIRECTION ( 'NONE',  ( 1.000000000000000000, 0.000000000000000000, 0.000000000000000000 ) ) ;
#58 = DIRECTION ( 'NONE',  ( 1.000000000000000000, 0.000000000000000000, 0.000000000000000000 ) ) ;
#59 = APPLICATION_CONTEXT ( 'configuration controlled 3d designs of mechanical parts and assemblies' ) ;
#60 = CC_DESIGN_APPROVAL ( #172, ( #185 ) ) ;
#61 = ORIENTED_EDGE ( 'NONE', *, *, #179, .F. ) ;
#62 = CARTESIAN_POINT ( 'NONE',  ( 0.000000000000000000, 0.000000000000000000, 107.0000000000000142 ) ) ;
#63 = DIRECTION ( 'NONE',  ( 1.000000000000000000, 0.000000000000000000, 0.000000000000000000 ) ) ;
#64 = CC_DESIGN_APPROVAL ( #373, ( #94 ) ) ;
#65 = DIRECTION ( 'NONE',  ( 1.000000000000000000, 0.000000000000000000, 0.000000000000000000 ) ) ;
#66 = FACE_BOUND ( 'NONE', #361, .T. ) ;
#67 = ORIENTED_EDGE ( 'NONE', *, *, #340, .T. ) ;
#68 = PERSON_AND_ORGANIZATION ( #215, #226 ) ;
#69 = CIRCLE ( 'NONE', #143, 6.000000000000000888 ) ;
#70 = LINE ( 'NONE', #334, #372 ) ;
#71 = ADVANCED_FACE ( 'NONE', ( #286 ), #83, .F. ) ;
#72 = VERTEX_POINT ( 'NONE', #171 ) ;
#73 = PERSON_AND_ORGANIZATION ( #215, #226 ) ;
#74 = DIRECTION ( 'NONE',  ( -0.000000000000000000, -0.000000000000000000, -1.000000000000000000 ) ) ;
#75 = ORIENTED_EDGE ( 'NONE', *, *, #221, .T. ) ;
#76 = CALENDAR_DATE ( 2022, 8, 7 ) ;
#77 = CYLINDRICAL_SURFACE ( 'NONE', #155, 10.00000000000000000 ) ;
#78 = VERTEX_POINT ( 'NONE', #258 ) ;
#79 = APPROVAL_DATE_TIME ( #369, #373 ) ;
#80 = APPLICATION_PROTOCOL_DEFINITION ( 'international standard', 'config_control_design', 1994, #233 ) ;
#81 = LOCAL_TIME ( 17, 2, 34.00000000000000000, #18 ) ;
#82 = DIRECTION ( 'NONE',  ( 0.000000000000000000, -1.000000000000000000, 0.000000000000000000 ) ) ;
#83 = CYLINDRICAL_SURFACE ( 'NONE', #149, 2.750000000000000000 ) ;
#84 = DIRECTION ( 'NONE',  ( 0.000000000000000000, 0.000000000000000000, 1.000000000000000000 ) ) ;
#85 = AXIS2_PLACEMENT_3D ( 'NONE', #250, #282, #338 ) ;
#86 = AXIS2_PLACEMENT_3D ( 'NONE', #223, #146, #58 ) ;
#87 = EDGE_CURVE ( 'NONE', #235, #46, #199, .T. ) ;
#88 = DIRECTION ( 'NONE',  ( -1.000000000000000000, 1.224646799147351482E-16, 0.000000000000000000 ) ) ;
#89 = CARTESIAN_POINT ( 'NONE',  ( -6.000000000000000888, 0.000000000000000000, 107.0000000000000142 ) ) ;
#90 = FACE_OUTER_BOUND ( 'NONE', #190, .T. ) ;
#91 = EDGE_CURVE ( 'NONE', #362, #272, #131, .T. ) ;
#92 = AXIS2_PLACEMENT_3D ( 'NONE', #321, #9, #65 ) ;
#93 = CARTESIAN_POINT ( 'NONE',  ( -6.000000000000000888, 0.000000000000000000, 107.0000000000000142 ) ) ;
#94 = PRODUCT_DEFINITION ( 'NEZNÁMÝ', '', #52, #210 ) ;
#95 = ORIENTED_EDGE ( 'NONE', *, *, #340, .F. ) ;
#96 = CIRCLE ( 'NONE', #353, 2.750000000000000000 ) ;
#97 = DIRECTION ( 'NONE',  ( 1.000000000000000000, 0.000000000000000000, -0.000000000000000000 ) ) ;
#98 = ORIENTED_EDGE ( 'NONE', *, *, #162, .T. ) ;
#99 = CARTESIAN_POINT ( 'NONE',  ( 0.000000000000000000, 0.000000000000000000, 0.000000000000000000 ) ) ;
#100 = EDGE_CURVE ( 'NONE', #305, #13, #69, .T. ) ;
#101 = ORIENTED_EDGE ( 'NONE', *, *, #120, .F. ) ;
#102 = SECURITY_CLASSIFICATION_LEVEL ( 'unclassified' ) ;
#103 = FACE_OUTER_BOUND ( 'NONE', #243, .T. ) ;
#104 = VERTEX_POINT ( 'NONE', #192 ) ;
#105 = APPROVAL_DATE_TIME ( #267, #3 ) ;
#106 = CIRCLE ( 'NONE', #246, 2.750000000000000000 ) ;
#107 = EDGE_LOOP ( 'NONE', ( #309, #278, #98, #184 ) ) ;
#108 = ORIENTED_EDGE ( 'NONE', *, *, #87, .T. ) ;
#109 = COORDINATED_UNIVERSAL_TIME_OFFSET ( 1, 0, .AHEAD. ) ;
#110 = ADVANCED_FACE ( 'NONE', ( #144, #90 ), #113, .T. ) ;
#111 = PERSON_AND_ORGANIZATION_ROLE ( 'design_supplier' ) ;
#112 = DIRECTION ( 'NONE',  ( -1.000000000000000000, 0.000000000000000000, 0.000000000000000000 ) ) ;
#113 = PLANE ( 'NONE',  #357 ) ;
#114 = DIRECTION ( 'NONE',  ( 1.000000000000000000, 0.000000000000000000, 0.000000000000000000 ) ) ;
#115 = ADVANCED_FACE ( 'NONE', ( #284 ), #381, .T. ) ;
#116 = DIRECTION ( 'NONE',  ( -0.000000000000000000, -0.000000000000000000, -1.000000000000000000 ) ) ;
#117 = CARTESIAN_POINT ( 'NONE',  ( 2.750000000000000000, 3.367778697655220519E-16, 107.0000000000000142 ) ) ;
#118 = AXIS2_PLACEMENT_3D ( 'NONE', #356, #264, #266 ) ;
#119 = LINE ( 'NONE', #351, #379 ) ;
#120 = EDGE_CURVE ( 'NONE', #128, #325, #327, .T. ) ;
#121 = CARTESIAN_POINT ( 'NONE',  ( 0.000000000000000000, 0.000000000000000000, 7.000000000000000000 ) ) ;
#122 = CARTESIAN_POINT ( 'NONE',  ( 2.750000000000000000, 3.367778697655220519E-16, 0.000000000000000000 ) ) ;
#123 = AXIS2_PLACEMENT_3D ( 'NONE', #352, #178, #147 ) ;
#124 = DIRECTION ( 'NONE',  ( 0.000000000000000000, 0.000000000000000000, -1.000000000000000000 ) ) ;
#125 = EDGE_CURVE ( 'NONE', #245, #104, #119, .T. ) ;
#126 =( NAMED_UNIT ( * ) SI_UNIT ( $, .STERADIAN. ) SOLID_ANGLE_UNIT ( ) );
#127 = FACE_BOUND ( 'NONE', #332, .T. ) ;
#128 = VERTEX_POINT ( 'NONE', #193 ) ;
#129 = ORIENTED_EDGE ( 'NONE', *, *, #298, .F. ) ;
#130 = ORIENTED_EDGE ( 'NONE', *, *, #45, .F. ) ;
#131 = CIRCLE ( 'NONE', #182, 2.750000000000000000 ) ;
#132 = PERSON_AND_ORGANIZATION_ROLE ( 'classification_officer' ) ;
#133 = EDGE_LOOP ( 'NONE', ( #130, #307, #33, #211 ) ) ;
#134 = AXIS2_PLACEMENT_3D ( 'NONE', #167, #84, #54 ) ;
#135 = CC_DESIGN_PERSON_AND_ORGANIZATION_ASSIGNMENT ( #68, #111, ( #52 ) ) ;
#136 = ORIENTED_EDGE ( 'NONE', *, *, #38, .T. ) ;
#137 = COORDINATED_UNIVERSAL_TIME_OFFSET ( 1, 0, .AHEAD. ) ;
#138 = EDGE_CURVE ( 'NONE', #325, #128, #295, .T. ) ;
#139 = AXIS2_PLACEMENT_3D ( 'NONE', #224, #347, #88 ) ;
#140 = CARTESIAN_POINT ( 'NONE',  ( -2.750000000000000000, 0.000000000000000000, 107.0000000000000142 ) ) ;
#141 = DIRECTION ( 'NONE',  ( -0.000000000000000000, -0.000000000000000000, -1.000000000000000000 ) ) ;
#142 = DIRECTION ( 'NONE',  ( 1.000000000000000000, 0.000000000000000000, 0.000000000000000000 ) ) ;
#143 = AXIS2_PLACEMENT_3D ( 'NONE', #197, #317, #228 ) ;
#144 = FACE_BOUND ( 'NONE', #330, .T. ) ;
#145 = CIRCLE ( 'NONE', #139, 0.5000000000000004441 ) ;
#146 = DIRECTION ( 'NONE',  ( -0.000000000000000000, -0.000000000000000000, -1.000000000000000000 ) ) ;
#147 = DIRECTION ( 'NONE',  ( 1.000000000000000000, 0.000000000000000000, -0.000000000000000000 ) ) ;
#148 = VERTEX_POINT ( 'NONE', #140 ) ;
#149 = AXIS2_PLACEMENT_3D ( 'NONE', #314, #170, #320 ) ;
#150 =( NAMED_UNIT ( * ) PLANE_ANGLE_UNIT ( ) SI_UNIT ( $, .RADIAN. ) );
#151 = CARTESIAN_POINT ( 'NONE',  ( 6.000000000000000888, 7.347880794884120722E-16, 7.500000000000007105 ) ) ;
#152 = DIRECTION ( 'NONE',  ( -1.000000000000000000, 0.000000000000000000, 0.000000000000000000 ) ) ;
#153 = ORIENTED_EDGE ( 'NONE', *, *, #265, .F. ) ;
#154 = MANIFOLD_SOLID_BREP ( 'Odebrat vysunutím3', #274 ) ;
#155 = AXIS2_PLACEMENT_3D ( 'NONE', #277, #281, #112 ) ;
#156 = EDGE_CURVE ( 'NONE', #78, #245, #288, .T. ) ;
#157 = ORIENTED_EDGE ( 'NONE', *, *, #87, .F. ) ;
#158 = PERSON_AND_ORGANIZATION_ROLE ( 'creator' ) ;
#159 = ORIENTED_EDGE ( 'NONE', *, *, #156, .F. ) ;
#160 = ORIENTED_EDGE ( 'NONE', *, *, #221, .F. ) ;
#161 = DATE_AND_TIME ( #342, #328 ) ;
#162 = EDGE_CURVE ( 'NONE', #148, #362, #312, .T. ) ;
#163 = ORIENTED_EDGE ( 'NONE', *, *, #293, .T. ) ;
#164 =( GEOMETRIC_REPRESENTATION_CONTEXT ( 3 ) GLOBAL_UNCERTAINTY_ASSIGNED_CONTEXT ( ( #10 ) ) GLOBAL_UNIT_ASSIGNED_CONTEXT ( ( #324, #150, #126 ) ) REPRESENTATION_CONTEXT ( 'NONE', 'WORKASPACE' ) );
#165 = CYLINDRICAL_SURFACE ( 'NONE', #85, 2.750000000000000000 ) ;
#166 = ORIENTED_EDGE ( 'NONE', *, *, #138, .T. ) ;
#167 = CARTESIAN_POINT ( 'NONE',  ( 0.000000000000000000, 0.000000000000000000, 7.000000000000000000 ) ) ;
#168 = CIRCLE ( 'NONE', #5, 6.500000000000000888 ) ;
#169 = CARTESIAN_POINT ( 'NONE',  ( 0.000000000000000000, 0.000000000000000000, 0.000000000000000000 ) ) ;
#170 = DIRECTION ( 'NONE',  ( 0.000000000000000000, 0.000000000000000000, -1.000000000000000000 ) ) ;
#171 = CARTESIAN_POINT ( 'NONE',  ( -10.00000000000000000, 0.000000000000000000, 0.000000000000000000 ) ) ;
#172 = APPROVAL ( #212, 'NEURÈENÝ' ) ;
#173 = LINE ( 'NONE', #89, #283 ) ;
#174 = DIRECTION ( 'NONE',  ( 1.000000000000000000, 0.000000000000000000, 0.000000000000000000 ) ) ;
#175 = EDGE_CURVE ( 'NONE', #245, #78, #194, .T. ) ;
#176 = AXIS2_PLACEMENT_3D ( 'NONE', #6, #259, #1 ) ;
#177 = FACE_OUTER_BOUND ( 'NONE', #44, .T. ) ;
#178 = DIRECTION ( 'NONE',  ( 0.000000000000000000, 0.000000000000000000, 1.000000000000000000 ) ) ;
#179 = EDGE_CURVE ( 'NONE', #72, #104, #380, .T. ) ;
#180 = EDGE_LOOP ( 'NONE', ( #153, #336, #166, #370 ) ) ;
#181 = VERTEX_POINT ( 'NONE', #117 ) ;
#182 = AXIS2_PLACEMENT_3D ( 'NONE', #285, #222, #27 ) ;
#183 = DATE_AND_TIME ( #76, #81 ) ;
#184 = ORIENTED_EDGE ( 'NONE', *, *, #91, .T. ) ;
#185 = SECURITY_CLASSIFICATION ( '', '', #102 ) ;
#186 = APPROVAL_DATE_TIME ( #280, #172 ) ;
#187 = ORIENTED_EDGE ( 'NONE', *, *, #225, .F. ) ;
#188 = EDGE_CURVE ( 'NONE', #128, #235, #145, .T. ) ;
#189 = APPLICATION_PROTOCOL_DEFINITION ( 'international standard', 'config_control_design', 1994, #59 ) ;
#190 = EDGE_LOOP ( 'NONE', ( #218, #39 ) ) ;
#191 = MECHANICAL_CONTEXT ( 'NONE', #59, 'mechanical' ) ;
#192 = CARTESIAN_POINT ( 'NONE',  ( 10.00000000000000000, 1.224646799147353256E-15, 0.000000000000000000 ) ) ;
#193 = CARTESIAN_POINT ( 'NONE',  ( -6.000000000000000888, 0.000000000000000000, 7.500000000000007105 ) ) ;
#194 = CIRCLE ( 'NONE', #134, 10.00000000000000000 ) ;
#195 = LINE ( 'NONE', #378, #257 ) ;
#196 = CC_DESIGN_PERSON_AND_ORGANIZATION_ASSIGNMENT ( #276, #333, ( #201 ) ) ;
#197 = CARTESIAN_POINT ( 'NONE',  ( 0.000000000000000000, 0.000000000000000000, 107.0000000000000142 ) ) ;
#198 = CARTESIAN_POINT ( 'NONE',  ( 6.500000000000000888, 0.000000000000000000, 7.000000000000002665 ) ) ;
#199 = CIRCLE ( 'NONE', #86, 6.500000000000000888 ) ;
#200 = DIRECTION ( 'NONE',  ( 0.000000000000000000, 0.000000000000000000, 1.000000000000000000 ) ) ;
#201 = PRODUCT ( '4482', '4482', '', ( #191 ) ) ;
#202 = DIRECTION ( 'NONE',  ( 1.000000000000000000, 0.000000000000000000, 0.000000000000000000 ) ) ;
#203 = DIRECTION ( 'NONE',  ( -0.000000000000000000, -0.000000000000000000, -1.000000000000000000 ) ) ;
#204 = CARTESIAN_POINT ( 'NONE',  ( -2.750000000000000000, 0.000000000000000000, 0.000000000000000000 ) ) ;
#205 = AXIS2_PLACEMENT_3D ( 'NONE', #329, #234, #152 ) ;
#206 = TOROIDAL_SURFACE ( 'NONE', #92, 6.500000000000000888, 0.5000000000000000000 ) ;
#207 = DIRECTION ( 'NONE',  ( 1.000000000000000000, 0.000000000000000000, 0.000000000000000000 ) ) ;
#208 = ORIENTED_EDGE ( 'NONE', *, *, #367, .F. ) ;
#209 = CALENDAR_DATE ( 2022, 8, 7 ) ;
#210 = DESIGN_CONTEXT ( 'detailed design', #233, 'design' ) ;
#211 = ORIENTED_EDGE ( 'NONE', *, *, #120, .T. ) ;
#212 = APPROVAL_STATUS ( 'not_yet_approved' ) ;
#213 = DIRECTION ( 'NONE',  ( 0.000000000000000000, 0.000000000000000000, 1.000000000000000000 ) ) ;
#214 = ORIENTED_EDGE ( 'NONE', *, *, #138, .F. ) ;
#215 = PERSON ( 'NEURÈENÝ', 'NEURÈENÝ', 'NEURÈENÝ', ('NEURÈENÝ'), ('NEURÈENÝ'), ('NEURÈENÝ') ) ;
#216 = APPROVAL_PERSON_ORGANIZATION ( #73, #373, #341 ) ;
#217 = FACE_OUTER_BOUND ( 'NONE', #248, .T. ) ;
#218 = ORIENTED_EDGE ( 'NONE', *, *, #156, .T. ) ;
#219 = PERSON_AND_ORGANIZATION ( #215, #226 ) ;
#220 = APPROVAL_PERSON_ORGANIZATION ( #219, #172, #306 ) ;
#221 = EDGE_CURVE ( 'NONE', #78, #72, #195, .T. ) ;
#222 = DIRECTION ( 'NONE',  ( -0.000000000000000000, -0.000000000000000000, -1.000000000000000000 ) ) ;
#223 = CARTESIAN_POINT ( 'NONE',  ( 0.000000000000000000, 0.000000000000000000, 7.000000000000000000 ) ) ;
#224 = CARTESIAN_POINT ( 'NONE',  ( -6.500000000000000888, 7.960204194457796463E-16, 7.500000000000007105 ) ) ;
#225 = EDGE_CURVE ( 'NONE', #181, #148, #96, .T. ) ;
#226 = ORGANIZATION ( 'NEURÈENÝ', 'NEURÈENÝ', '' ) ;
#227 = DIRECTION ( 'NONE',  ( 0.000000000000000000, 0.000000000000000000, 1.000000000000000000 ) ) ;
#228 = DIRECTION ( 'NONE',  ( 1.000000000000000000, 0.000000000000000000, 0.000000000000000000 ) ) ;
#229 = CC_DESIGN_DATE_AND_TIME_ASSIGNMENT ( #161, #241, ( #94 ) ) ;
#230 = CARTESIAN_POINT ( 'NONE',  ( 0.000000000000000000, 0.000000000000000000, 107.0000000000000142 ) ) ;
#231 = FACE_OUTER_BOUND ( 'NONE', #180, .T. ) ;
#232 = AXIS2_PLACEMENT_3D ( 'NONE', #345, #116, #349 ) ;
#233 = APPLICATION_CONTEXT ( 'configuration controlled 3d designs of mechanical parts and assemblies' ) ;
#234 = DIRECTION ( 'NONE',  ( -0.000000000000000000, -0.000000000000000000, -1.000000000000000000 ) ) ;
#235 = VERTEX_POINT ( 'NONE', #294 ) ;
#236 = ADVANCED_FACE ( 'NONE', ( #127, #262 ), #237, .F. ) ;
#237 = PLANE ( 'NONE',  #335 ) ;
#238 = CC_DESIGN_APPROVAL ( #3, ( #52 ) ) ;
#239 = ORIENTED_EDGE ( 'NONE', *, *, #38, .F. ) ;
#240 = DIRECTION ( 'NONE',  ( 1.000000000000000000, 0.000000000000000000, 0.000000000000000000 ) ) ;
#241 = DATE_TIME_ROLE ( 'creation_date' ) ;
#242 = ADVANCED_FACE ( 'NONE', ( #66, #177 ), #4, .T. ) ;
#243 = EDGE_LOOP ( 'NONE', ( #101, #275, #129, #239 ) ) ;
#244 = PERSON_AND_ORGANIZATION ( #215, #226 ) ;
#245 = VERTEX_POINT ( 'NONE', #40 ) ;
#246 = AXIS2_PLACEMENT_3D ( 'NONE', #230, #200, #174 ) ;
#247 = APPROVAL_ROLE ( '' ) ;
#248 = EDGE_LOOP ( 'NONE', ( #268, #261, #163, #160 ) ) ;
#249 = PERSON_AND_ORGANIZATION ( #215, #226 ) ;
#250 = CARTESIAN_POINT ( 'NONE',  ( 0.000000000000000000, 0.000000000000000000, 107.0000000000000142 ) ) ;
#251 = AXIS2_PLACEMENT_3D ( 'NONE', #169, #377, #57 ) ;
#252 = DIRECTION ( 'NONE',  ( 1.000000000000000000, 0.000000000000000000, -0.000000000000000000 ) ) ;
#253 = DIRECTION ( 'NONE',  ( 0.000000000000000000, 0.000000000000000000, -1.000000000000000000 ) ) ;
#254 = EDGE_CURVE ( 'NONE', #181, #272, #296, .T. ) ;
#255 = CIRCLE ( 'NONE', #2, 0.5000000000000004441 ) ;
#256 = DIRECTION ( 'NONE',  ( 0.000000000000000000, 0.000000000000000000, 1.000000000000000000 ) ) ;
#257 = VECTOR ( 'NONE', #316, 1000.000000000000000 ) ;
#258 = CARTESIAN_POINT ( 'NONE',  ( -10.00000000000000000, 0.000000000000000000, 7.000000000000000000 ) ) ;
#259 = DIRECTION ( 'NONE',  ( 0.000000000000000000, 0.000000000000000000, 1.000000000000000000 ) ) ;
#260 = FACE_OUTER_BOUND ( 'NONE', #7, .T. ) ;
#261 = ORIENTED_EDGE ( 'NONE', *, *, #125, .T. ) ;
#262 = FACE_OUTER_BOUND ( 'NONE', #269, .T. ) ;
#263 = VECTOR ( 'NONE', #124, 1000.000000000000000 ) ;
#264 = DIRECTION ( 'NONE',  ( -0.000000000000000000, -0.000000000000000000, -1.000000000000000000 ) ) ;
#265 = EDGE_CURVE ( 'NONE', #13, #305, #366, .T. ) ;
#266 = DIRECTION ( 'NONE',  ( -1.000000000000000000, 0.000000000000000000, 0.000000000000000000 ) ) ;
#267 = DATE_AND_TIME ( #209, #50 ) ;
#268 = ORIENTED_EDGE ( 'NONE', *, *, #175, .F. ) ;
#269 = EDGE_LOOP ( 'NONE', ( #61, #299 ) ) ;
#270 = ADVANCED_FACE ( 'NONE', ( #231 ), #37, .T. ) ;
#271 = DIRECTION ( 'NONE',  ( 0.000000000000000000, 0.000000000000000000, 1.000000000000000000 ) ) ;
#272 = VERTEX_POINT ( 'NONE', #122 ) ;
#273 = COORDINATED_UNIVERSAL_TIME_OFFSET ( 1, 0, .AHEAD. ) ;
#274 = CLOSED_SHELL ( 'NONE', ( #11, #23, #270, #28, #355, #110, #236, #115, #242, #290, #71 ) ) ;
#275 = ORIENTED_EDGE ( 'NONE', *, *, #188, .T. ) ;
#276 = PERSON_AND_ORGANIZATION ( #215, #226 ) ;
#277 = CARTESIAN_POINT ( 'NONE',  ( 0.000000000000000000, 0.000000000000000000, 7.000000000000000000 ) ) ;
#278 = ORIENTED_EDGE ( 'NONE', *, *, #225, .T. ) ;
#279 = AXIS2_PLACEMENT_3D ( 'NONE', #31, #256, #142 ) ;
#280 = DATE_AND_TIME ( #311, #12 ) ;
#281 = DIRECTION ( 'NONE',  ( -0.000000000000000000, -0.000000000000000000, -1.000000000000000000 ) ) ;
#282 = DIRECTION ( 'NONE',  ( 0.000000000000000000, 0.000000000000000000, -1.000000000000000000 ) ) ;
#283 = VECTOR ( 'NONE', #374, 1000.000000000000000 ) ;
#284 = FACE_OUTER_BOUND ( 'NONE', #133, .T. ) ;
#285 = CARTESIAN_POINT ( 'NONE',  ( 0.000000000000000000, 0.000000000000000000, 0.000000000000000000 ) ) ;
#286 = FACE_OUTER_BOUND ( 'NONE', #107, .T. ) ;
#287 = DIRECTION ( 'NONE',  ( 0.000000000000000000, 0.000000000000000000, 1.000000000000000000 ) ) ;
#288 = CIRCLE ( 'NONE', #279, 10.00000000000000000 ) ;
#289 = DIRECTION ( 'NONE',  ( 0.000000000000000000, 0.000000000000000000, 1.000000000000000000 ) ) ;
#290 = ADVANCED_FACE ( 'NONE', ( #260 ), #206, .F. ) ;
#291 = CYLINDRICAL_SURFACE ( 'NONE', #118, 10.00000000000000000 ) ;
#292 = DIRECTION ( 'NONE',  ( 0.000000000000000000, 0.000000000000000000, 1.000000000000000000 ) ) ;
#293 = EDGE_CURVE ( 'NONE', #104, #72, #348, .T. ) ;
#294 = CARTESIAN_POINT ( 'NONE',  ( -6.500000000000000888, 7.960204194457796463E-16, 7.000000000000002665 ) ) ;
#295 = CIRCLE ( 'NONE', #315, 6.000000000000000888 ) ;
#296 = LINE ( 'NONE', #359, #263 ) ;
#297 = CARTESIAN_POINT ( 'NONE',  ( 0.000000000000000000, 0.000000000000000000, 0.000000000000000000 ) ) ;
#298 = EDGE_CURVE ( 'NONE', #46, #235, #168, .T. ) ;
#299 = ORIENTED_EDGE ( 'NONE', *, *, #293, .F. ) ;
#300 = SHAPE_DEFINITION_REPRESENTATION ( #318, #376 ) ;
#301 = AXIS2_PLACEMENT_3D ( 'NONE', #29, #289, #114 ) ;
#302 = CARTESIAN_POINT ( 'NONE',  ( 6.000000000000000888, 7.347880794884120722E-16, 107.0000000000000142 ) ) ;
#303 = VECTOR ( 'NONE', #253, 1000.000000000000000 ) ;
#304 = ORIENTED_EDGE ( 'NONE', *, *, #125, .F. ) ;
#305 = VERTEX_POINT ( 'NONE', #93 ) ;
#306 = APPROVAL_ROLE ( '' ) ;
#307 = ORIENTED_EDGE ( 'NONE', *, *, #100, .F. ) ;
#308 = COORDINATED_UNIVERSAL_TIME_OFFSET ( 1, 0, .AHEAD. ) ;
#309 = ORIENTED_EDGE ( 'NONE', *, *, #254, .F. ) ;
#310 = AXIS2_PLACEMENT_3D ( 'NONE', #99, #271, #240 ) ;
#311 = CALENDAR_DATE ( 2022, 8, 7 ) ;
#312 = LINE ( 'NONE', #53, #303 ) ;
#313 = CC_DESIGN_PERSON_AND_ORGANIZATION_ASSIGNMENT ( #21, #132, ( #185 ) ) ;
#314 = CARTESIAN_POINT ( 'NONE',  ( 0.000000000000000000, 0.000000000000000000, 107.0000000000000142 ) ) ;
#315 = AXIS2_PLACEMENT_3D ( 'NONE', #375, #287, #346 ) ;
#316 = DIRECTION ( 'NONE',  ( -0.000000000000000000, -0.000000000000000000, -1.000000000000000000 ) ) ;
#317 = DIRECTION ( 'NONE',  ( 0.000000000000000000, 0.000000000000000000, 1.000000000000000000 ) ) ;
#318 = PRODUCT_DEFINITION_SHAPE ( 'NONE', 'NONE',  #94 ) ;
#319 = TOROIDAL_SURFACE ( 'NONE', #48, 6.500000000000000888, 0.5000000000000000000 ) ;
#320 = DIRECTION ( 'NONE',  ( -1.000000000000000000, 0.000000000000000000, 0.000000000000000000 ) ) ;
#321 = CARTESIAN_POINT ( 'NONE',  ( 0.000000000000000000, 0.000000000000000000, 7.500000000000007105 ) ) ;
#322 = FACE_OUTER_BOUND ( 'NONE', #41, .T. ) ;
#323 = CC_DESIGN_DATE_AND_TIME_ASSIGNMENT ( #183, #365, ( #185 ) ) ;
#324 =( LENGTH_UNIT ( ) NAMED_UNIT ( * ) SI_UNIT ( .MILLI., .METRE. ) );
#325 = VERTEX_POINT ( 'NONE', #151 ) ;
#326 = DIRECTION ( 'NONE',  ( -0.000000000000000000, -0.000000000000000000, -1.000000000000000000 ) ) ;
#327 = CIRCLE ( 'NONE', #301, 6.000000000000000888 ) ;
#328 = LOCAL_TIME ( 17, 2, 34.00000000000000000, #109 ) ;
#329 = CARTESIAN_POINT ( 'NONE',  ( 0.000000000000000000, 0.000000000000000000, 107.0000000000000142 ) ) ;
#330 = EDGE_LOOP ( 'NONE', ( #20, #108 ) ) ;
#331 = EDGE_LOOP ( 'NONE', ( #67, #358, #368, #49 ) ) ;
#332 = EDGE_LOOP ( 'NONE', ( #8, #208 ) ) ;
#333 = PERSON_AND_ORGANIZATION_ROLE ( 'design_owner' ) ;
#334 = CARTESIAN_POINT ( 'NONE',  ( 6.000000000000000888, 7.347880794884120722E-16, 107.0000000000000142 ) ) ;
#335 = AXIS2_PLACEMENT_3D ( 'NONE', #297, #292, #97 ) ;
#336 = ORIENTED_EDGE ( 'NONE', *, *, #45, .T. ) ;
#337 = PERSON_AND_ORGANIZATION ( #215, #226 ) ;
#338 = DIRECTION ( 'NONE',  ( -1.000000000000000000, 0.000000000000000000, 0.000000000000000000 ) ) ;
#339 = ORIENTED_EDGE ( 'NONE', *, *, #100, .T. ) ;
#340 = EDGE_CURVE ( 'NONE', #148, #181, #106, .T. ) ;
#341 = APPROVAL_ROLE ( '' ) ;
#342 = CALENDAR_DATE ( 2022, 8, 7 ) ;
#343 = CARTESIAN_POINT ( 'NONE',  ( 6.500000000000000888, 0.000000000000000000, 7.500000000000007105 ) ) ;
#344 = AXIS2_PLACEMENT_3D ( 'NONE', #62, #36, #207 ) ;
#345 = CARTESIAN_POINT ( 'NONE',  ( 0.000000000000000000, 0.000000000000000000, 107.0000000000000142 ) ) ;
#346 = DIRECTION ( 'NONE',  ( 1.000000000000000000, 0.000000000000000000, 0.000000000000000000 ) ) ;
#347 = DIRECTION ( 'NONE',  ( 1.224646799147353207E-16, 1.000000000000000000, -0.000000000000000000 ) ) ;
#348 = CIRCLE ( 'NONE', #176, 10.00000000000000000 ) ;
#349 = DIRECTION ( 'NONE',  ( -1.000000000000000000, 0.000000000000000000, 0.000000000000000000 ) ) ;
#350 = PRODUCT_RELATED_PRODUCT_CATEGORY ( 'detail', '', ( #201 ) ) ;
#351 = CARTESIAN_POINT ( 'NONE',  ( 10.00000000000000000, 1.224646799147353256E-15, 7.000000000000000000 ) ) ;
#352 = CARTESIAN_POINT ( 'NONE',  ( 0.000000000000000000, 0.000000000000000000, 107.0000000000000142 ) ) ;
#353 = AXIS2_PLACEMENT_3D ( 'NONE', #56, #227, #202 ) ;
#354 = DIRECTION ( 'NONE',  ( 1.000000000000000000, 0.000000000000000000, 0.000000000000000000 ) ) ;
#355 = ADVANCED_FACE ( 'NONE', ( #322 ), #291, .T. ) ;
#356 = CARTESIAN_POINT ( 'NONE',  ( 0.000000000000000000, 0.000000000000000000, 7.000000000000000000 ) ) ;
#357 = AXIS2_PLACEMENT_3D ( 'NONE', #24, #26, #252 ) ;
#358 = ORIENTED_EDGE ( 'NONE', *, *, #254, .T. ) ;
#359 = CARTESIAN_POINT ( 'NONE',  ( 2.750000000000000000, 3.367778697655220519E-16, 107.0000000000000142 ) ) ;
#360 = AXIS2_PLACEMENT_3D ( 'NONE', #34, #326, #63 ) ;
#361 = EDGE_LOOP ( 'NONE', ( #95, #187 ) ) ;
#362 = VERTEX_POINT ( 'NONE', #204 ) ;
#363 = APPROVAL_STATUS ( 'not_yet_approved' ) ;
#364 = ORIENTED_EDGE ( 'NONE', *, *, #188, .F. ) ;
#365 = DATE_TIME_ROLE ( 'classification_date' ) ;
#366 = CIRCLE ( 'NONE', #344, 6.000000000000000888 ) ;
#367 = EDGE_CURVE ( 'NONE', #272, #362, #19, .T. ) ;
#368 = ORIENTED_EDGE ( 'NONE', *, *, #367, .T. ) ;
#369 = DATE_AND_TIME ( #42, #35 ) ;
#370 = ORIENTED_EDGE ( 'NONE', *, *, #55, .F. ) ;
#371 = DIRECTION ( 'NONE',  ( 1.000000000000000000, 0.000000000000000000, 0.000000000000000000 ) ) ;
#372 = VECTOR ( 'NONE', #74, 1000.000000000000000 ) ;
#373 = APPROVAL ( #47, 'NEURÈENÝ' ) ;
#374 = DIRECTION ( 'NONE',  ( -0.000000000000000000, -0.000000000000000000, -1.000000000000000000 ) ) ;
#375 = CARTESIAN_POINT ( 'NONE',  ( 0.000000000000000000, 0.000000000000000000, 7.500000000000007105 ) ) ;
#376 = ADVANCED_BREP_SHAPE_REPRESENTATION ( '4482', ( #154, #310 ), #164 ) ;
#377 = DIRECTION ( 'NONE',  ( 0.000000000000000000, 0.000000000000000000, 1.000000000000000000 ) ) ;
#378 = CARTESIAN_POINT ( 'NONE',  ( -10.00000000000000000, 0.000000000000000000, 7.000000000000000000 ) ) ;
#379 = VECTOR ( 'NONE', #141, 1000.000000000000000 ) ;
#380 = CIRCLE ( 'NONE', #251, 10.00000000000000000 ) ;
#381 = CYLINDRICAL_SURFACE ( 'NONE', #232, 6.000000000000000888 ) ;
ENDSEC;
END-ISO-10303-21;
