ISO-10303-21;
HEADER;
FILE_DESCRIPTION (( 'STEP AP203' ),
    '1' );
FILE_NAME ('76df.STEP',
    '2022-07-08T15:05:48',
    ( '' ),
    ( '' ),
    'SwSTEP 2.0',
    'SolidWorks 2019',
    '' );
FILE_SCHEMA (( 'CONFIG_CONTROL_DESIGN' ));
ENDSEC;

DATA;
#1 = CARTESIAN_POINT ( 'NONE',  ( -8.000000000000000000, 0.000000000000000000, 5.000000000000000000 ) ) ;
#2 = ORIENTED_EDGE ( 'NONE', *, *, #180, .F. ) ;
#3 = CIRCLE ( 'NONE', #81, 2.750000000000000000 ) ;
#4 = LINE ( 'NONE', #206, #136 ) ;
#5 = CALENDAR_DATE ( 2022, 8, 7 ) ;
#6 = ORIENTED_EDGE ( 'NONE', *, *, #246, .T. ) ;
#7 = SECURITY_CLASSIFICATION_LEVEL ( 'unclassified' ) ;
#8 = VECTOR ( 'NONE', #324, 1000.000000000000000 ) ;
#9 = CC_DESIGN_PERSON_AND_ORGANIZATION_ASSIGNMENT ( #153, #280, ( #48 ) ) ;
#10 = CARTESIAN_POINT ( 'NONE',  ( 0.000000000000000000, 0.000000000000000000, 5.000000000000000000 ) ) ;
#11 = TOROIDAL_SURFACE ( 'NONE', #332, 5.500000000000000000, 0.5000000000000000000 ) ;
#12 = DIRECTION ( 'NONE',  ( 1.000000000000000000, 0.000000000000000000, 0.000000000000000000 ) ) ;
#13 = DESIGN_CONTEXT ( 'detailed design', #328, 'design' ) ;
#14 = CARTESIAN_POINT ( 'NONE',  ( 0.000000000000000000, 0.000000000000000000, 5.000000000000000000 ) ) ;
#15 = CC_DESIGN_PERSON_AND_ORGANIZATION_ASSIGNMENT ( #296, #30, ( #121 ) ) ;
#16 = CARTESIAN_POINT ( 'NONE',  ( 0.000000000000000000, 0.000000000000000000, 5.000000000000000000 ) ) ;
#17 = LOCAL_TIME ( 17, 5, 48.00000000000000000, #315 ) ;
#18 = CARTESIAN_POINT ( 'NONE',  ( -5.500000000000000000, 6.735557395310442023E-16, 5.500000000000005329 ) ) ;
#19 = DIRECTION ( 'NONE',  ( 0.000000000000000000, 0.000000000000000000, -1.000000000000000000 ) ) ;
#20 = EDGE_CURVE ( 'NONE', #290, #57, #188, .T. ) ;
#21 = DIRECTION ( 'NONE',  ( 1.000000000000000000, 0.000000000000000000, 0.000000000000000000 ) ) ;
#22 = ORIENTED_EDGE ( 'NONE', *, *, #133, .F. ) ;
#23 = CALENDAR_DATE ( 2022, 8, 7 ) ;
#24 = AXIS2_PLACEMENT_3D ( 'NONE', #101, #284, #285 ) ;
#25 = CARTESIAN_POINT ( 'NONE',  ( 0.000000000000000000, 0.000000000000000000, 155.0000000000000000 ) ) ;
#26 = EDGE_LOOP ( 'NONE', ( #51, #92, #89, #113 ) ) ;
#27 = CARTESIAN_POINT ( 'NONE',  ( 5.500000000000000000, 0.000000000000000000, 5.500000000000005329 ) ) ;
#28 = ADVANCED_FACE ( 'NONE', ( #126 ), #226, .F. ) ;
#29 = CIRCLE ( 'NONE', #249, 5.000000000000000000 ) ;
#30 = PERSON_AND_ORGANIZATION_ROLE ( 'classification_officer' ) ;
#31 = CIRCLE ( 'NONE', #292, 8.000000000000000000 ) ;
#32 = PERSON_AND_ORGANIZATION ( #336, #103 ) ;
#33 = VERTEX_POINT ( 'NONE', #183 ) ;
#34 = AXIS2_PLACEMENT_3D ( 'NONE', #147, #274, #91 ) ;
#35 = CARTESIAN_POINT ( 'NONE',  ( 2.750000000000000000, 3.367778697655221012E-16, 155.0000000000000000 ) ) ;
#36 = VERTEX_POINT ( 'NONE', #117 ) ;
#37 = LOCAL_TIME ( 17, 5, 48.00000000000000000, #244 ) ;
#38 = CC_DESIGN_DATE_AND_TIME_ASSIGNMENT ( #217, #70, ( #121 ) ) ;
#39 = DIRECTION ( 'NONE',  ( -0.000000000000000000, -0.000000000000000000, -1.000000000000000000 ) ) ;
#40 = CARTESIAN_POINT ( 'NONE',  ( -5.000000000000000000, 0.000000000000000000, 155.0000000000000000 ) ) ;
#41 = CARTESIAN_POINT ( 'NONE',  ( 8.000000000000000000, 9.797174393178825657E-16, 0.000000000000000000 ) ) ;
#42 = CIRCLE ( 'NONE', #24, 8.000000000000000000 ) ;
#43 = CARTESIAN_POINT ( 'NONE',  ( 0.000000000000000000, 0.000000000000000000, 5.500000000000005329 ) ) ;
#44 = CC_DESIGN_PERSON_AND_ORGANIZATION_ASSIGNMENT ( #96, #358, ( #313 ) ) ;
#45 = DIRECTION ( 'NONE',  ( -1.000000000000000000, 0.000000000000000000, 0.000000000000000000 ) ) ;
#46 = APPLICATION_CONTEXT ( 'configuration controlled 3d designs of mechanical parts and assemblies' ) ;
#47 = FACE_OUTER_BOUND ( 'NONE', #62, .T. ) ;
#48 = PRODUCT_DEFINITION_FORMATION_WITH_SPECIFIED_SOURCE ( 'LIBOVOLNÝ', '', #299, .NOT_KNOWN. ) ;
#49 = CARTESIAN_POINT ( 'NONE',  ( -5.000000000000000000, 0.000000000000000000, 155.0000000000000000 ) ) ;
#50 = CARTESIAN_POINT ( 'NONE',  ( -2.750000000000000000, 0.000000000000000000, 155.0000000000000000 ) ) ;
#51 = ORIENTED_EDGE ( 'NONE', *, *, #255, .F. ) ;
#52 = VECTOR ( 'NONE', #128, 1000.000000000000000 ) ;
#53 = CARTESIAN_POINT ( 'NONE',  ( 0.000000000000000000, 0.000000000000000000, 5.000000000000000000 ) ) ;
#54 = AXIS2_PLACEMENT_3D ( 'NONE', #370, #85, #373 ) ;
#55 = PLANE ( 'NONE',  #216 ) ;
#56 = ADVANCED_FACE ( 'NONE', ( #214 ), #212, .T. ) ;
#57 = VERTEX_POINT ( 'NONE', #356 ) ;
#58 = CALENDAR_DATE ( 2022, 8, 7 ) ;
#59 = ORIENTED_EDGE ( 'NONE', *, *, #278, .T. ) ;
#60 = DIRECTION ( 'NONE',  ( 0.000000000000000000, 0.000000000000000000, -1.000000000000000000 ) ) ;
#61 = PERSON_AND_ORGANIZATION ( #336, #103 ) ;
#62 = EDGE_LOOP ( 'NONE', ( #243, #116 ) ) ;
#63 = MECHANICAL_CONTEXT ( 'NONE', #46, 'mechanical' ) ;
#64 = ORIENTED_EDGE ( 'NONE', *, *, #65, .F. ) ;
#65 = EDGE_CURVE ( 'NONE', #290, #326, #303, .T. ) ;
#66 = PERSON_AND_ORGANIZATION ( #336, #103 ) ;
#67 = AXIS2_PLACEMENT_3D ( 'NONE', #53, #322, #21 ) ;
#68 = CARTESIAN_POINT ( 'NONE',  ( 0.000000000000000000, 0.000000000000000000, 5.000000000000000000 ) ) ;
#69 =( GEOMETRIC_REPRESENTATION_CONTEXT ( 3 ) GLOBAL_UNCERTAINTY_ASSIGNED_CONTEXT ( ( #269 ) ) GLOBAL_UNIT_ASSIGNED_CONTEXT ( ( #170, #146, #178 ) ) REPRESENTATION_CONTEXT ( 'NONE', 'WORKASPACE' ) );
#70 = DATE_TIME_ROLE ( 'classification_date' ) ;
#71 = ORIENTED_EDGE ( 'NONE', *, *, #193, .F. ) ;
#72 = PLANE ( 'NONE',  #127 ) ;
#73 = CARTESIAN_POINT ( 'NONE',  ( 5.000000000000000000, 6.123233995736766282E-16, 155.0000000000000000 ) ) ;
#74 = APPROVAL_PERSON_ORGANIZATION ( #252, #288, #364 ) ;
#75 = DIRECTION ( 'NONE',  ( -0.000000000000000000, -0.000000000000000000, -1.000000000000000000 ) ) ;
#76 = CARTESIAN_POINT ( 'NONE',  ( 0.000000000000000000, 0.000000000000000000, 155.0000000000000000 ) ) ;
#77 = DIRECTION ( 'NONE',  ( -0.000000000000000000, -0.000000000000000000, -1.000000000000000000 ) ) ;
#78 = CARTESIAN_POINT ( 'NONE',  ( 0.000000000000000000, 0.000000000000000000, 155.0000000000000000 ) ) ;
#79 = ORIENTED_EDGE ( 'NONE', *, *, #151, .F. ) ;
#80 = LINE ( 'NONE', #138, #371 ) ;
#81 = AXIS2_PLACEMENT_3D ( 'NONE', #162, #366, #253 ) ;
#82 = DIRECTION ( 'NONE',  ( 1.000000000000000000, 0.000000000000000000, 0.000000000000000000 ) ) ;
#83 = CC_DESIGN_PERSON_AND_ORGANIZATION_ASSIGNMENT ( #61, #305, ( #48 ) ) ;
#84 = CC_DESIGN_APPROVAL ( #172, ( #313 ) ) ;
#85 = DIRECTION ( 'NONE',  ( -0.000000000000000000, -0.000000000000000000, -1.000000000000000000 ) ) ;
#86 = VERTEX_POINT ( 'NONE', #1 ) ;
#87 = PERSON_AND_ORGANIZATION ( #336, #103 ) ;
#88 = EDGE_CURVE ( 'NONE', #270, #374, #4, .T. ) ;
#89 = ORIENTED_EDGE ( 'NONE', *, *, #88, .T. ) ;
#90 = AXIS2_PLACEMENT_3D ( 'NONE', #219, #338, #368 ) ;
#91 = DIRECTION ( 'NONE',  ( -1.000000000000000000, 0.000000000000000000, 0.000000000000000000 ) ) ;
#92 = ORIENTED_EDGE ( 'NONE', *, *, #268, .T. ) ;
#93 = ADVANCED_FACE ( 'NONE', ( #177 ), #298, .F. ) ;
#94 = DATE_AND_TIME ( #125, #37 ) ;
#95 = CARTESIAN_POINT ( 'NONE',  ( 0.000000000000000000, 0.000000000000000000, 5.500000000000005329 ) ) ;
#96 = PERSON_AND_ORGANIZATION ( #336, #103 ) ;
#97 = AXIS2_PLACEMENT_3D ( 'NONE', #10, #158, #251 ) ;
#98 = AXIS2_PLACEMENT_3D ( 'NONE', #295, #375, #171 ) ;
#99 = VERTEX_POINT ( 'NONE', #35 ) ;
#100 = DIRECTION ( 'NONE',  ( 0.000000000000000000, 0.000000000000000000, 1.000000000000000000 ) ) ;
#101 = CARTESIAN_POINT ( 'NONE',  ( 0.000000000000000000, 0.000000000000000000, 0.000000000000000000 ) ) ;
#102 = PLANE ( 'NONE',  #254 ) ;
#103 = ORGANIZATION ( 'NEURÈENÝ', 'NEURÈENÝ', '' ) ;
#104 = DIRECTION ( 'NONE',  ( 0.000000000000000000, 0.000000000000000000, 1.000000000000000000 ) ) ;
#105 = ADVANCED_FACE ( 'NONE', ( #282 ), #318, .T. ) ;
#106 = DIRECTION ( 'NONE',  ( -1.000000000000000000, 0.000000000000000000, 0.000000000000000000 ) ) ;
#107 = CARTESIAN_POINT ( 'NONE',  ( -5.000000000000000000, 0.000000000000000000, 5.500000000000005329 ) ) ;
#108 = ORIENTED_EDGE ( 'NONE', *, *, #124, .F. ) ;
#109 = CC_DESIGN_APPROVAL ( #288, ( #121 ) ) ;
#110 = DIRECTION ( 'NONE',  ( 0.000000000000000000, 0.000000000000000000, -1.000000000000000000 ) ) ;
#111 = CYLINDRICAL_SURFACE ( 'NONE', #163, 2.750000000000000000 ) ;
#112 = ADVANCED_FACE ( 'NONE', ( #220, #47 ), #102, .F. ) ;
#113 = ORIENTED_EDGE ( 'NONE', *, *, #124, .T. ) ;
#114 = FACE_BOUND ( 'NONE', #115, .T. ) ;
#115 = EDGE_LOOP ( 'NONE', ( #273, #293 ) ) ;
#116 = ORIENTED_EDGE ( 'NONE', *, *, #223, .F. ) ;
#117 = CARTESIAN_POINT ( 'NONE',  ( -5.500000000000000000, 6.735557395310442023E-16, 5.000000000000002665 ) ) ;
#118 = APPROVAL_ROLE ( '' ) ;
#119 = CLOSED_SHELL ( 'NONE', ( #93, #28, #105, #156, #56, #201, #112, #372, #362, #350, #294 ) ) ;
#120 = ORIENTED_EDGE ( 'NONE', *, *, #160, .F. ) ;
#121 = SECURITY_CLASSIFICATION ( '', '', #7 ) ;
#122 = ORIENTED_EDGE ( 'NONE', *, *, #227, .T. ) ;
#123 = ORIENTED_EDGE ( 'NONE', *, *, #186, .F. ) ;
#124 = EDGE_CURVE ( 'NONE', #374, #234, #3, .T. ) ;
#125 = CALENDAR_DATE ( 2022, 8, 7 ) ;
#126 = FACE_OUTER_BOUND ( 'NONE', #245, .T. ) ;
#127 = AXIS2_PLACEMENT_3D ( 'NONE', #189, #192, #342 ) ;
#128 = DIRECTION ( 'NONE',  ( -0.000000000000000000, -0.000000000000000000, -1.000000000000000000 ) ) ;
#129 = CARTESIAN_POINT ( 'NONE',  ( 0.000000000000000000, 0.000000000000000000, 0.000000000000000000 ) ) ;
#130 = DIRECTION ( 'NONE',  ( 0.000000000000000000, 0.000000000000000000, 1.000000000000000000 ) ) ;
#131 = AXIS2_PLACEMENT_3D ( 'NONE', #18, #155, #287 ) ;
#132 = CARTESIAN_POINT ( 'NONE',  ( 0.000000000000000000, 0.000000000000000000, 0.000000000000000000 ) ) ;
#133 = EDGE_CURVE ( 'NONE', #352, #199, #222, .T. ) ;
#134 = CC_DESIGN_APPROVAL ( #329, ( #48 ) ) ;
#135 = DIRECTION ( 'NONE',  ( 1.000000000000000000, 0.000000000000000000, -0.000000000000000000 ) ) ;
#136 = VECTOR ( 'NONE', #60, 1000.000000000000000 ) ;
#137 = DATE_AND_TIME ( #261, #237 ) ;
#138 = CARTESIAN_POINT ( 'NONE',  ( 2.750000000000000000, 3.367778697655221012E-16, 155.0000000000000000 ) ) ;
#139 = LOCAL_TIME ( 17, 5, 48.00000000000000000, #354 ) ;
#140 = EDGE_CURVE ( 'NONE', #326, #36, #275, .T. ) ;
#141 = DIRECTION ( 'NONE',  ( -0.000000000000000000, -0.000000000000000000, -1.000000000000000000 ) ) ;
#142 = ORIENTED_EDGE ( 'NONE', *, *, #20, .F. ) ;
#143 = EDGE_LOOP ( 'NONE', ( #108, #241 ) ) ;
#144 = AXIS2_PLACEMENT_3D ( 'NONE', #179, #359, #187 ) ;
#145 = CARTESIAN_POINT ( 'NONE',  ( 0.000000000000000000, 0.000000000000000000, 155.0000000000000000 ) ) ;
#146 =( NAMED_UNIT ( * ) PLANE_ANGLE_UNIT ( ) SI_UNIT ( $, .RADIAN. ) );
#147 = CARTESIAN_POINT ( 'NONE',  ( 0.000000000000000000, 0.000000000000000000, 155.0000000000000000 ) ) ;
#148 = APPROVAL_DATE_TIME ( #137, #288 ) ;
#149 = EDGE_LOOP ( 'NONE', ( #361, #123, #347, #218 ) ) ;
#150 = CIRCLE ( 'NONE', #54, 5.500000000000000000 ) ;
#151 = EDGE_CURVE ( 'NONE', #352, #86, #181, .T. ) ;
#152 = DIRECTION ( 'NONE',  ( 1.000000000000000000, 0.000000000000000000, 0.000000000000000000 ) ) ;
#153 = PERSON_AND_ORGANIZATION ( #336, #103 ) ;
#154 = ORIENTED_EDGE ( 'NONE', *, *, #193, .T. ) ;
#155 = DIRECTION ( 'NONE',  ( 1.224646799147353207E-16, 1.000000000000000000, -0.000000000000000000 ) ) ;
#156 = ADVANCED_FACE ( 'NONE', ( #343 ), #259, .T. ) ;
#157 = APPROVAL_PERSON_ORGANIZATION ( #87, #172, #118 ) ;
#158 = DIRECTION ( 'NONE',  ( 0.000000000000000000, 0.000000000000000000, 1.000000000000000000 ) ) ;
#159 = CARTESIAN_POINT ( 'NONE',  ( 2.750000000000000000, 3.367778697655221012E-16, 0.000000000000000000 ) ) ;
#160 = EDGE_CURVE ( 'NONE', #86, #33, #312, .T. ) ;
#161 = FACE_BOUND ( 'NONE', #349, .T. ) ;
#162 = CARTESIAN_POINT ( 'NONE',  ( 0.000000000000000000, 0.000000000000000000, 0.000000000000000000 ) ) ;
#163 = AXIS2_PLACEMENT_3D ( 'NONE', #233, #19, #165 ) ;
#164 = COORDINATED_UNIVERSAL_TIME_OFFSET ( 1, 0, .AHEAD. ) ;
#165 = DIRECTION ( 'NONE',  ( -1.000000000000000000, 0.000000000000000000, 0.000000000000000000 ) ) ;
#166 = ORIENTED_EDGE ( 'NONE', *, *, #65, .T. ) ;
#167 = CC_DESIGN_DATE_AND_TIME_ASSIGNMENT ( #94, #213, ( #313 ) ) ;
#168 = DIRECTION ( 'NONE',  ( 1.000000000000000000, 0.000000000000000000, -0.000000000000000000 ) ) ;
#169 = ORIENTED_EDGE ( 'NONE', *, *, #198, .T. ) ;
#170 =( LENGTH_UNIT ( ) NAMED_UNIT ( * ) SI_UNIT ( .MILLI., .METRE. ) );
#171 = DIRECTION ( 'NONE',  ( 1.000000000000000000, 0.000000000000000000, 0.000000000000000000 ) ) ;
#172 = APPROVAL ( #239, 'NEURÈENÝ' ) ;
#173 = ORIENTED_EDGE ( 'NONE', *, *, #198, .F. ) ;
#174 = APPROVAL_DATE_TIME ( #205, #172 ) ;
#175 = ORIENTED_EDGE ( 'NONE', *, *, #20, .T. ) ;
#176 = CIRCLE ( 'NONE', #98, 8.000000000000000000 ) ;
#177 = FACE_OUTER_BOUND ( 'NONE', #238, .T. ) ;
#178 =( NAMED_UNIT ( * ) SI_UNIT ( $, .STERADIAN. ) SOLID_ANGLE_UNIT ( ) );
#179 = CARTESIAN_POINT ( 'NONE',  ( 0.000000000000000000, 0.000000000000000000, 155.0000000000000000 ) ) ;
#180 = EDGE_CURVE ( 'NONE', #57, #290, #29, .T. ) ;
#181 = CIRCLE ( 'NONE', #97, 8.000000000000000000 ) ;
#182 = PERSON_AND_ORGANIZATION_ROLE ( 'design_owner' ) ;
#183 = CARTESIAN_POINT ( 'NONE',  ( -8.000000000000000000, 0.000000000000000000, 0.000000000000000000 ) ) ;
#184 = DATE_AND_TIME ( #58, #229 ) ;
#185 = ORIENTED_EDGE ( 'NONE', *, *, #133, .T. ) ;
#186 = EDGE_CURVE ( 'NONE', #355, #326, #344, .T. ) ;
#187 = DIRECTION ( 'NONE',  ( 1.000000000000000000, 0.000000000000000000, 0.000000000000000000 ) ) ;
#188 = CIRCLE ( 'NONE', #144, 5.000000000000000000 ) ;
#189 = CARTESIAN_POINT ( 'NONE',  ( 0.000000000000000000, 0.000000000000000000, 5.000000000000000000 ) ) ;
#190 = AXIS2_PLACEMENT_3D ( 'NONE', #25, #141, #265 ) ;
#191 = DIRECTION ( 'NONE',  ( 1.000000000000000000, 0.000000000000000000, 0.000000000000000000 ) ) ;
#192 = DIRECTION ( 'NONE',  ( 0.000000000000000000, 0.000000000000000000, 1.000000000000000000 ) ) ;
#193 = EDGE_CURVE ( 'NONE', #326, #355, #367, .T. ) ;
#194 = DIRECTION ( 'NONE',  ( -0.000000000000000000, -0.000000000000000000, -1.000000000000000000 ) ) ;
#195 = DIRECTION ( 'NONE',  ( -0.000000000000000000, -0.000000000000000000, -1.000000000000000000 ) ) ;
#196 = VECTOR ( 'NONE', #75, 1000.000000000000000 ) ;
#197 = CARTESIAN_POINT ( 'NONE',  ( 5.000000000000000000, 6.123233995736766282E-16, 5.500000000000005329 ) ) ;
#198 = EDGE_CURVE ( 'NONE', #57, #355, #335, .T. ) ;
#199 = VERTEX_POINT ( 'NONE', #41 ) ;
#200 = PRODUCT_DEFINITION_SHAPE ( 'NONE', 'NONE',  #313 ) ;
#201 = ADVANCED_FACE ( 'NONE', ( #161, #224 ), #72, .T. ) ;
#202 = MANIFOLD_SOLID_BREP ( 'Odebrat vysunutím3', #119 ) ;
#203 = VERTEX_POINT ( 'NONE', #311 ) ;
#204 = AXIS2_PLACEMENT_3D ( 'NONE', #68, #39, #301 ) ;
#205 = DATE_AND_TIME ( #5, #139 ) ;
#206 = CARTESIAN_POINT ( 'NONE',  ( -2.750000000000000000, 0.000000000000000000, 155.0000000000000000 ) ) ;
#207 = SHAPE_DEFINITION_REPRESENTATION ( #200, #330 ) ;
#208 = AXIS2_PLACEMENT_3D ( 'NONE', #300, #277, #360 ) ;
#209 = APPROVAL_STATUS ( 'not_yet_approved' ) ;
#210 = ORIENTED_EDGE ( 'NONE', *, *, #223, .T. ) ;
#211 = APPLICATION_PROTOCOL_DEFINITION ( 'international standard', 'config_control_design', 1994, #46 ) ;
#212 = CYLINDRICAL_SURFACE ( 'NONE', #204, 8.000000000000000000 ) ;
#213 = DATE_TIME_ROLE ( 'creation_date' ) ;
#214 = FACE_OUTER_BOUND ( 'NONE', #279, .T. ) ;
#215 = VECTOR ( 'NONE', #195, 1000.000000000000000 ) ;
#216 = AXIS2_PLACEMENT_3D ( 'NONE', #145, #346, #168 ) ;
#217 = DATE_AND_TIME ( #23, #17 ) ;
#218 = ORIENTED_EDGE ( 'NONE', *, *, #278, .F. ) ;
#219 = CARTESIAN_POINT ( 'NONE',  ( 0.000000000000000000, 0.000000000000000000, 5.500000000000005329 ) ) ;
#220 = FACE_BOUND ( 'NONE', #143, .T. ) ;
#221 = CIRCLE ( 'NONE', #271, 2.750000000000000000 ) ;
#222 = LINE ( 'NONE', #369, #52 ) ;
#223 = EDGE_CURVE ( 'NONE', #199, #33, #42, .T. ) ;
#224 = FACE_OUTER_BOUND ( 'NONE', #232, .T. ) ;
#225 = CARTESIAN_POINT ( 'NONE',  ( -8.000000000000000000, 0.000000000000000000, 5.000000000000000000 ) ) ;
#226 = TOROIDAL_SURFACE ( 'NONE', #337, 5.500000000000000000, 0.5000000000000000000 ) ;
#227 = EDGE_CURVE ( 'NONE', #270, #99, #257, .T. ) ;
#228 = FACE_OUTER_BOUND ( 'NONE', #149, .T. ) ;
#229 = LOCAL_TIME ( 17, 5, 48.00000000000000000, #325 ) ;
#230 = ORIENTED_EDGE ( 'NONE', *, *, #255, .T. ) ;
#231 = CARTESIAN_POINT ( 'NONE',  ( 0.000000000000000000, 0.000000000000000000, 5.500000000000005329 ) ) ;
#232 = EDGE_LOOP ( 'NONE', ( #6, #320 ) ) ;
#233 = CARTESIAN_POINT ( 'NONE',  ( 0.000000000000000000, 0.000000000000000000, 155.0000000000000000 ) ) ;
#234 = VERTEX_POINT ( 'NONE', #159 ) ;
#235 = CYLINDRICAL_SURFACE ( 'NONE', #190, 5.000000000000000000 ) ;
#236 = ORIENTED_EDGE ( 'NONE', *, *, #186, .T. ) ;
#237 = LOCAL_TIME ( 17, 5, 48.00000000000000000, #164 ) ;
#238 = EDGE_LOOP ( 'NONE', ( #122, #230, #378, #276 ) ) ;
#239 = APPROVAL_STATUS ( 'not_yet_approved' ) ;
#240 = EDGE_CURVE ( 'NONE', #234, #374, #283, .T. ) ;
#241 = ORIENTED_EDGE ( 'NONE', *, *, #240, .F. ) ;
#242 = AXIS2_PLACEMENT_3D ( 'NONE', #27, #321, #110 ) ;
#243 = ORIENTED_EDGE ( 'NONE', *, *, #379, .F. ) ;
#244 = COORDINATED_UNIVERSAL_TIME_OFFSET ( 1, 0, .AHEAD. ) ;
#245 = EDGE_LOOP ( 'NONE', ( #71, #327, #333, #323 ) ) ;
#246 = EDGE_CURVE ( 'NONE', #86, #352, #31, .T. ) ;
#247 = APPROVAL_ROLE ( '' ) ;
#248 = ORIENTED_EDGE ( 'NONE', *, *, #180, .T. ) ;
#249 = AXIS2_PLACEMENT_3D ( 'NONE', #363, #100, #340 ) ;
#250 = AXIS2_PLACEMENT_3D ( 'NONE', #43, #104, #258 ) ;
#251 = DIRECTION ( 'NONE',  ( 1.000000000000000000, 0.000000000000000000, 0.000000000000000000 ) ) ;
#252 = PERSON_AND_ORGANIZATION ( #336, #103 ) ;
#253 = DIRECTION ( 'NONE',  ( 1.000000000000000000, 0.000000000000000000, 0.000000000000000000 ) ) ;
#254 = AXIS2_PLACEMENT_3D ( 'NONE', #132, #365, #135 ) ;
#255 = EDGE_CURVE ( 'NONE', #99, #234, #80, .T. ) ;
#256 = DIRECTION ( 'NONE',  ( 1.000000000000000000, 0.000000000000000000, 0.000000000000000000 ) ) ;
#257 = CIRCLE ( 'NONE', #263, 2.750000000000000000 ) ;
#258 = DIRECTION ( 'NONE',  ( 1.000000000000000000, 0.000000000000000000, 0.000000000000000000 ) ) ;
#259 = CYLINDRICAL_SURFACE ( 'NONE', #316, 8.000000000000000000 ) ;
#260 = DIRECTION ( 'NONE',  ( 0.000000000000000000, 0.000000000000000000, 1.000000000000000000 ) ) ;
#261 = CALENDAR_DATE ( 2022, 8, 7 ) ;
#262 = FACE_OUTER_BOUND ( 'NONE', #376, .T. ) ;
#263 = AXIS2_PLACEMENT_3D ( 'NONE', #76, #308, #12 ) ;
#264 = EDGE_LOOP ( 'NONE', ( #173, #142, #166, #154 ) ) ;
#265 = DIRECTION ( 'NONE',  ( -1.000000000000000000, 0.000000000000000000, 0.000000000000000000 ) ) ;
#266 = EDGE_LOOP ( 'NONE', ( #79, #185, #210, #120 ) ) ;
#267 = FACE_OUTER_BOUND ( 'NONE', #264, .T. ) ;
#268 = EDGE_CURVE ( 'NONE', #99, #270, #221, .T. ) ;
#269 = UNCERTAINTY_MEASURE_WITH_UNIT (LENGTH_MEASURE( 1.000000000000000082E-05 ), #170, 'distance_accuracy_value', 'NONE');
#270 = VERTEX_POINT ( 'NONE', #50 ) ;
#271 = AXIS2_PLACEMENT_3D ( 'NONE', #78, #260, #291 ) ;
#272 = APPROVAL_DATE_TIME ( #184, #329 ) ;
#273 = ORIENTED_EDGE ( 'NONE', *, *, #227, .F. ) ;
#274 = DIRECTION ( 'NONE',  ( 0.000000000000000000, 0.000000000000000000, -1.000000000000000000 ) ) ;
#275 = CIRCLE ( 'NONE', #131, 0.5000000000000004441 ) ;
#276 = ORIENTED_EDGE ( 'NONE', *, *, #88, .F. ) ;
#277 = DIRECTION ( 'NONE',  ( 0.000000000000000000, 0.000000000000000000, 1.000000000000000000 ) ) ;
#278 = EDGE_CURVE ( 'NONE', #36, #203, #150, .T. ) ;
#279 = EDGE_LOOP ( 'NONE', ( #22, #381, #331, #281 ) ) ;
#280 = PERSON_AND_ORGANIZATION_ROLE ( 'design_supplier' ) ;
#281 = ORIENTED_EDGE ( 'NONE', *, *, #379, .T. ) ;
#282 = FACE_OUTER_BOUND ( 'NONE', #351, .T. ) ;
#283 = CIRCLE ( 'NONE', #339, 2.750000000000000000 ) ;
#284 = DIRECTION ( 'NONE',  ( 0.000000000000000000, 0.000000000000000000, 1.000000000000000000 ) ) ;
#285 = DIRECTION ( 'NONE',  ( 1.000000000000000000, 0.000000000000000000, 0.000000000000000000 ) ) ;
#286 = DIRECTION ( 'NONE',  ( -0.000000000000000000, -0.000000000000000000, -1.000000000000000000 ) ) ;
#287 = DIRECTION ( 'NONE',  ( -1.000000000000000000, 1.224646799147351482E-16, 0.000000000000000000 ) ) ;
#288 = APPROVAL ( #334, 'NEURÈENÝ' ) ;
#289 = DIRECTION ( 'NONE',  ( 0.000000000000000000, 0.000000000000000000, 1.000000000000000000 ) ) ;
#290 = VERTEX_POINT ( 'NONE', #49 ) ;
#291 = DIRECTION ( 'NONE',  ( 1.000000000000000000, 0.000000000000000000, 0.000000000000000000 ) ) ;
#292 = AXIS2_PLACEMENT_3D ( 'NONE', #14, #130, #256 ) ;
#293 = ORIENTED_EDGE ( 'NONE', *, *, #268, .F. ) ;
#294 = ADVANCED_FACE ( 'NONE', ( #348 ), #111, .F. ) ;
#295 = CARTESIAN_POINT ( 'NONE',  ( 0.000000000000000000, 0.000000000000000000, 0.000000000000000000 ) ) ;
#296 = PERSON_AND_ORGANIZATION ( #336, #103 ) ;
#297 = PRODUCT_RELATED_PRODUCT_CATEGORY ( 'detail', '', ( #299 ) ) ;
#298 = CYLINDRICAL_SURFACE ( 'NONE', #34, 2.750000000000000000 ) ;
#299 = PRODUCT ( '76df', '76df', '', ( #63 ) ) ;
#300 = CARTESIAN_POINT ( 'NONE',  ( 0.000000000000000000, 0.000000000000000000, 0.000000000000000000 ) ) ;
#301 = DIRECTION ( 'NONE',  ( -1.000000000000000000, 0.000000000000000000, 0.000000000000000000 ) ) ;
#302 = APPLICATION_PROTOCOL_DEFINITION ( 'international standard', 'config_control_design', 1994, #328 ) ;
#303 = LINE ( 'NONE', #40, #8 ) ;
#304 = APPROVAL_PERSON_ORGANIZATION ( #66, #329, #247 ) ;
#305 = PERSON_AND_ORGANIZATION_ROLE ( 'creator' ) ;
#306 = ORIENTED_EDGE ( 'NONE', *, *, #357, .T. ) ;
#307 = DIRECTION ( 'NONE',  ( 0.000000000000000000, 0.000000000000000000, 1.000000000000000000 ) ) ;
#308 = DIRECTION ( 'NONE',  ( 0.000000000000000000, 0.000000000000000000, 1.000000000000000000 ) ) ;
#309 = EDGE_CURVE ( 'NONE', #355, #203, #310, .T. ) ;
#310 = CIRCLE ( 'NONE', #242, 0.5000000000000004441 ) ;
#311 = CARTESIAN_POINT ( 'NONE',  ( 5.500000000000000000, 0.000000000000000000, 5.000000000000002665 ) ) ;
#312 = LINE ( 'NONE', #225, #215 ) ;
#313 = PRODUCT_DEFINITION ( 'NEZNÁMÝ', '', #48, #13 ) ;
#314 = CARTESIAN_POINT ( 'NONE',  ( 0.000000000000000000, 0.000000000000000000, 155.0000000000000000 ) ) ;
#315 = COORDINATED_UNIVERSAL_TIME_OFFSET ( 1, 0, .AHEAD. ) ;
#316 = AXIS2_PLACEMENT_3D ( 'NONE', #16, #77, #106 ) ;
#317 = CC_DESIGN_SECURITY_CLASSIFICATION ( #121, ( #48 ) ) ;
#318 = CYLINDRICAL_SURFACE ( 'NONE', #353, 5.000000000000000000 ) ;
#319 = DIRECTION ( 'NONE',  ( 0.000000000000000000, 0.000000000000000000, -1.000000000000000000 ) ) ;
#320 = ORIENTED_EDGE ( 'NONE', *, *, #151, .T. ) ;
#321 = DIRECTION ( 'NONE',  ( 0.000000000000000000, -1.000000000000000000, 0.000000000000000000 ) ) ;
#322 = DIRECTION ( 'NONE',  ( -0.000000000000000000, -0.000000000000000000, -1.000000000000000000 ) ) ;
#323 = ORIENTED_EDGE ( 'NONE', *, *, #309, .F. ) ;
#324 = DIRECTION ( 'NONE',  ( -0.000000000000000000, -0.000000000000000000, -1.000000000000000000 ) ) ;
#325 = COORDINATED_UNIVERSAL_TIME_OFFSET ( 1, 0, .AHEAD. ) ;
#326 = VERTEX_POINT ( 'NONE', #107 ) ;
#327 = ORIENTED_EDGE ( 'NONE', *, *, #140, .T. ) ;
#328 = APPLICATION_CONTEXT ( 'configuration controlled 3d designs of mechanical parts and assemblies' ) ;
#329 = APPROVAL ( #209, 'NEURÈENÝ' ) ;
#330 = ADVANCED_BREP_SHAPE_REPRESENTATION ( '76df', ( #202, #208 ), #69 ) ;
#331 = ORIENTED_EDGE ( 'NONE', *, *, #160, .T. ) ;
#332 = AXIS2_PLACEMENT_3D ( 'NONE', #231, #289, #82 ) ;
#333 = ORIENTED_EDGE ( 'NONE', *, *, #357, .F. ) ;
#334 = APPROVAL_STATUS ( 'not_yet_approved' ) ;
#335 = LINE ( 'NONE', #73, #196 ) ;
#336 = PERSON ( 'NEURÈENÝ', 'NEURÈENÝ', 'NEURÈENÝ', ('NEURÈENÝ'), ('NEURÈENÝ'), ('NEURÈENÝ') ) ;
#337 = AXIS2_PLACEMENT_3D ( 'NONE', #95, #307, #152 ) ;
#338 = DIRECTION ( 'NONE',  ( 0.000000000000000000, 0.000000000000000000, 1.000000000000000000 ) ) ;
#339 = AXIS2_PLACEMENT_3D ( 'NONE', #129, #194, #191 ) ;
#340 = DIRECTION ( 'NONE',  ( 1.000000000000000000, 0.000000000000000000, 0.000000000000000000 ) ) ;
#341 = CC_DESIGN_PERSON_AND_ORGANIZATION_ASSIGNMENT ( #32, #182, ( #299 ) ) ;
#342 = DIRECTION ( 'NONE',  ( 1.000000000000000000, 0.000000000000000000, -0.000000000000000000 ) ) ;
#343 = FACE_OUTER_BOUND ( 'NONE', #266, .T. ) ;
#344 = CIRCLE ( 'NONE', #90, 5.000000000000000000 ) ;
#345 = CARTESIAN_POINT ( 'NONE',  ( 8.000000000000000000, 9.797174393178825657E-16, 5.000000000000000000 ) ) ;
#346 = DIRECTION ( 'NONE',  ( 0.000000000000000000, 0.000000000000000000, 1.000000000000000000 ) ) ;
#347 = ORIENTED_EDGE ( 'NONE', *, *, #309, .T. ) ;
#348 = FACE_OUTER_BOUND ( 'NONE', #26, .T. ) ;
#349 = EDGE_LOOP ( 'NONE', ( #306, #59 ) ) ;
#350 = ADVANCED_FACE ( 'NONE', ( #228 ), #11, .F. ) ;
#351 = EDGE_LOOP ( 'NONE', ( #2, #169, #236, #64 ) ) ;
#352 = VERTEX_POINT ( 'NONE', #345 ) ;
#353 = AXIS2_PLACEMENT_3D ( 'NONE', #314, #286, #45 ) ;
#354 = COORDINATED_UNIVERSAL_TIME_OFFSET ( 1, 0, .AHEAD. ) ;
#355 = VERTEX_POINT ( 'NONE', #197 ) ;
#356 = CARTESIAN_POINT ( 'NONE',  ( 5.000000000000000000, 6.123233995736766282E-16, 155.0000000000000000 ) ) ;
#357 = EDGE_CURVE ( 'NONE', #203, #36, #380, .T. ) ;
#358 = PERSON_AND_ORGANIZATION_ROLE ( 'creator' ) ;
#359 = DIRECTION ( 'NONE',  ( 0.000000000000000000, 0.000000000000000000, 1.000000000000000000 ) ) ;
#360 = DIRECTION ( 'NONE',  ( 1.000000000000000000, 0.000000000000000000, 0.000000000000000000 ) ) ;
#361 = ORIENTED_EDGE ( 'NONE', *, *, #140, .F. ) ;
#362 = ADVANCED_FACE ( 'NONE', ( #114, #262 ), #55, .T. ) ;
#363 = CARTESIAN_POINT ( 'NONE',  ( 0.000000000000000000, 0.000000000000000000, 155.0000000000000000 ) ) ;
#364 = APPROVAL_ROLE ( '' ) ;
#365 = DIRECTION ( 'NONE',  ( 0.000000000000000000, 0.000000000000000000, 1.000000000000000000 ) ) ;
#366 = DIRECTION ( 'NONE',  ( -0.000000000000000000, -0.000000000000000000, -1.000000000000000000 ) ) ;
#367 = CIRCLE ( 'NONE', #250, 5.000000000000000000 ) ;
#368 = DIRECTION ( 'NONE',  ( 1.000000000000000000, 0.000000000000000000, 0.000000000000000000 ) ) ;
#369 = CARTESIAN_POINT ( 'NONE',  ( 8.000000000000000000, 9.797174393178825657E-16, 5.000000000000000000 ) ) ;
#370 = CARTESIAN_POINT ( 'NONE',  ( 0.000000000000000000, 0.000000000000000000, 5.000000000000000000 ) ) ;
#371 = VECTOR ( 'NONE', #319, 1000.000000000000000 ) ;
#372 = ADVANCED_FACE ( 'NONE', ( #267 ), #235, .T. ) ;
#373 = DIRECTION ( 'NONE',  ( 1.000000000000000000, 0.000000000000000000, 0.000000000000000000 ) ) ;
#374 = VERTEX_POINT ( 'NONE', #377 ) ;
#375 = DIRECTION ( 'NONE',  ( 0.000000000000000000, 0.000000000000000000, 1.000000000000000000 ) ) ;
#376 = EDGE_LOOP ( 'NONE', ( #175, #248 ) ) ;
#377 = CARTESIAN_POINT ( 'NONE',  ( -2.750000000000000000, 0.000000000000000000, 0.000000000000000000 ) ) ;
#378 = ORIENTED_EDGE ( 'NONE', *, *, #240, .T. ) ;
#379 = EDGE_CURVE ( 'NONE', #33, #199, #176, .T. ) ;
#380 = CIRCLE ( 'NONE', #67, 5.500000000000000000 ) ;
#381 = ORIENTED_EDGE ( 'NONE', *, *, #246, .F. ) ;
ENDSEC;
END-ISO-10303-21;
