ISO-10303-21;
HEADER;
FILE_DESCRIPTION (( 'STEP AP203' ),
    '1' );
FILE_NAME ('3b96.STEP',
    '2022-07-08T14:48:08',
    ( '' ),
    ( '' ),
    'SwSTEP 2.0',
    'SolidWorks 2019',
    '' );
FILE_SCHEMA (( 'CONFIG_CONTROL_DESIGN' ));
ENDSEC;

DATA;
#1 = CYLINDRICAL_SURFACE ( 'NONE', #3, 8.000000000000000000 ) ;
#2 = DIRECTION ( 'NONE',  ( 0.000000000000000000, 0.000000000000000000, 1.000000000000000000 ) ) ;
#3 = AXIS2_PLACEMENT_3D ( 'NONE', #356, #94, #201 ) ;
#4 = DIRECTION ( 'NONE',  ( 0.000000000000000000, 0.000000000000000000, -1.000000000000000000 ) ) ;
#5 = DIRECTION ( 'NONE',  ( -1.000000000000000000, 1.224646799147351482E-16, 0.000000000000000000 ) ) ;
#6 = DIRECTION ( 'NONE',  ( -0.000000000000000000, -0.000000000000000000, -1.000000000000000000 ) ) ;
#7 = CIRCLE ( 'NONE', #349, 0.5000000000000004441 ) ;
#8 = LINE ( 'NONE', #181, #111 ) ;
#9 = ORIENTED_EDGE ( 'NONE', *, *, #193, .T. ) ;
#10 = CARTESIAN_POINT ( 'NONE',  ( 0.000000000000000000, 0.000000000000000000, 805.0000000000000000 ) ) ;
#11 = ADVANCED_FACE ( 'NONE', ( #162 ), #346, .T. ) ;
#12 = ORIENTED_EDGE ( 'NONE', *, *, #297, .T. ) ;
#13 = DIRECTION ( 'NONE',  ( 0.000000000000000000, 0.000000000000000000, 1.000000000000000000 ) ) ;
#14 = VERTEX_POINT ( 'NONE', #163 ) ;
#15 = CIRCLE ( 'NONE', #241, 8.000000000000000000 ) ;
#16 = SECURITY_CLASSIFICATION_LEVEL ( 'unclassified' ) ;
#17 = ADVANCED_FACE ( 'NONE', ( #375 ), #146, .F. ) ;
#18 = ORIENTED_EDGE ( 'NONE', *, *, #193, .F. ) ;
#19 = COORDINATED_UNIVERSAL_TIME_OFFSET ( 1, 0, .AHEAD. ) ;
#20 = CARTESIAN_POINT ( 'NONE',  ( 0.000000000000000000, 0.000000000000000000, 805.0000000000000000 ) ) ;
#21 = CARTESIAN_POINT ( 'NONE',  ( 0.000000000000000000, 0.000000000000000000, 5.499999999999949374 ) ) ;
#22 = CC_DESIGN_APPROVAL ( #358, ( #81 ) ) ;
#23 = DIRECTION ( 'NONE',  ( 0.000000000000000000, 0.000000000000000000, 1.000000000000000000 ) ) ;
#24 = FACE_OUTER_BOUND ( 'NONE', #324, .T. ) ;
#25 = APPROVAL_DATE_TIME ( #244, #51 ) ;
#26 = DIRECTION ( 'NONE',  ( 1.000000000000000000, 0.000000000000000000, 0.000000000000000000 ) ) ;
#27 = FACE_OUTER_BOUND ( 'NONE', #357, .T. ) ;
#28 = ORIENTED_EDGE ( 'NONE', *, *, #322, .F. ) ;
#29 = FACE_OUTER_BOUND ( 'NONE', #240, .T. ) ;
#30 = EDGE_LOOP ( 'NONE', ( #267, #305 ) ) ;
#31 = CARTESIAN_POINT ( 'NONE',  ( 0.000000000000000000, 0.000000000000000000, 805.0000000000000000 ) ) ;
#32 = VERTEX_POINT ( 'NONE', #352 ) ;
#33 = CC_DESIGN_DATE_AND_TIME_ASSIGNMENT ( #213, #246, ( #81 ) ) ;
#34 = PLANE ( 'NONE',  #255 ) ;
#35 = EDGE_CURVE ( 'NONE', #69, #287, #299, .T. ) ;
#36 = CARTESIAN_POINT ( 'NONE',  ( 0.000000000000000000, 0.000000000000000000, 805.0000000000000000 ) ) ;
#37 = CYLINDRICAL_SURFACE ( 'NONE', #283, 8.000000000000000000 ) ;
#38 = CIRCLE ( 'NONE', #46, 0.5000000000000004441 ) ;
#39 = ORIENTED_EDGE ( 'NONE', *, *, #35, .F. ) ;
#40 = DIRECTION ( 'NONE',  ( 0.000000000000000000, -1.000000000000000000, 0.000000000000000000 ) ) ;
#41 = DIRECTION ( 'NONE',  ( 0.000000000000000000, 0.000000000000000000, 1.000000000000000000 ) ) ;
#42 = ORIENTED_EDGE ( 'NONE', *, *, #60, .F. ) ;
#43 = CC_DESIGN_PERSON_AND_ORGANIZATION_ASSIGNMENT ( #279, #277, ( #157 ) ) ;
#44 = APPROVAL_ROLE ( '' ) ;
#45 = CARTESIAN_POINT ( 'NONE',  ( 5.500000000000000000, 0.000000000000000000, 4.999999999999975131 ) ) ;
#46 = AXIS2_PLACEMENT_3D ( 'NONE', #359, #284, #5 ) ;
#47 = MECHANICAL_CONTEXT ( 'NONE', #258, 'mechanical' ) ;
#48 = EDGE_CURVE ( 'NONE', #333, #14, #178, .T. ) ;
#49 = VECTOR ( 'NONE', #197, 1000.000000000000000 ) ;
#50 = APPROVAL_DATE_TIME ( #132, #303 ) ;
#51 = APPROVAL ( #108, 'NEURÈENÝ' ) ;
#52 = PERSON_AND_ORGANIZATION ( #370, #248 ) ;
#53 = CARTESIAN_POINT ( 'NONE',  ( -8.000000000000000000, 0.000000000000000000, 5.000000000000000000 ) ) ;
#54 = CARTESIAN_POINT ( 'NONE',  ( 0.000000000000000000, 0.000000000000000000, 0.000000000000000000 ) ) ;
#55 = AXIS2_PLACEMENT_3D ( 'NONE', #335, #66, #368 ) ;
#56 = EDGE_CURVE ( 'NONE', #14, #333, #207, .T. ) ;
#57 = CARTESIAN_POINT ( 'NONE',  ( 0.000000000000000000, 0.000000000000000000, 5.000000000000000000 ) ) ;
#58 = ORIENTED_EDGE ( 'NONE', *, *, #191, .F. ) ;
#59 = DIRECTION ( 'NONE',  ( 0.000000000000000000, 0.000000000000000000, 1.000000000000000000 ) ) ;
#60 = EDGE_CURVE ( 'NONE', #89, #14, #112, .T. ) ;
#61 = DESIGN_CONTEXT ( 'detailed design', #119, 'design' ) ;
#62 = DIRECTION ( 'NONE',  ( -1.000000000000000000, 0.000000000000000000, 0.000000000000000000 ) ) ;
#63 = AXIS2_PLACEMENT_3D ( 'NONE', #10, #242, #124 ) ;
#64 = DIRECTION ( 'NONE',  ( -0.000000000000000000, -0.000000000000000000, -1.000000000000000000 ) ) ;
#65 = ORIENTED_EDGE ( 'NONE', *, *, #127, .F. ) ;
#66 = DIRECTION ( 'NONE',  ( 0.000000000000000000, 0.000000000000000000, 1.000000000000000000 ) ) ;
#67 = ORIENTED_EDGE ( 'NONE', *, *, #71, .F. ) ;
#68 = CARTESIAN_POINT ( 'NONE',  ( 0.000000000000000000, 0.000000000000000000, 0.000000000000000000 ) ) ;
#69 = VERTEX_POINT ( 'NONE', #53 ) ;
#70 = AXIS2_PLACEMENT_3D ( 'NONE', #199, #286, #227 ) ;
#71 = EDGE_CURVE ( 'NONE', #32, #147, #245, .T. ) ;
#72 = FACE_BOUND ( 'NONE', #364, .T. ) ;
#73 = CIRCLE ( 'NONE', #342, 8.000000000000000000 ) ;
#74 = VERTEX_POINT ( 'NONE', #45 ) ;
#75 = DIRECTION ( 'NONE',  ( 0.000000000000000000, 0.000000000000000000, 1.000000000000000000 ) ) ;
#76 = ORIENTED_EDGE ( 'NONE', *, *, #184, .F. ) ;
#77 = DIRECTION ( 'NONE',  ( -0.000000000000000000, -0.000000000000000000, -1.000000000000000000 ) ) ;
#78 = ORIENTED_EDGE ( 'NONE', *, *, #166, .T. ) ;
#79 = AXIS2_PLACEMENT_3D ( 'NONE', #367, #233, #205 ) ;
#80 = VERTEX_POINT ( 'NONE', #278 ) ;
#81 = SECURITY_CLASSIFICATION ( '', '', #16 ) ;
#82 = APPROVAL_DATE_TIME ( #351, #358 ) ;
#83 = DIRECTION ( 'NONE',  ( 0.000000000000000000, 0.000000000000000000, -1.000000000000000000 ) ) ;
#84 = DIRECTION ( 'NONE',  ( -0.000000000000000000, -0.000000000000000000, -1.000000000000000000 ) ) ;
#85 = UNCERTAINTY_MEASURE_WITH_UNIT (LENGTH_MEASURE( 1.000000000000000082E-05 ), #270, 'distance_accuracy_value', 'NONE');
#86 = CARTESIAN_POINT ( 'NONE',  ( 0.000000000000000000, 0.000000000000000000, 0.000000000000000000 ) ) ;
#87 = VECTOR ( 'NONE', #174, 1000.000000000000000 ) ;
#88 = PERSON_AND_ORGANIZATION_ROLE ( 'design_supplier' ) ;
#89 = VERTEX_POINT ( 'NONE', #250 ) ;
#90 = DIRECTION ( 'NONE',  ( 1.000000000000000000, 0.000000000000000000, 0.000000000000000000 ) ) ;
#91 = CC_DESIGN_PERSON_AND_ORGANIZATION_ASSIGNMENT ( #165, #304, ( #362 ) ) ;
#92 = DIRECTION ( 'NONE',  ( 0.000000000000000000, 0.000000000000000000, 1.000000000000000000 ) ) ;
#93 = AXIS2_PLACEMENT_3D ( 'NONE', #323, #59, #169 ) ;
#94 = DIRECTION ( 'NONE',  ( -0.000000000000000000, -0.000000000000000000, -1.000000000000000000 ) ) ;
#95 = DIRECTION ( 'NONE',  ( 0.000000000000000000, 0.000000000000000000, -1.000000000000000000 ) ) ;
#96 = ORIENTED_EDGE ( 'NONE', *, *, #290, .F. ) ;
#97 = ORIENTED_EDGE ( 'NONE', *, *, #366, .T. ) ;
#98 = CIRCLE ( 'NONE', #182, 5.500000000000000000 ) ;
#99 = LOCAL_TIME ( 16, 48, 8.000000000000000000, #344 ) ;
#100 = LINE ( 'NONE', #130, #268 ) ;
#101 = FACE_OUTER_BOUND ( 'NONE', #365, .T. ) ;
#102 = ORIENTED_EDGE ( 'NONE', *, *, #48, .F. ) ;
#103 = DIRECTION ( 'NONE',  ( 0.000000000000000000, 0.000000000000000000, 1.000000000000000000 ) ) ;
#104 = ADVANCED_FACE ( 'NONE', ( #24 ), #141, .F. ) ;
#105 = LOCAL_TIME ( 16, 48, 8.000000000000000000, #216 ) ;
#106 = DIRECTION ( 'NONE',  ( 0.000000000000000000, 0.000000000000000000, -1.000000000000000000 ) ) ;
#107 = ADVANCED_FACE ( 'NONE', ( #259 ), #202, .T. ) ;
#108 = APPROVAL_STATUS ( 'not_yet_approved' ) ;
#109 = CALENDAR_DATE ( 2022, 8, 7 ) ;
#110 = ADVANCED_BREP_SHAPE_REPRESENTATION ( '3b96', ( #236, #319 ), #373 ) ;
#111 = VECTOR ( 'NONE', #211, 1000.000000000000000 ) ;
#112 = LINE ( 'NONE', #217, #154 ) ;
#113 = SHAPE_DEFINITION_REPRESENTATION ( #180, #110 ) ;
#114 = CARTESIAN_POINT ( 'NONE',  ( 0.000000000000000000, 0.000000000000000000, 5.000000000000000000 ) ) ;
#115 = APPROVAL_ROLE ( '' ) ;
#116 = DIRECTION ( 'NONE',  ( 1.000000000000000000, 0.000000000000000000, 0.000000000000000000 ) ) ;
#117 = APPLICATION_PROTOCOL_DEFINITION ( 'international standard', 'config_control_design', 1994, #258 ) ;
#118 = CARTESIAN_POINT ( 'NONE',  ( 0.000000000000000000, 0.000000000000000000, 805.0000000000000000 ) ) ;
#119 = APPLICATION_CONTEXT ( 'configuration controlled 3d designs of mechanical parts and assemblies' ) ;
#120 = AXIS2_PLACEMENT_3D ( 'NONE', #20, #222, #137 ) ;
#121 = CARTESIAN_POINT ( 'NONE',  ( -3.100000000000000089, 0.000000000000000000, 805.0000000000000000 ) ) ;
#122 = EDGE_CURVE ( 'NONE', #147, #296, #38, .T. ) ;
#123 = LINE ( 'NONE', #145, #87 ) ;
#124 = DIRECTION ( 'NONE',  ( 1.000000000000000000, 0.000000000000000000, 0.000000000000000000 ) ) ;
#125 = CARTESIAN_POINT ( 'NONE',  ( 0.000000000000000000, 0.000000000000000000, 805.0000000000000000 ) ) ;
#126 = ADVANCED_FACE ( 'NONE', ( #29 ), #315, .F. ) ;
#127 = EDGE_CURVE ( 'NONE', #296, #74, #98, .T. ) ;
#128 = DIRECTION ( 'NONE',  ( 1.000000000000000000, 0.000000000000000000, -0.000000000000000000 ) ) ;
#129 = ORIENTED_EDGE ( 'NONE', *, *, #235, .F. ) ;
#130 = CARTESIAN_POINT ( 'NONE',  ( -8.000000000000000000, 0.000000000000000000, 5.000000000000000000 ) ) ;
#131 = ORIENTED_EDGE ( 'NONE', *, *, #127, .T. ) ;
#132 = DATE_AND_TIME ( #251, #99 ) ;
#133 = COORDINATED_UNIVERSAL_TIME_OFFSET ( 1, 0, .AHEAD. ) ;
#134 = DIRECTION ( 'NONE',  ( 0.000000000000000000, 0.000000000000000000, 1.000000000000000000 ) ) ;
#135 = CIRCLE ( 'NONE', #189, 3.100000000000000089 ) ;
#136 = EDGE_CURVE ( 'NONE', #369, #80, #15, .T. ) ;
#137 = DIRECTION ( 'NONE',  ( -1.000000000000000000, 0.000000000000000000, 0.000000000000000000 ) ) ;
#138 = APPROVAL_STATUS ( 'not_yet_approved' ) ;
#139 = DIRECTION ( 'NONE',  ( 1.000000000000000000, 0.000000000000000000, 0.000000000000000000 ) ) ;
#140 = AXIS2_PLACEMENT_3D ( 'NONE', #21, #308, #26 ) ;
#141 = CYLINDRICAL_SURFACE ( 'NONE', #224, 3.100000000000000089 ) ;
#142 = CIRCLE ( 'NONE', #215, 5.500000000000000000 ) ;
#143 = CARTESIAN_POINT ( 'NONE',  ( 0.000000000000000000, 0.000000000000000000, 805.0000000000000000 ) ) ;
#144 = ORIENTED_EDGE ( 'NONE', *, *, #136, .T. ) ;
#145 = CARTESIAN_POINT ( 'NONE',  ( 8.000000000000000000, 9.797174393178825657E-16, 5.000000000000000000 ) ) ;
#146 = TOROIDAL_SURFACE ( 'NONE', #261, 5.500000000000000000, 0.5000000000000000000 ) ;
#147 = VERTEX_POINT ( 'NONE', #360 ) ;
#148 = CC_DESIGN_SECURITY_CLASSIFICATION ( #81, ( #157 ) ) ;
#149 = FACE_BOUND ( 'NONE', #257, .T. ) ;
#150 = LINE ( 'NONE', #262, #49 ) ;
#151 = ORIENTED_EDGE ( 'NONE', *, *, #56, .T. ) ;
#152 = ADVANCED_FACE ( 'NONE', ( #149, #326 ), #34, .F. ) ;
#153 = CARTESIAN_POINT ( 'NONE',  ( 0.000000000000000000, 0.000000000000000000, 5.000000000000000000 ) ) ;
#154 = VECTOR ( 'NONE', #83, 1000.000000000000000 ) ;
#155 = ORIENTED_EDGE ( 'NONE', *, *, #332, .T. ) ;
#156 = TOROIDAL_SURFACE ( 'NONE', #172, 5.500000000000000000, 0.5000000000000000000 ) ;
#157 = PRODUCT_DEFINITION_FORMATION_WITH_SPECIFIED_SOURCE ( 'LIBOVOLNÝ', '', #362, .NOT_KNOWN. ) ;
#158 = DIRECTION ( 'NONE',  ( 1.000000000000000000, 0.000000000000000000, 0.000000000000000000 ) ) ;
#159 = FACE_BOUND ( 'NONE', #234, .T. ) ;
#160 = ORIENTED_EDGE ( 'NONE', *, *, #164, .T. ) ;
#161 = ORIENTED_EDGE ( 'NONE', *, *, #48, .T. ) ;
#162 = FACE_OUTER_BOUND ( 'NONE', #177, .T. ) ;
#163 = CARTESIAN_POINT ( 'NONE',  ( 3.100000000000000089, 3.796405077356794918E-16, 0.000000000000000000 ) ) ;
#164 = EDGE_CURVE ( 'NONE', #265, #147, #150, .T. ) ;
#165 = PERSON_AND_ORGANIZATION ( #370, #248 ) ;
#166 = EDGE_CURVE ( 'NONE', #336, #89, #301, .T. ) ;
#167 = AXIS2_PLACEMENT_3D ( 'NONE', #372, #84, #348 ) ;
#168 = DIRECTION ( 'NONE',  ( 1.000000000000000000, 0.000000000000000000, 0.000000000000000000 ) ) ;
#169 = DIRECTION ( 'NONE',  ( 1.000000000000000000, 0.000000000000000000, 0.000000000000000000 ) ) ;
#170 = PRODUCT_DEFINITION ( 'NEZNÁMÝ', '', #157, #61 ) ;
#171 = DIRECTION ( 'NONE',  ( 0.000000000000000000, 0.000000000000000000, 1.000000000000000000 ) ) ;
#172 = AXIS2_PLACEMENT_3D ( 'NONE', #329, #13, #294 ) ;
#173 = LOCAL_TIME ( 16, 48, 8.000000000000000000, #19 ) ;
#174 = DIRECTION ( 'NONE',  ( -0.000000000000000000, -0.000000000000000000, -1.000000000000000000 ) ) ;
#175 = ORIENTED_EDGE ( 'NONE', *, *, #122, .F. ) ;
#176 = CARTESIAN_POINT ( 'NONE',  ( -8.000000000000000000, 0.000000000000000000, 0.000000000000000000 ) ) ;
#177 = EDGE_LOOP ( 'NONE', ( #271, #340, #160, #206 ) ) ;
#178 = CIRCLE ( 'NONE', #167, 3.100000000000000089 ) ;
#179 = CC_DESIGN_DATE_AND_TIME_ASSIGNMENT ( #194, #221, ( #170 ) ) ;
#180 = PRODUCT_DEFINITION_SHAPE ( 'NONE', 'NONE',  #170 ) ;
#181 = CARTESIAN_POINT ( 'NONE',  ( 5.000000000000000000, 6.123233995736766282E-16, 805.0000000000000000 ) ) ;
#182 = AXIS2_PLACEMENT_3D ( 'NONE', #260, #6, #203 ) ;
#183 =( NAMED_UNIT ( * ) SI_UNIT ( $, .STERADIAN. ) SOLID_ANGLE_UNIT ( ) );
#184 = EDGE_CURVE ( 'NONE', #74, #296, #142, .T. ) ;
#185 = EDGE_LOOP ( 'NONE', ( #192, #313 ) ) ;
#186 = CARTESIAN_POINT ( 'NONE',  ( -5.500000000000000000, 6.735557395310442023E-16, 4.999999999999975131 ) ) ;
#187 = ORIENTED_EDGE ( 'NONE', *, *, #191, .T. ) ;
#188 = CIRCLE ( 'NONE', #79, 8.000000000000000000 ) ;
#189 = AXIS2_PLACEMENT_3D ( 'NONE', #125, #75, #363 ) ;
#190 = CARTESIAN_POINT ( 'NONE',  ( 0.000000000000000000, 0.000000000000000000, 0.000000000000000000 ) ) ;
#191 = EDGE_CURVE ( 'NONE', #287, #80, #123, .T. ) ;
#192 = ORIENTED_EDGE ( 'NONE', *, *, #136, .F. ) ;
#193 = EDGE_CURVE ( 'NONE', #273, #265, #200, .T. ) ;
#194 = DATE_AND_TIME ( #371, #195 ) ;
#195 = LOCAL_TIME ( 16, 48, 8.000000000000000000, #379 ) ;
#196 = CARTESIAN_POINT ( 'NONE',  ( 0.000000000000000000, 0.000000000000000000, 5.499999999999949374 ) ) ;
#197 = DIRECTION ( 'NONE',  ( -0.000000000000000000, -0.000000000000000000, -1.000000000000000000 ) ) ;
#198 = CLOSED_SHELL ( 'NONE', ( #126, #17, #107, #376, #228, #307, #152, #11, #343, #318, #104 ) ) ;
#199 = CARTESIAN_POINT ( 'NONE',  ( 0.000000000000000000, 0.000000000000000000, 805.0000000000000000 ) ) ;
#200 = CIRCLE ( 'NONE', #334, 5.000000000000000000 ) ;
#201 = DIRECTION ( 'NONE',  ( -1.000000000000000000, 0.000000000000000000, 0.000000000000000000 ) ) ;
#202 = CYLINDRICAL_SURFACE ( 'NONE', #70, 5.000000000000000000 ) ;
#203 = DIRECTION ( 'NONE',  ( 1.000000000000000000, 0.000000000000000000, 0.000000000000000000 ) ) ;
#204 = CARTESIAN_POINT ( 'NONE',  ( -3.100000000000000089, 0.000000000000000000, 0.000000000000000000 ) ) ;
#205 = DIRECTION ( 'NONE',  ( 1.000000000000000000, 0.000000000000000000, 0.000000000000000000 ) ) ;
#206 = ORIENTED_EDGE ( 'NONE', *, *, #235, .T. ) ;
#207 = CIRCLE ( 'NONE', #310, 3.100000000000000089 ) ;
#208 = PLANE ( 'NONE',  #293 ) ;
#209 = ORIENTED_EDGE ( 'NONE', *, *, #166, .F. ) ;
#210 = PLANE ( 'NONE',  #55 ) ;
#211 = DIRECTION ( 'NONE',  ( -0.000000000000000000, -0.000000000000000000, -1.000000000000000000 ) ) ;
#212 = ORIENTED_EDGE ( 'NONE', *, *, #220, .F. ) ;
#213 = DATE_AND_TIME ( #219, #173 ) ;
#214 = ORIENTED_EDGE ( 'NONE', *, *, #164, .F. ) ;
#215 = AXIS2_PLACEMENT_3D ( 'NONE', #57, #64, #168 ) ;
#216 = COORDINATED_UNIVERSAL_TIME_OFFSET ( 1, 0, .AHEAD. ) ;
#217 = CARTESIAN_POINT ( 'NONE',  ( 3.100000000000000089, 3.796405077356794918E-16, 805.0000000000000000 ) ) ;
#218 = PERSON_AND_ORGANIZATION ( #370, #248 ) ;
#219 = CALENDAR_DATE ( 2022, 8, 7 ) ;
#220 = EDGE_CURVE ( 'NONE', #336, #333, #223, .T. ) ;
#221 = DATE_TIME_ROLE ( 'creation_date' ) ;
#222 = DIRECTION ( 'NONE',  ( -0.000000000000000000, -0.000000000000000000, -1.000000000000000000 ) ) ;
#223 = LINE ( 'NONE', #121, #231 ) ;
#224 = AXIS2_PLACEMENT_3D ( 'NONE', #31, #4, #288 ) ;
#225 = DIRECTION ( 'NONE',  ( 0.000000000000000000, 0.000000000000000000, -1.000000000000000000 ) ) ;
#226 = ORIENTED_EDGE ( 'NONE', *, *, #297, .F. ) ;
#227 = DIRECTION ( 'NONE',  ( -1.000000000000000000, 0.000000000000000000, 0.000000000000000000 ) ) ;
#228 = ADVANCED_FACE ( 'NONE', ( #27 ), #1, .T. ) ;
#229 = DIRECTION ( 'NONE',  ( 1.000000000000000000, 0.000000000000000000, -0.000000000000000000 ) ) ;
#230 = CARTESIAN_POINT ( 'NONE',  ( -5.000000000000000000, 0.000000000000000000, 805.0000000000000000 ) ) ;
#231 = VECTOR ( 'NONE', #225, 1000.000000000000000 ) ;
#232 = APPROVAL_PERSON_ORGANIZATION ( #275, #51, #115 ) ;
#233 = DIRECTION ( 'NONE',  ( 0.000000000000000000, 0.000000000000000000, 1.000000000000000000 ) ) ;
#234 = EDGE_LOOP ( 'NONE', ( #292, #131 ) ) ;
#235 = EDGE_CURVE ( 'NONE', #147, #32, #341, .T. ) ;
#236 = MANIFOLD_SOLID_BREP ( 'Odebrat vysunutím3', #198 ) ;
#237 =( NAMED_UNIT ( * ) PLANE_ANGLE_UNIT ( ) SI_UNIT ( $, .RADIAN. ) );
#238 = EDGE_LOOP ( 'NONE', ( #96, #187, #314, #28 ) ) ;
#239 = FACE_OUTER_BOUND ( 'NONE', #30, .T. ) ;
#240 = EDGE_LOOP ( 'NONE', ( #78, #281, #151, #212 ) ) ;
#241 = AXIS2_PLACEMENT_3D ( 'NONE', #54, #171, #90 ) ;
#242 = DIRECTION ( 'NONE',  ( 0.000000000000000000, 0.000000000000000000, 1.000000000000000000 ) ) ;
#243 = ORIENTED_EDGE ( 'NONE', *, *, #220, .T. ) ;
#244 = DATE_AND_TIME ( #109, #350 ) ;
#245 = CIRCLE ( 'NONE', #140, 5.000000000000000000 ) ;
#246 = DATE_TIME_ROLE ( 'classification_date' ) ;
#247 = PRODUCT_RELATED_PRODUCT_CATEGORY ( 'detail', '', ( #362 ) ) ;
#248 = ORGANIZATION ( 'NEURÈENÝ', 'NEURÈENÝ', '' ) ;
#249 = PERSON_AND_ORGANIZATION_ROLE ( 'creator' ) ;
#250 = CARTESIAN_POINT ( 'NONE',  ( 3.100000000000000089, 3.796405077356794918E-16, 805.0000000000000000 ) ) ;
#251 = CALENDAR_DATE ( 2022, 8, 7 ) ;
#252 = DIRECTION ( 'NONE',  ( 1.000000000000000000, 0.000000000000000000, 0.000000000000000000 ) ) ;
#253 = CALENDAR_DATE ( 2022, 8, 7 ) ;
#254 = ORIENTED_EDGE ( 'NONE', *, *, #56, .F. ) ;
#255 = AXIS2_PLACEMENT_3D ( 'NONE', #353, #92, #229 ) ;
#256 = APPROVAL_PERSON_ORGANIZATION ( #218, #303, #44 ) ;
#257 = EDGE_LOOP ( 'NONE', ( #102, #254 ) ) ;
#258 = APPLICATION_CONTEXT ( 'configuration controlled 3d designs of mechanical parts and assemblies' ) ;
#259 = FACE_OUTER_BOUND ( 'NONE', #298, .T. ) ;
#260 = CARTESIAN_POINT ( 'NONE',  ( 0.000000000000000000, 0.000000000000000000, 5.000000000000000000 ) ) ;
#261 = AXIS2_PLACEMENT_3D ( 'NONE', #196, #134, #252 ) ;
#262 = CARTESIAN_POINT ( 'NONE',  ( -5.000000000000000000, 0.000000000000000000, 805.0000000000000000 ) ) ;
#263 = CC_DESIGN_PERSON_AND_ORGANIZATION_ASSIGNMENT ( #52, #280, ( #81 ) ) ;
#264 = DIRECTION ( 'NONE',  ( 1.000000000000000000, 0.000000000000000000, 0.000000000000000000 ) ) ;
#265 = VERTEX_POINT ( 'NONE', #230 ) ;
#266 = CARTESIAN_POINT ( 'NONE',  ( 5.500000000000000000, 0.000000000000000000, 5.499999999999949374 ) ) ;
#267 = ORIENTED_EDGE ( 'NONE', *, *, #35, .T. ) ;
#268 = VECTOR ( 'NONE', #289, 1000.000000000000000 ) ;
#269 = APPROVAL_PERSON_ORGANIZATION ( #306, #358, #339 ) ;
#270 =( LENGTH_UNIT ( ) NAMED_UNIT ( * ) SI_UNIT ( .MILLI., .METRE. ) );
#271 = ORIENTED_EDGE ( 'NONE', *, *, #332, .F. ) ;
#272 = FACE_OUTER_BOUND ( 'NONE', #285, .T. ) ;
#273 = VERTEX_POINT ( 'NONE', #361 ) ;
#274 = ORIENTED_EDGE ( 'NONE', *, *, #71, .T. ) ;
#275 = PERSON_AND_ORGANIZATION ( #370, #248 ) ;
#276 = ORIENTED_EDGE ( 'NONE', *, *, #328, .T. ) ;
#277 = PERSON_AND_ORGANIZATION_ROLE ( 'creator' ) ;
#278 = CARTESIAN_POINT ( 'NONE',  ( 8.000000000000000000, 9.797174393178825657E-16, 0.000000000000000000 ) ) ;
#279 = PERSON_AND_ORGANIZATION ( #370, #248 ) ;
#280 = PERSON_AND_ORGANIZATION_ROLE ( 'classification_officer' ) ;
#281 = ORIENTED_EDGE ( 'NONE', *, *, #60, .T. ) ;
#282 = DIRECTION ( 'NONE',  ( -0.000000000000000000, -0.000000000000000000, -1.000000000000000000 ) ) ;
#283 = AXIS2_PLACEMENT_3D ( 'NONE', #153, #77, #300 ) ;
#284 = DIRECTION ( 'NONE',  ( 1.224646799147353207E-16, 1.000000000000000000, -0.000000000000000000 ) ) ;
#285 = EDGE_LOOP ( 'NONE', ( #175, #67, #12, #65 ) ) ;
#286 = DIRECTION ( 'NONE',  ( -0.000000000000000000, -0.000000000000000000, -1.000000000000000000 ) ) ;
#287 = VERTEX_POINT ( 'NONE', #291 ) ;
#288 = DIRECTION ( 'NONE',  ( -1.000000000000000000, 0.000000000000000000, 0.000000000000000000 ) ) ;
#289 = DIRECTION ( 'NONE',  ( -0.000000000000000000, -0.000000000000000000, -1.000000000000000000 ) ) ;
#290 = EDGE_CURVE ( 'NONE', #287, #69, #188, .T. ) ;
#291 = CARTESIAN_POINT ( 'NONE',  ( 8.000000000000000000, 9.797174393178825657E-16, 5.000000000000000000 ) ) ;
#292 = ORIENTED_EDGE ( 'NONE', *, *, #184, .T. ) ;
#293 = AXIS2_PLACEMENT_3D ( 'NONE', #337, #103, #128 ) ;
#294 = DIRECTION ( 'NONE',  ( 1.000000000000000000, 0.000000000000000000, 0.000000000000000000 ) ) ;
#295 = CC_DESIGN_PERSON_AND_ORGANIZATION_ASSIGNMENT ( #312, #88, ( #157 ) ) ;
#296 = VERTEX_POINT ( 'NONE', #186 ) ;
#297 = EDGE_CURVE ( 'NONE', #32, #74, #7, .T. ) ;
#298 = EDGE_LOOP ( 'NONE', ( #18, #155, #274, #214 ) ) ;
#299 = CIRCLE ( 'NONE', #316, 8.000000000000000000 ) ;
#300 = DIRECTION ( 'NONE',  ( -1.000000000000000000, 0.000000000000000000, 0.000000000000000000 ) ) ;
#301 = CIRCLE ( 'NONE', #325, 3.100000000000000089 ) ;
#302 = CC_DESIGN_APPROVAL ( #51, ( #157 ) ) ;
#303 = APPROVAL ( #374, 'NEURÈENÝ' ) ;
#304 = PERSON_AND_ORGANIZATION_ROLE ( 'design_owner' ) ;
#305 = ORIENTED_EDGE ( 'NONE', *, *, #290, .T. ) ;
#306 = PERSON_AND_ORGANIZATION ( #370, #248 ) ;
#307 = ADVANCED_FACE ( 'NONE', ( #159, #239 ), #208, .T. ) ;
#308 = DIRECTION ( 'NONE',  ( 0.000000000000000000, 0.000000000000000000, 1.000000000000000000 ) ) ;
#309 = DIRECTION ( 'NONE',  ( 1.000000000000000000, 0.000000000000000000, 0.000000000000000000 ) ) ;
#310 = AXIS2_PLACEMENT_3D ( 'NONE', #86, #282, #139 ) ;
#311 = CIRCLE ( 'NONE', #63, 5.000000000000000000 ) ;
#312 = PERSON_AND_ORGANIZATION ( #370, #248 ) ;
#313 = ORIENTED_EDGE ( 'NONE', *, *, #380, .F. ) ;
#314 = ORIENTED_EDGE ( 'NONE', *, *, #380, .T. ) ;
#315 = CYLINDRICAL_SURFACE ( 'NONE', #381, 3.100000000000000089 ) ;
#316 = AXIS2_PLACEMENT_3D ( 'NONE', #114, #378, #116 ) ;
#317 = CC_DESIGN_PERSON_AND_ORGANIZATION_ASSIGNMENT ( #377, #249, ( #170 ) ) ;
#318 = ADVANCED_FACE ( 'NONE', ( #272 ), #156, .F. ) ;
#319 = AXIS2_PLACEMENT_3D ( 'NONE', #190, #23, #309 ) ;
#320 = DIRECTION ( 'NONE',  ( 1.000000000000000000, 0.000000000000000000, 0.000000000000000000 ) ) ;
#321 = ORIENTED_EDGE ( 'NONE', *, *, #366, .F. ) ;
#322 = EDGE_CURVE ( 'NONE', #69, #369, #100, .T. ) ;
#323 = CARTESIAN_POINT ( 'NONE',  ( 0.000000000000000000, 0.000000000000000000, 5.499999999999949374 ) ) ;
#324 = EDGE_LOOP ( 'NONE', ( #42, #97, #243, #161 ) ) ;
#325 = AXIS2_PLACEMENT_3D ( 'NONE', #143, #354, #320 ) ;
#326 = FACE_OUTER_BOUND ( 'NONE', #185, .T. ) ;
#327 = ORIENTED_EDGE ( 'NONE', *, *, #322, .T. ) ;
#328 = EDGE_CURVE ( 'NONE', #265, #273, #311, .T. ) ;
#329 = CARTESIAN_POINT ( 'NONE',  ( 0.000000000000000000, 0.000000000000000000, 5.499999999999949374 ) ) ;
#330 = FACE_OUTER_BOUND ( 'NONE', #238, .T. ) ;
#331 = CARTESIAN_POINT ( 'NONE',  ( -3.100000000000000089, 0.000000000000000000, 805.0000000000000000 ) ) ;
#332 = EDGE_CURVE ( 'NONE', #273, #32, #8, .T. ) ;
#333 = VERTEX_POINT ( 'NONE', #204 ) ;
#334 = AXIS2_PLACEMENT_3D ( 'NONE', #118, #2, #264 ) ;
#335 = CARTESIAN_POINT ( 'NONE',  ( 0.000000000000000000, 0.000000000000000000, 805.0000000000000000 ) ) ;
#336 = VERTEX_POINT ( 'NONE', #331 ) ;
#337 = CARTESIAN_POINT ( 'NONE',  ( 0.000000000000000000, 0.000000000000000000, 5.000000000000000000 ) ) ;
#338 = EDGE_LOOP ( 'NONE', ( #129, #345, #76, #226 ) ) ;
#339 = APPROVAL_ROLE ( '' ) ;
#340 = ORIENTED_EDGE ( 'NONE', *, *, #328, .F. ) ;
#341 = CIRCLE ( 'NONE', #93, 5.000000000000000000 ) ;
#342 = AXIS2_PLACEMENT_3D ( 'NONE', #68, #41, #158 ) ;
#343 = ADVANCED_FACE ( 'NONE', ( #72, #101 ), #210, .T. ) ;
#344 = COORDINATED_UNIVERSAL_TIME_OFFSET ( 1, 0, .AHEAD. ) ;
#345 = ORIENTED_EDGE ( 'NONE', *, *, #122, .T. ) ;
#346 = CYLINDRICAL_SURFACE ( 'NONE', #120, 5.000000000000000000 ) ;
#347 = APPLICATION_PROTOCOL_DEFINITION ( 'international standard', 'config_control_design', 1994, #119 ) ;
#348 = DIRECTION ( 'NONE',  ( 1.000000000000000000, 0.000000000000000000, 0.000000000000000000 ) ) ;
#349 = AXIS2_PLACEMENT_3D ( 'NONE', #266, #40, #106 ) ;
#350 = LOCAL_TIME ( 16, 48, 8.000000000000000000, #133 ) ;
#351 = DATE_AND_TIME ( #253, #105 ) ;
#352 = CARTESIAN_POINT ( 'NONE',  ( 5.000000000000000000, 6.123233995736766282E-16, 5.499999999999949374 ) ) ;
#353 = CARTESIAN_POINT ( 'NONE',  ( 0.000000000000000000, 0.000000000000000000, 0.000000000000000000 ) ) ;
#354 = DIRECTION ( 'NONE',  ( 0.000000000000000000, 0.000000000000000000, 1.000000000000000000 ) ) ;
#355 = CC_DESIGN_APPROVAL ( #303, ( #170 ) ) ;
#356 = CARTESIAN_POINT ( 'NONE',  ( 0.000000000000000000, 0.000000000000000000, 5.000000000000000000 ) ) ;
#357 = EDGE_LOOP ( 'NONE', ( #58, #39, #327, #144 ) ) ;
#358 = APPROVAL ( #138, 'NEURÈENÝ' ) ;
#359 = CARTESIAN_POINT ( 'NONE',  ( -5.500000000000000000, 6.735557395310442023E-16, 5.499999999999949374 ) ) ;
#360 = CARTESIAN_POINT ( 'NONE',  ( -5.000000000000000000, 0.000000000000000000, 5.499999999999949374 ) ) ;
#361 = CARTESIAN_POINT ( 'NONE',  ( 5.000000000000000000, 6.123233995736766282E-16, 805.0000000000000000 ) ) ;
#362 = PRODUCT ( '3b96', '3b96', '', ( #47 ) ) ;
#363 = DIRECTION ( 'NONE',  ( 1.000000000000000000, 0.000000000000000000, 0.000000000000000000 ) ) ;
#364 = EDGE_LOOP ( 'NONE', ( #209, #321 ) ) ;
#365 = EDGE_LOOP ( 'NONE', ( #276, #9 ) ) ;
#366 = EDGE_CURVE ( 'NONE', #89, #336, #135, .T. ) ;
#367 = CARTESIAN_POINT ( 'NONE',  ( 0.000000000000000000, 0.000000000000000000, 5.000000000000000000 ) ) ;
#368 = DIRECTION ( 'NONE',  ( 1.000000000000000000, 0.000000000000000000, -0.000000000000000000 ) ) ;
#369 = VERTEX_POINT ( 'NONE', #176 ) ;
#370 = PERSON ( 'NEURÈENÝ', 'NEURÈENÝ', 'NEURÈENÝ', ('NEURÈENÝ'), ('NEURÈENÝ'), ('NEURÈENÝ') ) ;
#371 = CALENDAR_DATE ( 2022, 8, 7 ) ;
#372 = CARTESIAN_POINT ( 'NONE',  ( 0.000000000000000000, 0.000000000000000000, 0.000000000000000000 ) ) ;
#373 =( GEOMETRIC_REPRESENTATION_CONTEXT ( 3 ) GLOBAL_UNCERTAINTY_ASSIGNED_CONTEXT ( ( #85 ) ) GLOBAL_UNIT_ASSIGNED_CONTEXT ( ( #270, #237, #183 ) ) REPRESENTATION_CONTEXT ( 'NONE', 'WORKASPACE' ) );
#374 = APPROVAL_STATUS ( 'not_yet_approved' ) ;
#375 = FACE_OUTER_BOUND ( 'NONE', #338, .T. ) ;
#376 = ADVANCED_FACE ( 'NONE', ( #330 ), #37, .T. ) ;
#377 = PERSON_AND_ORGANIZATION ( #370, #248 ) ;
#378 = DIRECTION ( 'NONE',  ( 0.000000000000000000, 0.000000000000000000, 1.000000000000000000 ) ) ;
#379 = COORDINATED_UNIVERSAL_TIME_OFFSET ( 1, 0, .AHEAD. ) ;
#380 = EDGE_CURVE ( 'NONE', #80, #369, #73, .T. ) ;
#381 = AXIS2_PLACEMENT_3D ( 'NONE', #36, #95, #62 ) ;
ENDSEC;
END-ISO-10303-21;
