ISO-10303-21;
HEADER;
FILE_DESCRIPTION (( 'STEP AP203' ),
    '1' );
FILE_NAME ('6524.STEP',
    '2022-07-08T15:13:02',
    ( '' ),
    ( '' ),
    'SwSTEP 2.0',
    'SolidWorks 2019',
    '' );
FILE_SCHEMA (( 'CONFIG_CONTROL_DESIGN' ));
ENDSEC;

DATA;
#1 = DIRECTION ( 'NONE',  ( 1.000000000000000000, 0.000000000000000000, -0.000000000000000000 ) ) ;
#2 = DIRECTION ( 'NONE',  ( -0.000000000000000000, -0.000000000000000000, -1.000000000000000000 ) ) ;
#3 = VERTEX_POINT ( 'NONE', #316 ) ;
#4 = LINE ( 'NONE', #298, #251 ) ;
#5 = EDGE_LOOP ( 'NONE', ( #7, #348, #183, #154 ) ) ;
#6 = DIRECTION ( 'NONE',  ( 0.000000000000000000, 0.000000000000000000, -1.000000000000000000 ) ) ;
#7 = ORIENTED_EDGE ( 'NONE', *, *, #295, .F. ) ;
#8 = DIRECTION ( 'NONE',  ( 1.000000000000000000, 0.000000000000000000, 0.000000000000000000 ) ) ;
#9 = AXIS2_PLACEMENT_3D ( 'NONE', #168, #247, #71 ) ;
#10 = ORIENTED_EDGE ( 'NONE', *, *, #332, .F. ) ;
#11 = CIRCLE ( 'NONE', #178, 10.00000000000000000 ) ;
#12 = EDGE_CURVE ( 'NONE', #3, #169, #11, .T. ) ;
#13 = ORIENTED_EDGE ( 'NONE', *, *, #155, .F. ) ;
#14 = CARTESIAN_POINT ( 'NONE',  ( 0.000000000000000000, 0.000000000000000000, 7.000000000000000000 ) ) ;
#15 = ORIENTED_EDGE ( 'NONE', *, *, #119, .T. ) ;
#16 = CIRCLE ( 'NONE', #360, 6.000000000000000888 ) ;
#17 = EDGE_CURVE ( 'NONE', #337, #3, #310, .T. ) ;
#18 = AXIS2_PLACEMENT_3D ( 'NONE', #162, #141, #259 ) ;
#19 = DIRECTION ( 'NONE',  ( -1.000000000000000000, 1.224646799147351482E-16, 0.000000000000000000 ) ) ;
#20 = PERSON_AND_ORGANIZATION ( #233, #202 ) ;
#21 = CARTESIAN_POINT ( 'NONE',  ( -6.000000000000000888, 0.000000000000000000, 207.0000000000000284 ) ) ;
#22 = APPROVAL ( #23, 'NEURÈENÝ' ) ;
#23 = APPROVAL_STATUS ( 'not_yet_approved' ) ;
#24 = APPLICATION_CONTEXT ( 'configuration controlled 3d designs of mechanical parts and assemblies' ) ;
#25 = DIRECTION ( 'NONE',  ( 1.000000000000000000, 0.000000000000000000, 0.000000000000000000 ) ) ;
#26 = CARTESIAN_POINT ( 'NONE',  ( 0.000000000000000000, 0.000000000000000000, 7.000000000000000000 ) ) ;
#27 = CARTESIAN_POINT ( 'NONE',  ( 0.000000000000000000, 0.000000000000000000, 7.500000000000007105 ) ) ;
#28 = DIRECTION ( 'NONE',  ( -0.000000000000000000, -0.000000000000000000, -1.000000000000000000 ) ) ;
#29 = DIRECTION ( 'NONE',  ( -1.000000000000000000, 0.000000000000000000, 0.000000000000000000 ) ) ;
#30 = APPROVAL_PERSON_ORGANIZATION ( #103, #253, #198 ) ;
#31 = DIRECTION ( 'NONE',  ( 0.000000000000000000, 0.000000000000000000, 1.000000000000000000 ) ) ;
#32 = EDGE_CURVE ( 'NONE', #305, #66, #59, .T. ) ;
#33 = VERTEX_POINT ( 'NONE', #49 ) ;
#34 = EDGE_LOOP ( 'NONE', ( #121, #365, #191, #95 ) ) ;
#35 = DIRECTION ( 'NONE',  ( -0.000000000000000000, -0.000000000000000000, -1.000000000000000000 ) ) ;
#36 = EDGE_LOOP ( 'NONE', ( #363, #186 ) ) ;
#37 = APPROVAL ( #50, 'NEURÈENÝ' ) ;
#38 = LINE ( 'NONE', #254, #196 ) ;
#39 = EDGE_LOOP ( 'NONE', ( #361, #299 ) ) ;
#40 = CARTESIAN_POINT ( 'NONE',  ( 0.000000000000000000, 0.000000000000000000, 207.0000000000000284 ) ) ;
#41 =( NAMED_UNIT ( * ) PLANE_ANGLE_UNIT ( ) SI_UNIT ( $, .RADIAN. ) );
#42 = AXIS2_PLACEMENT_3D ( 'NONE', #231, #228, #19 ) ;
#43 =( NAMED_UNIT ( * ) SI_UNIT ( $, .STERADIAN. ) SOLID_ANGLE_UNIT ( ) );
#44 = CC_DESIGN_APPROVAL ( #37, ( #226 ) ) ;
#45 = ADVANCED_FACE ( 'NONE', ( #341, #80 ), #225, .F. ) ;
#46 = APPROVAL_DATE_TIME ( #134, #37 ) ;
#47 = APPROVAL_STATUS ( 'not_yet_approved' ) ;
#48 = VECTOR ( 'NONE', #349, 1000.000000000000000 ) ;
#49 = CARTESIAN_POINT ( 'NONE',  ( -10.00000000000000000, 0.000000000000000000, 7.000000000000000000 ) ) ;
#50 = APPROVAL_STATUS ( 'not_yet_approved' ) ;
#51 = ADVANCED_FACE ( 'NONE', ( #245 ), #199, .F. ) ;
#52 = CYLINDRICAL_SURFACE ( 'NONE', #104, 10.00000000000000000 ) ;
#53 = CALENDAR_DATE ( 2022, 8, 7 ) ;
#54 = CARTESIAN_POINT ( 'NONE',  ( 6.000000000000000888, 7.347880794884120722E-16, 207.0000000000000284 ) ) ;
#55 = DIRECTION ( 'NONE',  ( -0.000000000000000000, -0.000000000000000000, -1.000000000000000000 ) ) ;
#56 = CYLINDRICAL_SURFACE ( 'NONE', #208, 6.000000000000000888 ) ;
#57 = LOCAL_TIME ( 17, 13, 2.000000000000000000, #201 ) ;
#58 = CARTESIAN_POINT ( 'NONE',  ( -10.00000000000000000, 0.000000000000000000, 0.000000000000000000 ) ) ;
#59 = CIRCLE ( 'NONE', #277, 2.500000000000000000 ) ;
#60 = DIRECTION ( 'NONE',  ( 0.000000000000000000, 0.000000000000000000, 1.000000000000000000 ) ) ;
#61 = CC_DESIGN_PERSON_AND_ORGANIZATION_ASSIGNMENT ( #166, #111, ( #115 ) ) ;
#62 = CYLINDRICAL_SURFACE ( 'NONE', #142, 10.00000000000000000 ) ;
#63 = VERTEX_POINT ( 'NONE', #54 ) ;
#64 = AXIS2_PLACEMENT_3D ( 'NONE', #159, #368, #304 ) ;
#65 = FACE_OUTER_BOUND ( 'NONE', #188, .T. ) ;
#66 = VERTEX_POINT ( 'NONE', #313 ) ;
#67 = ORIENTED_EDGE ( 'NONE', *, *, #172, .F. ) ;
#68 = EDGE_LOOP ( 'NONE', ( #136, #278, #378, #13 ) ) ;
#69 = FACE_OUTER_BOUND ( 'NONE', #88, .T. ) ;
#70 = DIRECTION ( 'NONE',  ( 0.000000000000000000, 0.000000000000000000, 1.000000000000000000 ) ) ;
#71 = DIRECTION ( 'NONE',  ( 1.000000000000000000, 0.000000000000000000, 0.000000000000000000 ) ) ;
#72 = PERSON_AND_ORGANIZATION ( #233, #202 ) ;
#73 = ADVANCED_FACE ( 'NONE', ( #69 ), #52, .T. ) ;
#74 = VERTEX_POINT ( 'NONE', #21 ) ;
#75 = PERSON_AND_ORGANIZATION_ROLE ( 'classification_officer' ) ;
#76 = FACE_OUTER_BOUND ( 'NONE', #217, .T. ) ;
#77 = DIRECTION ( 'NONE',  ( 0.000000000000000000, 0.000000000000000000, -1.000000000000000000 ) ) ;
#78 = AXIS2_PLACEMENT_3D ( 'NONE', #14, #102, #8 ) ;
#79 = PERSON_AND_ORGANIZATION_ROLE ( 'creator' ) ;
#80 = FACE_OUTER_BOUND ( 'NONE', #327, .T. ) ;
#81 = DIRECTION ( 'NONE',  ( -0.000000000000000000, -0.000000000000000000, -1.000000000000000000 ) ) ;
#82 = ADVANCED_FACE ( 'NONE', ( #100 ), #230, .T. ) ;
#83 = TOROIDAL_SURFACE ( 'NONE', #215, 6.500000000000000888, 0.5000000000000000000 ) ;
#84 = DIRECTION ( 'NONE',  ( 1.000000000000000000, 0.000000000000000000, -0.000000000000000000 ) ) ;
#85 = PRODUCT_DEFINITION_SHAPE ( 'NONE', 'NONE',  #226 ) ;
#86 = CC_DESIGN_DATE_AND_TIME_ASSIGNMENT ( #314, #113, ( #222 ) ) ;
#87 = CARTESIAN_POINT ( 'NONE',  ( 6.500000000000000888, 0.000000000000000000, 7.000000000000002665 ) ) ;
#88 = EDGE_LOOP ( 'NONE', ( #302, #187, #273, #160 ) ) ;
#89 = DIRECTION ( 'NONE',  ( 1.000000000000000000, 0.000000000000000000, 0.000000000000000000 ) ) ;
#90 = VERTEX_POINT ( 'NONE', #219 ) ;
#91 = CIRCLE ( 'NONE', #266, 2.500000000000000000 ) ;
#92 = DIRECTION ( 'NONE',  ( -1.000000000000000000, 0.000000000000000000, 0.000000000000000000 ) ) ;
#93 = APPLICATION_CONTEXT ( 'configuration controlled 3d designs of mechanical parts and assemblies' ) ;
#94 = ORIENTED_EDGE ( 'NONE', *, *, #197, .T. ) ;
#95 = ORIENTED_EDGE ( 'NONE', *, *, #332, .T. ) ;
#96 = CIRCLE ( 'NONE', #42, 0.5000000000000004441 ) ;
#97 = VERTEX_POINT ( 'NONE', #117 ) ;
#98 = DIRECTION ( 'NONE',  ( -0.000000000000000000, -0.000000000000000000, -1.000000000000000000 ) ) ;
#99 = AXIS2_PLACEMENT_3D ( 'NONE', #331, #301, #362 ) ;
#100 = FACE_OUTER_BOUND ( 'NONE', #216, .T. ) ;
#101 = CC_DESIGN_DATE_AND_TIME_ASSIGNMENT ( #250, #342, ( #226 ) ) ;
#102 = DIRECTION ( 'NONE',  ( 0.000000000000000000, 0.000000000000000000, 1.000000000000000000 ) ) ;
#103 = PERSON_AND_ORGANIZATION ( #233, #202 ) ;
#104 = AXIS2_PLACEMENT_3D ( 'NONE', #26, #367, #344 ) ;
#105 = APPLICATION_PROTOCOL_DEFINITION ( 'international standard', 'config_control_design', 1994, #93 ) ;
#106 = CC_DESIGN_SECURITY_CLASSIFICATION ( #222, ( #115 ) ) ;
#107 = CC_DESIGN_PERSON_AND_ORGANIZATION_ASSIGNMENT ( #224, #249, ( #144 ) ) ;
#108 = PERSON_AND_ORGANIZATION_ROLE ( 'design_supplier' ) ;
#109 = AXIS2_PLACEMENT_3D ( 'NONE', #135, #200, #290 ) ;
#110 = CARTESIAN_POINT ( 'NONE',  ( 0.000000000000000000, 0.000000000000000000, 0.000000000000000000 ) ) ;
#111 = PERSON_AND_ORGANIZATION_ROLE ( 'creator' ) ;
#112 = CARTESIAN_POINT ( 'NONE',  ( 0.000000000000000000, 0.000000000000000000, 7.000000000000000000 ) ) ;
#113 = DATE_TIME_ROLE ( 'classification_date' ) ;
#114 = DIRECTION ( 'NONE',  ( -1.000000000000000000, 0.000000000000000000, 0.000000000000000000 ) ) ;
#115 = PRODUCT_DEFINITION_FORMATION_WITH_SPECIFIED_SOURCE ( 'LIBOVOLNÝ', '', #144, .NOT_KNOWN. ) ;
#116 = EDGE_CURVE ( 'NONE', #240, #90, #281, .T. ) ;
#117 = CARTESIAN_POINT ( 'NONE',  ( -6.000000000000000888, 0.000000000000000000, 7.500000000000007105 ) ) ;
#118 = CARTESIAN_POINT ( 'NONE',  ( 0.000000000000000000, 0.000000000000000000, 207.0000000000000284 ) ) ;
#119 = EDGE_CURVE ( 'NONE', #97, #90, #96, .T. ) ;
#120 = DIRECTION ( 'NONE',  ( 1.000000000000000000, 0.000000000000000000, 0.000000000000000000 ) ) ;
#121 = ORIENTED_EDGE ( 'NONE', *, *, #17, .F. ) ;
#122 = DIRECTION ( 'NONE',  ( 1.000000000000000000, 0.000000000000000000, 0.000000000000000000 ) ) ;
#123 = AXIS2_PLACEMENT_3D ( 'NONE', #376, #77, #114 ) ;
#124 = CARTESIAN_POINT ( 'NONE',  ( 0.000000000000000000, 0.000000000000000000, 207.0000000000000284 ) ) ;
#125 = EDGE_LOOP ( 'NONE', ( #152, #285 ) ) ;
#126 = AXIS2_PLACEMENT_3D ( 'NONE', #218, #70, #192 ) ;
#127 = EDGE_CURVE ( 'NONE', #90, #240, #256, .T. ) ;
#128 = CARTESIAN_POINT ( 'NONE',  ( 10.00000000000000000, 1.224646799147353256E-15, 7.000000000000000000 ) ) ;
#129 = ORIENTED_EDGE ( 'NONE', *, *, #32, .F. ) ;
#130 = ORIENTED_EDGE ( 'NONE', *, *, #324, .T. ) ;
#131 = CC_DESIGN_PERSON_AND_ORGANIZATION_ASSIGNMENT ( #20, #75, ( #222 ) ) ;
#132 = ORIENTED_EDGE ( 'NONE', *, *, #119, .F. ) ;
#133 = CIRCLE ( 'NONE', #235, 10.00000000000000000 ) ;
#134 = DATE_AND_TIME ( #195, #346 ) ;
#135 = CARTESIAN_POINT ( 'NONE',  ( 0.000000000000000000, 0.000000000000000000, 0.000000000000000000 ) ) ;
#136 = ORIENTED_EDGE ( 'NONE', *, *, #32, .T. ) ;
#137 = APPROVAL_ROLE ( '' ) ;
#138 = AXIS2_PLACEMENT_3D ( 'NONE', #353, #60, #84 ) ;
#139 = DIRECTION ( 'NONE',  ( -0.000000000000000000, -0.000000000000000000, -1.000000000000000000 ) ) ;
#140 = MANIFOLD_SOLID_BREP ( 'Odebrat vysunutím3', #340 ) ;
#141 = DIRECTION ( 'NONE',  ( -0.000000000000000000, -0.000000000000000000, -1.000000000000000000 ) ) ;
#142 = AXIS2_PLACEMENT_3D ( 'NONE', #380, #2, #92 ) ;
#143 = FACE_OUTER_BOUND ( 'NONE', #68, .T. ) ;
#144 = PRODUCT ( '6524', '6524', '', ( #373 ) ) ;
#145 = CARTESIAN_POINT ( 'NONE',  ( 0.000000000000000000, 0.000000000000000000, 7.500000000000007105 ) ) ;
#146 = ADVANCED_FACE ( 'NONE', ( #255 ), #83, .F. ) ;
#147 = DIRECTION ( 'NONE',  ( -0.000000000000000000, -0.000000000000000000, -1.000000000000000000 ) ) ;
#148 = DIRECTION ( 'NONE',  ( -1.000000000000000000, 0.000000000000000000, 0.000000000000000000 ) ) ;
#149 = CIRCLE ( 'NONE', #78, 10.00000000000000000 ) ;
#150 = EDGE_LOOP ( 'NONE', ( #357, #15, #243, #330 ) ) ;
#151 = DIRECTION ( 'NONE',  ( 1.000000000000000000, 0.000000000000000000, 0.000000000000000000 ) ) ;
#152 = ORIENTED_EDGE ( 'NONE', *, *, #116, .T. ) ;
#153 = CYLINDRICAL_SURFACE ( 'NONE', #322, 2.500000000000000000 ) ;
#154 = ORIENTED_EDGE ( 'NONE', *, *, #283, .T. ) ;
#155 = EDGE_CURVE ( 'NONE', #305, #270, #374, .T. ) ;
#156 = DIRECTION ( 'NONE',  ( 1.000000000000000000, 0.000000000000000000, 0.000000000000000000 ) ) ;
#157 = LINE ( 'NONE', #280, #315 ) ;
#158 = ORIENTED_EDGE ( 'NONE', *, *, #127, .F. ) ;
#159 = CARTESIAN_POINT ( 'NONE',  ( 6.500000000000000888, 0.000000000000000000, 7.500000000000007105 ) ) ;
#160 = ORIENTED_EDGE ( 'NONE', *, *, #238, .F. ) ;
#161 = DIRECTION ( 'NONE',  ( 1.000000000000000000, 0.000000000000000000, 0.000000000000000000 ) ) ;
#162 = CARTESIAN_POINT ( 'NONE',  ( 0.000000000000000000, 0.000000000000000000, 207.0000000000000284 ) ) ;
#163 = AXIS2_PLACEMENT_3D ( 'NONE', #112, #139, #167 ) ;
#164 = CARTESIAN_POINT ( 'NONE',  ( -2.500000000000000000, 0.000000000000000000, 207.0000000000000284 ) ) ;
#165 = COORDINATED_UNIVERSAL_TIME_OFFSET ( 1, 0, .AHEAD. ) ;
#166 = PERSON_AND_ORGANIZATION ( #233, #202 ) ;
#167 = DIRECTION ( 'NONE',  ( 1.000000000000000000, 0.000000000000000000, 0.000000000000000000 ) ) ;
#168 = CARTESIAN_POINT ( 'NONE',  ( 0.000000000000000000, 0.000000000000000000, 0.000000000000000000 ) ) ;
#169 = VERTEX_POINT ( 'NONE', #58 ) ;
#170 = PERSON_AND_ORGANIZATION ( #233, #202 ) ;
#171 = CARTESIAN_POINT ( 'NONE',  ( 0.000000000000000000, 0.000000000000000000, 7.000000000000000000 ) ) ;
#172 = EDGE_CURVE ( 'NONE', #63, #74, #263, .T. ) ;
#173 = DIRECTION ( 'NONE',  ( 0.000000000000000000, 0.000000000000000000, 1.000000000000000000 ) ) ;
#174 = LOCAL_TIME ( 17, 13, 2.000000000000000000, #165 ) ;
#175 = TOROIDAL_SURFACE ( 'NONE', #242, 6.500000000000000888, 0.5000000000000000000 ) ;
#176 = APPROVAL_DATE_TIME ( #317, #22 ) ;
#177 = EDGE_CURVE ( 'NONE', #205, #97, #311, .T. ) ;
#178 = AXIS2_PLACEMENT_3D ( 'NONE', #110, #339, #372 ) ;
#179 = DIRECTION ( 'NONE',  ( 0.000000000000000000, 0.000000000000000000, 1.000000000000000000 ) ) ;
#180 = PLANE ( 'NONE',  #377 ) ;
#181 = DIRECTION ( 'NONE',  ( 0.000000000000000000, 0.000000000000000000, 1.000000000000000000 ) ) ;
#182 = LOCAL_TIME ( 17, 13, 2.000000000000000000, #309 ) ;
#183 = ORIENTED_EDGE ( 'NONE', *, *, #319, .T. ) ;
#184 = LINE ( 'NONE', #328, #246 ) ;
#185 = ADVANCED_FACE ( 'NONE', ( #210, #65 ), #265, .T. ) ;
#186 = ORIENTED_EDGE ( 'NONE', *, *, #307, .F. ) ;
#187 = ORIENTED_EDGE ( 'NONE', *, *, #17, .T. ) ;
#188 = EDGE_LOOP ( 'NONE', ( #214, #130 ) ) ;
#189 = DESIGN_CONTEXT ( 'detailed design', #93, 'design' ) ;
#190 = CC_DESIGN_PERSON_AND_ORGANIZATION_ASSIGNMENT ( #289, #108, ( #115 ) ) ;
#191 = ORIENTED_EDGE ( 'NONE', *, *, #238, .T. ) ;
#192 = DIRECTION ( 'NONE',  ( 1.000000000000000000, 0.000000000000000000, 0.000000000000000000 ) ) ;
#193 = AXIS2_PLACEMENT_3D ( 'NONE', #232, #31, #300 ) ;
#194 =( LENGTH_UNIT ( ) NAMED_UNIT ( * ) SI_UNIT ( .MILLI., .METRE. ) );
#195 = CALENDAR_DATE ( 2022, 8, 7 ) ;
#196 = VECTOR ( 'NONE', #343, 1000.000000000000000 ) ;
#197 = EDGE_CURVE ( 'NONE', #66, #305, #355, .T. ) ;
#198 = APPROVAL_ROLE ( '' ) ;
#199 = CYLINDRICAL_SURFACE ( 'NONE', #123, 2.500000000000000000 ) ;
#200 = DIRECTION ( 'NONE',  ( 0.000000000000000000, 0.000000000000000000, 1.000000000000000000 ) ) ;
#201 = COORDINATED_UNIVERSAL_TIME_OFFSET ( 1, 0, .AHEAD. ) ;
#202 = ORGANIZATION ( 'NEURÈENÝ', 'NEURÈENÝ', '' ) ;
#203 = ORIENTED_EDGE ( 'NONE', *, *, #177, .F. ) ;
#204 = CALENDAR_DATE ( 2022, 8, 7 ) ;
#205 = VERTEX_POINT ( 'NONE', #352 ) ;
#206 = CARTESIAN_POINT ( 'NONE',  ( 0.000000000000000000, 0.000000000000000000, 7.500000000000007105 ) ) ;
#207 = CARTESIAN_POINT ( 'NONE',  ( 0.000000000000000000, 0.000000000000000000, 0.000000000000000000 ) ) ;
#208 = AXIS2_PLACEMENT_3D ( 'NONE', #118, #28, #148 ) ;
#209 = FACE_BOUND ( 'NONE', #252, .T. ) ;
#210 = FACE_BOUND ( 'NONE', #125, .T. ) ;
#211 = ORIENTED_EDGE ( 'NONE', *, *, #212, .T. ) ;
#212 = EDGE_CURVE ( 'NONE', #270, #268, #271, .T. ) ;
#213 = DIRECTION ( 'NONE',  ( 0.000000000000000000, 0.000000000000000000, 1.000000000000000000 ) ) ;
#214 = ORIENTED_EDGE ( 'NONE', *, *, #260, .T. ) ;
#215 = AXIS2_PLACEMENT_3D ( 'NONE', #206, #213, #120 ) ;
#216 = EDGE_LOOP ( 'NONE', ( #67, #237, #306, #282 ) ) ;
#217 = EDGE_LOOP ( 'NONE', ( #132, #203, #244, #158 ) ) ;
#218 = CARTESIAN_POINT ( 'NONE',  ( 0.000000000000000000, 0.000000000000000000, 0.000000000000000000 ) ) ;
#219 = CARTESIAN_POINT ( 'NONE',  ( -6.500000000000000888, 7.960204194457796463E-16, 7.000000000000002665 ) ) ;
#220 = ADVANCED_FACE ( 'NONE', ( #209, #325 ), #180, .T. ) ;
#221 = CALENDAR_DATE ( 2022, 8, 7 ) ;
#222 = SECURITY_CLASSIFICATION ( '', '', #286 ) ;
#223 = VECTOR ( 'NONE', #55, 1000.000000000000000 ) ;
#224 = PERSON_AND_ORGANIZATION ( #233, #202 ) ;
#225 = PLANE ( 'NONE',  #109 ) ;
#226 = PRODUCT_DEFINITION ( 'NEZNÁMÝ', '', #115, #189 ) ;
#227 = CALENDAR_DATE ( 2022, 8, 7 ) ;
#228 = DIRECTION ( 'NONE',  ( 1.224646799147353207E-16, 1.000000000000000000, -0.000000000000000000 ) ) ;
#229 = COORDINATED_UNIVERSAL_TIME_OFFSET ( 1, 0, .AHEAD. ) ;
#230 = CYLINDRICAL_SURFACE ( 'NONE', #18, 6.000000000000000888 ) ;
#231 = CARTESIAN_POINT ( 'NONE',  ( -6.500000000000000888, 7.960204194457796463E-16, 7.500000000000007105 ) ) ;
#232 = CARTESIAN_POINT ( 'NONE',  ( 0.000000000000000000, 0.000000000000000000, 207.0000000000000284 ) ) ;
#233 = PERSON ( 'NEURÈENÝ', 'NEURÈENÝ', 'NEURÈENÝ', ('NEURÈENÝ'), ('NEURÈENÝ'), ('NEURÈENÝ') ) ;
#234 = DIRECTION ( 'NONE',  ( 0.000000000000000000, 0.000000000000000000, 1.000000000000000000 ) ) ;
#235 = AXIS2_PLACEMENT_3D ( 'NONE', #264, #179, #151 ) ;
#236 = CARTESIAN_POINT ( 'NONE',  ( -2.500000000000000000, 0.000000000000000000, 207.0000000000000284 ) ) ;
#237 = ORIENTED_EDGE ( 'NONE', *, *, #295, .T. ) ;
#238 = EDGE_CURVE ( 'NONE', #33, #169, #184, .T. ) ;
#239 = AXIS2_PLACEMENT_3D ( 'NONE', #294, #234, #89 ) ;
#240 = VERTEX_POINT ( 'NONE', #87 ) ;
#241 = DIRECTION ( 'NONE',  ( 1.000000000000000000, 0.000000000000000000, 0.000000000000000000 ) ) ;
#242 = AXIS2_PLACEMENT_3D ( 'NONE', #145, #333, #156 ) ;
#243 = ORIENTED_EDGE ( 'NONE', *, *, #116, .F. ) ;
#244 = ORIENTED_EDGE ( 'NONE', *, *, #303, .T. ) ;
#245 = FACE_OUTER_BOUND ( 'NONE', #288, .T. ) ;
#246 = VECTOR ( 'NONE', #323, 1000.000000000000000 ) ;
#247 = DIRECTION ( 'NONE',  ( 0.000000000000000000, 0.000000000000000000, 1.000000000000000000 ) ) ;
#248 = ADVANCED_FACE ( 'NONE', ( #321 ), #62, .T. ) ;
#249 = PERSON_AND_ORGANIZATION_ROLE ( 'design_owner' ) ;
#250 = DATE_AND_TIME ( #221, #174 ) ;
#251 = VECTOR ( 'NONE', #98, 1000.000000000000000 ) ;
#252 = EDGE_LOOP ( 'NONE', ( #129, #354 ) ) ;
#253 = APPROVAL ( #47, 'NEURÈENÝ' ) ;
#254 = CARTESIAN_POINT ( 'NONE',  ( 2.500000000000000000, 3.061616997868382648E-16, 207.0000000000000284 ) ) ;
#255 = FACE_OUTER_BOUND ( 'NONE', #150, .T. ) ;
#256 = CIRCLE ( 'NONE', #381, 6.500000000000000888 ) ;
#257 = ORIENTED_EDGE ( 'NONE', *, *, #370, .F. ) ;
#258 = CIRCLE ( 'NONE', #126, 10.00000000000000000 ) ;
#259 = DIRECTION ( 'NONE',  ( -1.000000000000000000, 0.000000000000000000, 0.000000000000000000 ) ) ;
#260 = EDGE_CURVE ( 'NONE', #33, #337, #133, .T. ) ;
#261 = ADVANCED_BREP_SHAPE_REPRESENTATION ( '6524', ( #140, #9 ), #366 ) ;
#262 = CARTESIAN_POINT ( 'NONE',  ( 2.500000000000000000, 3.061616997868382648E-16, 0.000000000000000000 ) ) ;
#263 = CIRCLE ( 'NONE', #239, 6.000000000000000888 ) ;
#264 = CARTESIAN_POINT ( 'NONE',  ( 0.000000000000000000, 0.000000000000000000, 7.000000000000000000 ) ) ;
#265 = PLANE ( 'NONE',  #138 ) ;
#266 = AXIS2_PLACEMENT_3D ( 'NONE', #369, #335, #161 ) ;
#267 = ADVANCED_FACE ( 'NONE', ( #143 ), #153, .F. ) ;
#268 = VERTEX_POINT ( 'NONE', #262 ) ;
#269 = CARTESIAN_POINT ( 'NONE',  ( -2.500000000000000000, 0.000000000000000000, 0.000000000000000000 ) ) ;
#270 = VERTEX_POINT ( 'NONE', #269 ) ;
#271 = CIRCLE ( 'NONE', #291, 2.500000000000000000 ) ;
#272 = CARTESIAN_POINT ( 'NONE',  ( 0.000000000000000000, 0.000000000000000000, 207.0000000000000284 ) ) ;
#273 = ORIENTED_EDGE ( 'NONE', *, *, #12, .T. ) ;
#274 = APPROVAL_PERSON_ORGANIZATION ( #170, #22, #137 ) ;
#275 = ORIENTED_EDGE ( 'NONE', *, *, #12, .F. ) ;
#276 = ADVANCED_FACE ( 'NONE', ( #359 ), #56, .T. ) ;
#277 = AXIS2_PLACEMENT_3D ( 'NONE', #40, #173, #318 ) ;
#278 = ORIENTED_EDGE ( 'NONE', *, *, #370, .T. ) ;
#279 = APPLICATION_PROTOCOL_DEFINITION ( 'international standard', 'config_control_design', 1994, #24 ) ;
#280 = CARTESIAN_POINT ( 'NONE',  ( -6.000000000000000888, 0.000000000000000000, 207.0000000000000284 ) ) ;
#281 = CIRCLE ( 'NONE', #163, 6.500000000000000888 ) ;
#282 = ORIENTED_EDGE ( 'NONE', *, *, #319, .F. ) ;
#283 = EDGE_CURVE ( 'NONE', #97, #205, #16, .T. ) ;
#284 = CIRCLE ( 'NONE', #99, 6.000000000000000888 ) ;
#285 = ORIENTED_EDGE ( 'NONE', *, *, #127, .T. ) ;
#286 = SECURITY_CLASSIFICATION_LEVEL ( 'unclassified' ) ;
#287 = LOCAL_TIME ( 17, 13, 2.000000000000000000, #229 ) ;
#288 = EDGE_LOOP ( 'NONE', ( #257, #94, #334, #211 ) ) ;
#289 = PERSON_AND_ORGANIZATION ( #233, #202 ) ;
#290 = DIRECTION ( 'NONE',  ( 1.000000000000000000, 0.000000000000000000, -0.000000000000000000 ) ) ;
#291 = AXIS2_PLACEMENT_3D ( 'NONE', #207, #147, #122 ) ;
#292 = APPROVAL_PERSON_ORGANIZATION ( #308, #37, #345 ) ;
#293 = DIRECTION ( 'NONE',  ( 1.000000000000000000, 0.000000000000000000, 0.000000000000000000 ) ) ;
#294 = CARTESIAN_POINT ( 'NONE',  ( 0.000000000000000000, 0.000000000000000000, 207.0000000000000284 ) ) ;
#295 = EDGE_CURVE ( 'NONE', #63, #205, #4, .T. ) ;
#296 = DIRECTION ( 'NONE',  ( 0.000000000000000000, 0.000000000000000000, 1.000000000000000000 ) ) ;
#297 = SHAPE_DEFINITION_REPRESENTATION ( #85, #261 ) ;
#298 = CARTESIAN_POINT ( 'NONE',  ( 6.000000000000000888, 7.347880794884120722E-16, 207.0000000000000284 ) ) ;
#299 = ORIENTED_EDGE ( 'NONE', *, *, #172, .T. ) ;
#300 = DIRECTION ( 'NONE',  ( 1.000000000000000000, 0.000000000000000000, 0.000000000000000000 ) ) ;
#301 = DIRECTION ( 'NONE',  ( 0.000000000000000000, 0.000000000000000000, 1.000000000000000000 ) ) ;
#302 = ORIENTED_EDGE ( 'NONE', *, *, #324, .F. ) ;
#303 = EDGE_CURVE ( 'NONE', #205, #240, #351, .T. ) ;
#304 = DIRECTION ( 'NONE',  ( 0.000000000000000000, 0.000000000000000000, -1.000000000000000000 ) ) ;
#305 = VERTEX_POINT ( 'NONE', #164 ) ;
#306 = ORIENTED_EDGE ( 'NONE', *, *, #177, .T. ) ;
#307 = EDGE_CURVE ( 'NONE', #268, #270, #91, .T. ) ;
#308 = PERSON_AND_ORGANIZATION ( #233, #202 ) ;
#309 = COORDINATED_UNIVERSAL_TIME_OFFSET ( 1, 0, .AHEAD. ) ;
#310 = LINE ( 'NONE', #347, #223 ) ;
#311 = CIRCLE ( 'NONE', #364, 6.000000000000000888 ) ;
#312 = COORDINATED_UNIVERSAL_TIME_OFFSET ( 1, 0, .AHEAD. ) ;
#313 = CARTESIAN_POINT ( 'NONE',  ( 2.500000000000000000, 3.061616997868382648E-16, 207.0000000000000284 ) ) ;
#314 = DATE_AND_TIME ( #227, #57 ) ;
#315 = VECTOR ( 'NONE', #35, 1000.000000000000000 ) ;
#316 = CARTESIAN_POINT ( 'NONE',  ( 10.00000000000000000, 1.224646799147353256E-15, 0.000000000000000000 ) ) ;
#317 = DATE_AND_TIME ( #204, #287 ) ;
#318 = DIRECTION ( 'NONE',  ( 1.000000000000000000, 0.000000000000000000, 0.000000000000000000 ) ) ;
#319 = EDGE_CURVE ( 'NONE', #74, #97, #157, .T. ) ;
#320 = UNCERTAINTY_MEASURE_WITH_UNIT (LENGTH_MEASURE( 1.000000000000000082E-05 ), #194, 'distance_accuracy_value', 'NONE');
#321 = FACE_OUTER_BOUND ( 'NONE', #34, .T. ) ;
#322 = AXIS2_PLACEMENT_3D ( 'NONE', #272, #6, #29 ) ;
#323 = DIRECTION ( 'NONE',  ( -0.000000000000000000, -0.000000000000000000, -1.000000000000000000 ) ) ;
#324 = EDGE_CURVE ( 'NONE', #337, #33, #149, .T. ) ;
#325 = FACE_OUTER_BOUND ( 'NONE', #39, .T. ) ;
#326 = CARTESIAN_POINT ( 'NONE',  ( 0.000000000000000000, 0.000000000000000000, 7.500000000000007105 ) ) ;
#327 = EDGE_LOOP ( 'NONE', ( #10, #275 ) ) ;
#328 = CARTESIAN_POINT ( 'NONE',  ( -10.00000000000000000, 0.000000000000000000, 7.000000000000000000 ) ) ;
#329 = CC_DESIGN_APPROVAL ( #253, ( #115 ) ) ;
#330 = ORIENTED_EDGE ( 'NONE', *, *, #303, .F. ) ;
#331 = CARTESIAN_POINT ( 'NONE',  ( 0.000000000000000000, 0.000000000000000000, 207.0000000000000284 ) ) ;
#332 = EDGE_CURVE ( 'NONE', #169, #3, #258, .T. ) ;
#333 = DIRECTION ( 'NONE',  ( 0.000000000000000000, 0.000000000000000000, 1.000000000000000000 ) ) ;
#334 = ORIENTED_EDGE ( 'NONE', *, *, #155, .T. ) ;
#335 = DIRECTION ( 'NONE',  ( -0.000000000000000000, -0.000000000000000000, -1.000000000000000000 ) ) ;
#336 = CC_DESIGN_APPROVAL ( #22, ( #222 ) ) ;
#337 = VERTEX_POINT ( 'NONE', #128 ) ;
#338 = PRODUCT_RELATED_PRODUCT_CATEGORY ( 'detail', '', ( #144 ) ) ;
#339 = DIRECTION ( 'NONE',  ( 0.000000000000000000, 0.000000000000000000, 1.000000000000000000 ) ) ;
#340 = CLOSED_SHELL ( 'NONE', ( #267, #146, #82, #73, #248, #185, #45, #276, #220, #379, #51 ) ) ;
#341 = FACE_BOUND ( 'NONE', #36, .T. ) ;
#342 = DATE_TIME_ROLE ( 'creation_date' ) ;
#343 = DIRECTION ( 'NONE',  ( 0.000000000000000000, 0.000000000000000000, -1.000000000000000000 ) ) ;
#344 = DIRECTION ( 'NONE',  ( -1.000000000000000000, 0.000000000000000000, 0.000000000000000000 ) ) ;
#345 = APPROVAL_ROLE ( '' ) ;
#346 = LOCAL_TIME ( 17, 13, 2.000000000000000000, #312 ) ;
#347 = CARTESIAN_POINT ( 'NONE',  ( 10.00000000000000000, 1.224646799147353256E-15, 7.000000000000000000 ) ) ;
#348 = ORIENTED_EDGE ( 'NONE', *, *, #358, .F. ) ;
#349 = DIRECTION ( 'NONE',  ( 0.000000000000000000, 0.000000000000000000, -1.000000000000000000 ) ) ;
#350 = CC_DESIGN_PERSON_AND_ORGANIZATION_ASSIGNMENT ( #72, #79, ( #226 ) ) ;
#351 = CIRCLE ( 'NONE', #64, 0.5000000000000004441 ) ;
#352 = CARTESIAN_POINT ( 'NONE',  ( 6.000000000000000888, 7.347880794884120722E-16, 7.500000000000007105 ) ) ;
#353 = CARTESIAN_POINT ( 'NONE',  ( 0.000000000000000000, 0.000000000000000000, 7.000000000000000000 ) ) ;
#354 = ORIENTED_EDGE ( 'NONE', *, *, #197, .F. ) ;
#355 = CIRCLE ( 'NONE', #193, 2.500000000000000000 ) ;
#356 = DIRECTION ( 'NONE',  ( 0.000000000000000000, 0.000000000000000000, 1.000000000000000000 ) ) ;
#357 = ORIENTED_EDGE ( 'NONE', *, *, #283, .F. ) ;
#358 = EDGE_CURVE ( 'NONE', #74, #63, #284, .T. ) ;
#359 = FACE_OUTER_BOUND ( 'NONE', #5, .T. ) ;
#360 = AXIS2_PLACEMENT_3D ( 'NONE', #326, #181, #293 ) ;
#361 = ORIENTED_EDGE ( 'NONE', *, *, #358, .T. ) ;
#362 = DIRECTION ( 'NONE',  ( 1.000000000000000000, 0.000000000000000000, 0.000000000000000000 ) ) ;
#363 = ORIENTED_EDGE ( 'NONE', *, *, #212, .F. ) ;
#364 = AXIS2_PLACEMENT_3D ( 'NONE', #27, #356, #241 ) ;
#365 = ORIENTED_EDGE ( 'NONE', *, *, #260, .F. ) ;
#366 =( GEOMETRIC_REPRESENTATION_CONTEXT ( 3 ) GLOBAL_UNCERTAINTY_ASSIGNED_CONTEXT ( ( #320 ) ) GLOBAL_UNIT_ASSIGNED_CONTEXT ( ( #194, #41, #43 ) ) REPRESENTATION_CONTEXT ( 'NONE', 'WORKASPACE' ) );
#367 = DIRECTION ( 'NONE',  ( -0.000000000000000000, -0.000000000000000000, -1.000000000000000000 ) ) ;
#368 = DIRECTION ( 'NONE',  ( 0.000000000000000000, -1.000000000000000000, 0.000000000000000000 ) ) ;
#369 = CARTESIAN_POINT ( 'NONE',  ( 0.000000000000000000, 0.000000000000000000, 0.000000000000000000 ) ) ;
#370 = EDGE_CURVE ( 'NONE', #66, #268, #38, .T. ) ;
#371 = DATE_AND_TIME ( #53, #182 ) ;
#372 = DIRECTION ( 'NONE',  ( 1.000000000000000000, 0.000000000000000000, 0.000000000000000000 ) ) ;
#373 = MECHANICAL_CONTEXT ( 'NONE', #24, 'mechanical' ) ;
#374 = LINE ( 'NONE', #236, #48 ) ;
#375 = APPROVAL_DATE_TIME ( #371, #253 ) ;
#376 = CARTESIAN_POINT ( 'NONE',  ( 0.000000000000000000, 0.000000000000000000, 207.0000000000000284 ) ) ;
#377 = AXIS2_PLACEMENT_3D ( 'NONE', #124, #296, #1 ) ;
#378 = ORIENTED_EDGE ( 'NONE', *, *, #307, .T. ) ;
#379 = ADVANCED_FACE ( 'NONE', ( #76 ), #175, .F. ) ;
#380 = CARTESIAN_POINT ( 'NONE',  ( 0.000000000000000000, 0.000000000000000000, 7.000000000000000000 ) ) ;
#381 = AXIS2_PLACEMENT_3D ( 'NONE', #171, #81, #25 ) ;
ENDSEC;
END-ISO-10303-21;
