ISO-10303-21;
HEADER;
FILE_DESCRIPTION (( 'STEP AP203' ),
    '1' );
FILE_NAME ('e6a9.STEP',
    '2022-07-08T15:41:27',
    ( '' ),
    ( '' ),
    'SwSTEP 2.0',
    'SolidWorks 2019',
    '' );
FILE_SCHEMA (( 'CONFIG_CONTROL_DESIGN' ));
ENDSEC;

DATA;
#1 = CARTESIAN_POINT ( 'NONE',  ( 0.000000000000000000, 0.000000000000000000, 3.300000000000025135 ) ) ;
#2 = VERTEX_POINT ( 'NONE', #36 ) ;
#3 = ADVANCED_FACE ( 'NONE', ( #142 ), #177, .T. ) ;
#4 = DIRECTION ( 'NONE',  ( -0.000000000000000000, -0.000000000000000000, -1.000000000000000000 ) ) ;
#5 = ORIENTED_EDGE ( 'NONE', *, *, #138, .F. ) ;
#6 = EDGE_CURVE ( 'NONE', #293, #59, #190, .T. ) ;
#7 = CARTESIAN_POINT ( 'NONE',  ( 0.000000000000000000, 0.000000000000000000, 3.000000000000000000 ) ) ;
#8 = APPROVAL_PERSON_ORGANIZATION ( #373, #174, #73 ) ;
#9 = CARTESIAN_POINT ( 'NONE',  ( 2.500000000000000000, 3.061616997868383141E-16, 403.0000000000000000 ) ) ;
#10 = DIRECTION ( 'NONE',  ( -1.000000000000000000, 0.000000000000000000, 0.000000000000000000 ) ) ;
#11 = CARTESIAN_POINT ( 'NONE',  ( 2.799999999999999822, 0.000000000000000000, 3.000000000000012434 ) ) ;
#12 = PLANE ( 'NONE',  #251 ) ;
#13 = DIRECTION ( 'NONE',  ( 0.000000000000000000, 0.000000000000000000, -1.000000000000000000 ) ) ;
#14 = ADVANCED_FACE ( 'NONE', ( #179, #141 ), #12, .T. ) ;
#15 = CARTESIAN_POINT ( 'NONE',  ( 0.000000000000000000, 0.000000000000000000, 3.300000000000025135 ) ) ;
#16 = AXIS2_PLACEMENT_3D ( 'NONE', #7, #352, #146 ) ;
#17 = ADVANCED_FACE ( 'NONE', ( #381 ), #274, .F. ) ;
#18 = APPLICATION_PROTOCOL_DEFINITION ( 'international standard', 'config_control_design', 1994, #186 ) ;
#19 = CARTESIAN_POINT ( 'NONE',  ( -5.000000000000000000, 0.000000000000000000, 0.000000000000000000 ) ) ;
#20 = DIRECTION ( 'NONE',  ( 1.000000000000000000, 0.000000000000000000, 0.000000000000000000 ) ) ;
#21 = DIRECTION ( 'NONE',  ( 0.000000000000000000, 0.000000000000000000, 1.000000000000000000 ) ) ;
#22 = COORDINATED_UNIVERSAL_TIME_OFFSET ( 1, 0, .AHEAD. ) ;
#23 = EDGE_LOOP ( 'NONE', ( #125, #313, #161, #155 ) ) ;
#24 = ADVANCED_BREP_SHAPE_REPRESENTATION ( 'e6a9', ( #49, #180 ), #39 ) ;
#25 = ORIENTED_EDGE ( 'NONE', *, *, #226, .F. ) ;
#26 = VERTEX_POINT ( 'NONE', #166 ) ;
#27 = AXIS2_PLACEMENT_3D ( 'NONE', #48, #21, #280 ) ;
#28 = FACE_OUTER_BOUND ( 'NONE', #101, .T. ) ;
#29 = VERTEX_POINT ( 'NONE', #224 ) ;
#30 = LINE ( 'NONE', #134, #266 ) ;
#31 = ORIENTED_EDGE ( 'NONE', *, *, #183, .T. ) ;
#32 = CARTESIAN_POINT ( 'NONE',  ( -1.600000000000000089, 0.000000000000000000, 0.000000000000000000 ) ) ;
#33 = EDGE_CURVE ( 'NONE', #136, #26, #327, .T. ) ;
#34 = DIRECTION ( 'NONE',  ( 0.000000000000000000, 0.000000000000000000, 1.000000000000000000 ) ) ;
#35 = DIRECTION ( 'NONE',  ( -0.000000000000000000, -0.000000000000000000, -1.000000000000000000 ) ) ;
#36 = CARTESIAN_POINT ( 'NONE',  ( -5.000000000000000000, 0.000000000000000000, 3.000000000000000000 ) ) ;
#37 = DIRECTION ( 'NONE',  ( -0.000000000000000000, -0.000000000000000000, -1.000000000000000000 ) ) ;
#38 = DIRECTION ( 'NONE',  ( 1.000000000000000000, 0.000000000000000000, 0.000000000000000000 ) ) ;
#39 =( GEOMETRIC_REPRESENTATION_CONTEXT ( 3 ) GLOBAL_UNCERTAINTY_ASSIGNED_CONTEXT ( ( #65 ) ) GLOBAL_UNIT_ASSIGNED_CONTEXT ( ( #349, #358, #294 ) ) REPRESENTATION_CONTEXT ( 'NONE', 'WORKASPACE' ) );
#40 = DIRECTION ( 'NONE',  ( 1.224646799147353207E-16, 1.000000000000000000, -0.000000000000000000 ) ) ;
#41 = PLANE ( 'NONE',  #140 ) ;
#42 = ADVANCED_FACE ( 'NONE', ( #232 ), #264, .T. ) ;
#43 = CC_DESIGN_PERSON_AND_ORGANIZATION_ASSIGNMENT ( #271, #273, ( #267 ) ) ;
#44 = APPROVAL_DATE_TIME ( #281, #268 ) ;
#45 = APPLICATION_PROTOCOL_DEFINITION ( 'international standard', 'config_control_design', 1994, #75 ) ;
#46 = VERTEX_POINT ( 'NONE', #147 ) ;
#47 = CIRCLE ( 'NONE', #163, 1.600000000000000089 ) ;
#48 = CARTESIAN_POINT ( 'NONE',  ( 0.000000000000000000, 0.000000000000000000, 3.000000000000000000 ) ) ;
#49 = MANIFOLD_SOLID_BREP ( 'Odebrat vysunutím3', #346 ) ;
#50 = PERSON_AND_ORGANIZATION ( #238, #86 ) ;
#51 = ORIENTED_EDGE ( 'NONE', *, *, #211, .T. ) ;
#52 = ORIENTED_EDGE ( 'NONE', *, *, #94, .F. ) ;
#53 = VERTEX_POINT ( 'NONE', #98 ) ;
#54 = EDGE_CURVE ( 'NONE', #29, #279, #208, .T. ) ;
#55 = CARTESIAN_POINT ( 'NONE',  ( 0.000000000000000000, 0.000000000000000000, 3.300000000000025135 ) ) ;
#56 = CIRCLE ( 'NONE', #329, 0.2999999999999999334 ) ;
#57 = EDGE_CURVE ( 'NONE', #26, #29, #56, .T. ) ;
#58 = LOCAL_TIME ( 17, 41, 27.00000000000000000, #22 ) ;
#59 = VERTEX_POINT ( 'NONE', #92 ) ;
#60 = CARTESIAN_POINT ( 'NONE',  ( 2.500000000000000000, 3.061616997868383141E-16, 403.0000000000000000 ) ) ;
#61 = CARTESIAN_POINT ( 'NONE',  ( 0.000000000000000000, 0.000000000000000000, 0.000000000000000000 ) ) ;
#62 = VERTEX_POINT ( 'NONE', #96 ) ;
#63 = VECTOR ( 'NONE', #288, 1000.000000000000000 ) ;
#64 = APPROVAL_PERSON_ORGANIZATION ( #50, #268, #306 ) ;
#65 = UNCERTAINTY_MEASURE_WITH_UNIT (LENGTH_MEASURE( 1.000000000000000082E-05 ), #349, 'distance_accuracy_value', 'NONE');
#66 = AXIS2_PLACEMENT_3D ( 'NONE', #88, #37, #322 ) ;
#67 = AXIS2_PLACEMENT_3D ( 'NONE', #263, #4, #176 ) ;
#68 = CYLINDRICAL_SURFACE ( 'NONE', #240, 1.600000000000000089 ) ;
#69 = DATE_AND_TIME ( #244, #361 ) ;
#70 = CALENDAR_DATE ( 2022, 8, 7 ) ;
#71 = EDGE_LOOP ( 'NONE', ( #164, #188, #195, #317 ) ) ;
#72 = EDGE_CURVE ( 'NONE', #53, #113, #47, .T. ) ;
#73 = APPROVAL_ROLE ( '' ) ;
#74 = VERTEX_POINT ( 'NONE', #32 ) ;
#75 = APPLICATION_CONTEXT ( 'configuration controlled 3d designs of mechanical parts and assemblies' ) ;
#76 = CC_DESIGN_APPROVAL ( #174, ( #242 ) ) ;
#77 = ORIENTED_EDGE ( 'NONE', *, *, #237, .T. ) ;
#78 = DIRECTION ( 'NONE',  ( 0.000000000000000000, 0.000000000000000000, 1.000000000000000000 ) ) ;
#79 = ORIENTED_EDGE ( 'NONE', *, *, #183, .F. ) ;
#80 = DIRECTION ( 'NONE',  ( 1.000000000000000000, 0.000000000000000000, 0.000000000000000000 ) ) ;
#81 = VERTEX_POINT ( 'NONE', #83 ) ;
#82 = CIRCLE ( 'NONE', #181, 5.000000000000000000 ) ;
#83 = CARTESIAN_POINT ( 'NONE',  ( 5.000000000000000000, 6.123233995736766282E-16, 0.000000000000000000 ) ) ;
#84 = DIRECTION ( 'NONE',  ( -0.000000000000000000, -0.000000000000000000, -1.000000000000000000 ) ) ;
#85 = CYLINDRICAL_SURFACE ( 'NONE', #310, 1.600000000000000089 ) ;
#86 = ORGANIZATION ( 'NEURÈENÝ', 'NEURÈENÝ', '' ) ;
#87 = DIRECTION ( 'NONE',  ( 0.000000000000000000, 0.000000000000000000, 1.000000000000000000 ) ) ;
#88 = CARTESIAN_POINT ( 'NONE',  ( 0.000000000000000000, 0.000000000000000000, 403.0000000000000000 ) ) ;
#89 = CARTESIAN_POINT ( 'NONE',  ( 0.000000000000000000, 0.000000000000000000, 403.0000000000000000 ) ) ;
#90 = ORIENTED_EDGE ( 'NONE', *, *, #255, .F. ) ;
#91 = DIRECTION ( 'NONE',  ( -0.000000000000000000, -0.000000000000000000, -1.000000000000000000 ) ) ;
#92 = CARTESIAN_POINT ( 'NONE',  ( -2.500000000000000000, 0.000000000000000000, 403.0000000000000000 ) ) ;
#93 = CARTESIAN_POINT ( 'NONE',  ( 1.600000000000000089, 1.959434878635765230E-16, 403.0000000000000000 ) ) ;
#94 = EDGE_CURVE ( 'NONE', #136, #279, #260, .T. ) ;
#95 = PRODUCT ( 'e6a9', 'e6a9', '', ( #97 ) ) ;
#96 = CARTESIAN_POINT ( 'NONE',  ( 5.000000000000000000, 6.123233995736766282E-16, 3.000000000000000000 ) ) ;
#97 = MECHANICAL_CONTEXT ( 'NONE', #75, 'mechanical' ) ;
#98 = CARTESIAN_POINT ( 'NONE',  ( -1.600000000000000089, 0.000000000000000000, 403.0000000000000000 ) ) ;
#99 = LOCAL_TIME ( 17, 41, 27.00000000000000000, #217 ) ;
#100 = PERSON_AND_ORGANIZATION ( #238, #86 ) ;
#101 = EDGE_LOOP ( 'NONE', ( #197, #377 ) ) ;
#102 = PRODUCT_RELATED_PRODUCT_CATEGORY ( 'detail', '', ( #95 ) ) ;
#103 = APPROVAL_STATUS ( 'not_yet_approved' ) ;
#104 = EDGE_LOOP ( 'NONE', ( #257, #31 ) ) ;
#105 = DIRECTION ( 'NONE',  ( 0.000000000000000000, 0.000000000000000000, 1.000000000000000000 ) ) ;
#106 = APPROVAL_ROLE ( '' ) ;
#107 = ORIENTED_EDGE ( 'NONE', *, *, #314, .F. ) ;
#108 = CIRCLE ( 'NONE', #348, 1.600000000000000089 ) ;
#109 = CALENDAR_DATE ( 2022, 8, 7 ) ;
#110 = CC_DESIGN_DATE_AND_TIME_ASSIGNMENT ( #370, #246, ( #242 ) ) ;
#111 = EDGE_LOOP ( 'NONE', ( #79, #193, #192, #5 ) ) ;
#112 = FACE_BOUND ( 'NONE', #334, .T. ) ;
#113 = VERTEX_POINT ( 'NONE', #93 ) ;
#114 = CARTESIAN_POINT ( 'NONE',  ( 0.000000000000000000, 0.000000000000000000, 403.0000000000000000 ) ) ;
#115 = AXIS2_PLACEMENT_3D ( 'NONE', #55, #344, #80 ) ;
#116 = DIRECTION ( 'NONE',  ( -0.000000000000000000, -0.000000000000000000, -1.000000000000000000 ) ) ;
#117 = CIRCLE ( 'NONE', #150, 1.600000000000000089 ) ;
#118 = EDGE_CURVE ( 'NONE', #53, #74, #303, .T. ) ;
#119 = CARTESIAN_POINT ( 'NONE',  ( 0.000000000000000000, 0.000000000000000000, 403.0000000000000000 ) ) ;
#120 = FACE_OUTER_BOUND ( 'NONE', #220, .T. ) ;
#121 = APPROVAL ( #103, 'NEURÈENÝ' ) ;
#122 = CARTESIAN_POINT ( 'NONE',  ( 0.000000000000000000, 0.000000000000000000, 3.000000000000000000 ) ) ;
#123 = AXIS2_PLACEMENT_3D ( 'NONE', #61, #162, #137 ) ;
#124 = CARTESIAN_POINT ( 'NONE',  ( 0.000000000000000000, 0.000000000000000000, 0.000000000000000000 ) ) ;
#125 = ORIENTED_EDGE ( 'NONE', *, *, #57, .F. ) ;
#126 = CALENDAR_DATE ( 2022, 8, 7 ) ;
#127 = EDGE_LOOP ( 'NONE', ( #227, #371, #167, #309 ) ) ;
#128 = ADVANCED_FACE ( 'NONE', ( #330 ), #68, .F. ) ;
#129 = COORDINATED_UNIVERSAL_TIME_OFFSET ( 1, 0, .AHEAD. ) ;
#130 = EDGE_LOOP ( 'NONE', ( #169, #289, #253, #324 ) ) ;
#131 = DIRECTION ( 'NONE',  ( 1.000000000000000000, 0.000000000000000000, -0.000000000000000000 ) ) ;
#132 = PLANE ( 'NONE',  #270 ) ;
#133 = EDGE_LOOP ( 'NONE', ( #312, #218, #249, #77 ) ) ;
#134 = CARTESIAN_POINT ( 'NONE',  ( -5.000000000000000000, 0.000000000000000000, 3.000000000000000000 ) ) ;
#135 = DIRECTION ( 'NONE',  ( 1.000000000000000000, 0.000000000000000000, 0.000000000000000000 ) ) ;
#136 = VERTEX_POINT ( 'NONE', #290 ) ;
#137 = DIRECTION ( 'NONE',  ( 1.000000000000000000, 0.000000000000000000, 0.000000000000000000 ) ) ;
#138 = EDGE_CURVE ( 'NONE', #2, #350, #30, .T. ) ;
#139 = DIRECTION ( 'NONE',  ( -0.000000000000000000, -0.000000000000000000, -1.000000000000000000 ) ) ;
#140 = AXIS2_PLACEMENT_3D ( 'NONE', #259, #316, #199 ) ;
#141 = FACE_OUTER_BOUND ( 'NONE', #104, .T. ) ;
#142 = FACE_OUTER_BOUND ( 'NONE', #127, .T. ) ;
#143 = ADVANCED_FACE ( 'NONE', ( #297 ), #265, .T. ) ;
#144 = AXIS2_PLACEMENT_3D ( 'NONE', #236, #84, #135 ) ;
#145 = DIRECTION ( 'NONE',  ( -1.000000000000000000, 1.224646799147353207E-16, 0.000000000000000000 ) ) ;
#146 = DIRECTION ( 'NONE',  ( 1.000000000000000000, 0.000000000000000000, 0.000000000000000000 ) ) ;
#147 = CARTESIAN_POINT ( 'NONE',  ( 1.600000000000000089, 1.959434878635765230E-16, 0.000000000000000000 ) ) ;
#148 = DIRECTION ( 'NONE',  ( 1.000000000000000000, 0.000000000000000000, 0.000000000000000000 ) ) ;
#149 = AXIS2_PLACEMENT_3D ( 'NONE', #122, #91, #305 ) ;
#150 = AXIS2_PLACEMENT_3D ( 'NONE', #326, #202, #292 ) ;
#151 = DIRECTION ( 'NONE',  ( 0.000000000000000000, -1.000000000000000000, 0.000000000000000000 ) ) ;
#152 = DATE_AND_TIME ( #109, #99 ) ;
#153 = PERSON_AND_ORGANIZATION ( #238, #86 ) ;
#154 = APPROVAL_PERSON_ORGANIZATION ( #376, #121, #106 ) ;
#155 = ORIENTED_EDGE ( 'NONE', *, *, #54, .F. ) ;
#156 = COORDINATED_UNIVERSAL_TIME_OFFSET ( 1, 0, .AHEAD. ) ;
#157 = EDGE_LOOP ( 'NONE', ( #319, #340 ) ) ;
#158 = EDGE_CURVE ( 'NONE', #293, #136, #299, .T. ) ;
#159 = CYLINDRICAL_SURFACE ( 'NONE', #331, 5.000000000000000000 ) ;
#160 = FACE_OUTER_BOUND ( 'NONE', #380, .T. ) ;
#161 = ORIENTED_EDGE ( 'NONE', *, *, #94, .T. ) ;
#162 = DIRECTION ( 'NONE',  ( 0.000000000000000000, 0.000000000000000000, 1.000000000000000000 ) ) ;
#163 = AXIS2_PLACEMENT_3D ( 'NONE', #210, #328, #228 ) ;
#164 = ORIENTED_EDGE ( 'NONE', *, *, #72, .T. ) ;
#165 = DIRECTION ( 'NONE',  ( 0.000000000000000000, 0.000000000000000000, -1.000000000000000000 ) ) ;
#166 = CARTESIAN_POINT ( 'NONE',  ( -2.500000000000000000, 0.000000000000000000, 3.300000000000025135 ) ) ;
#167 = ORIENTED_EDGE ( 'NONE', *, *, #351, .T. ) ;
#168 = CC_DESIGN_PERSON_AND_ORGANIZATION_ASSIGNMENT ( #216, #189, ( #95 ) ) ;
#169 = ORIENTED_EDGE ( 'NONE', *, *, #6, .F. ) ;
#170 = DIRECTION ( 'NONE',  ( 0.000000000000000000, 0.000000000000000000, 1.000000000000000000 ) ) ;
#171 = DIRECTION ( 'NONE',  ( -1.000000000000000000, 0.000000000000000000, 0.000000000000000000 ) ) ;
#172 = CIRCLE ( 'NONE', #213, 2.500000000000000000 ) ;
#173 = DIRECTION ( 'NONE',  ( 1.000000000000000000, 0.000000000000000000, 0.000000000000000000 ) ) ;
#174 = APPROVAL ( #332, 'NEURÈENÝ' ) ;
#175 = DIRECTION ( 'NONE',  ( 0.000000000000000000, 0.000000000000000000, 1.000000000000000000 ) ) ;
#176 = DIRECTION ( 'NONE',  ( -1.000000000000000000, 0.000000000000000000, 0.000000000000000000 ) ) ;
#177 = CYLINDRICAL_SURFACE ( 'NONE', #66, 2.500000000000000000 ) ;
#178 = AXIS2_PLACEMENT_3D ( 'NONE', #119, #235, #173 ) ;
#179 = FACE_BOUND ( 'NONE', #157, .T. ) ;
#180 = AXIS2_PLACEMENT_3D ( 'NONE', #124, #214, #20 ) ;
#181 = AXIS2_PLACEMENT_3D ( 'NONE', #200, #34, #148 ) ;
#182 = DATE_AND_TIME ( #126, #252 ) ;
#183 = EDGE_CURVE ( 'NONE', #62, #2, #231, .T. ) ;
#184 = CC_DESIGN_DATE_AND_TIME_ASSIGNMENT ( #182, #311, ( #198 ) ) ;
#185 = SHAPE_DEFINITION_REPRESENTATION ( #364, #24 ) ;
#186 = APPLICATION_CONTEXT ( 'configuration controlled 3d designs of mechanical parts and assemblies' ) ;
#187 = SECURITY_CLASSIFICATION_LEVEL ( 'unclassified' ) ;
#188 = ORIENTED_EDGE ( 'NONE', *, *, #226, .T. ) ;
#189 = PERSON_AND_ORGANIZATION_ROLE ( 'design_owner' ) ;
#190 = CIRCLE ( 'NONE', #178, 2.500000000000000000 ) ;
#191 = TOROIDAL_SURFACE ( 'NONE', #300, 2.799999999999999822, 0.2999999999999999889 ) ;
#192 = ORIENTED_EDGE ( 'NONE', *, *, #307, .T. ) ;
#193 = ORIENTED_EDGE ( 'NONE', *, *, #286, .T. ) ;
#194 = DIRECTION ( 'NONE',  ( 1.000000000000000000, 0.000000000000000000, 0.000000000000000000 ) ) ;
#195 = ORIENTED_EDGE ( 'NONE', *, *, #285, .T. ) ;
#196 = FACE_OUTER_BOUND ( 'NONE', #111, .T. ) ;
#197 = ORIENTED_EDGE ( 'NONE', *, *, #237, .F. ) ;
#198 = SECURITY_CLASSIFICATION ( '', '', #187 ) ;
#199 = DIRECTION ( 'NONE',  ( 1.000000000000000000, 0.000000000000000000, -0.000000000000000000 ) ) ;
#200 = CARTESIAN_POINT ( 'NONE',  ( 0.000000000000000000, 0.000000000000000000, 0.000000000000000000 ) ) ;
#201 = ADVANCED_FACE ( 'NONE', ( #296 ), #85, .F. ) ;
#202 = DIRECTION ( 'NONE',  ( -0.000000000000000000, -0.000000000000000000, -1.000000000000000000 ) ) ;
#203 = AXIS2_PLACEMENT_3D ( 'NONE', #375, #105, #221 ) ;
#204 = CC_DESIGN_SECURITY_CLASSIFICATION ( #198, ( #267 ) ) ;
#205 = DESIGN_CONTEXT ( 'detailed design', #186, 'design' ) ;
#206 = DIRECTION ( 'NONE',  ( -1.000000000000000000, 0.000000000000000000, 0.000000000000000000 ) ) ;
#207 = EDGE_LOOP ( 'NONE', ( #282, #374 ) ) ;
#208 = CIRCLE ( 'NONE', #149, 2.799999999999999822 ) ;
#209 = CARTESIAN_POINT ( 'NONE',  ( 1.600000000000000089, 1.959434878635765230E-16, 403.0000000000000000 ) ) ;
#210 = CARTESIAN_POINT ( 'NONE',  ( 0.000000000000000000, 0.000000000000000000, 403.0000000000000000 ) ) ;
#211 = EDGE_CURVE ( 'NONE', #74, #46, #117, .T. ) ;
#212 = DIRECTION ( 'NONE',  ( 0.000000000000000000, 0.000000000000000000, -1.000000000000000000 ) ) ;
#213 = AXIS2_PLACEMENT_3D ( 'NONE', #15, #87, #38 ) ;
#214 = DIRECTION ( 'NONE',  ( 0.000000000000000000, 0.000000000000000000, 1.000000000000000000 ) ) ;
#215 = CARTESIAN_POINT ( 'NONE',  ( -2.500000000000000000, 0.000000000000000000, 403.0000000000000000 ) ) ;
#216 = PERSON_AND_ORGANIZATION ( #238, #86 ) ;
#217 = COORDINATED_UNIVERSAL_TIME_OFFSET ( 1, 0, .AHEAD. ) ;
#218 = ORIENTED_EDGE ( 'NONE', *, *, #339, .F. ) ;
#219 = CIRCLE ( 'NONE', #144, 1.600000000000000089 ) ;
#220 = EDGE_LOOP ( 'NONE', ( #107, #247, #90, #52 ) ) ;
#221 = DIRECTION ( 'NONE',  ( 1.000000000000000000, 0.000000000000000000, 0.000000000000000000 ) ) ;
#222 = PERSON_AND_ORGANIZATION_ROLE ( 'classification_officer' ) ;
#223 = EDGE_LOOP ( 'NONE', ( #25, #345, #353, #51 ) ) ;
#224 = CARTESIAN_POINT ( 'NONE',  ( -2.799999999999999822, 3.429011037612589276E-16, 3.000000000000012434 ) ) ;
#225 = CARTESIAN_POINT ( 'NONE',  ( 0.000000000000000000, 0.000000000000000000, 0.000000000000000000 ) ) ;
#226 = EDGE_CURVE ( 'NONE', #113, #46, #230, .T. ) ;
#227 = ORIENTED_EDGE ( 'NONE', *, *, #158, .F. ) ;
#228 = DIRECTION ( 'NONE',  ( 1.000000000000000000, 0.000000000000000000, 0.000000000000000000 ) ) ;
#229 = LINE ( 'NONE', #315, #63 ) ;
#230 = LINE ( 'NONE', #209, #275 ) ;
#231 = CIRCLE ( 'NONE', #16, 5.000000000000000000 ) ;
#232 = FACE_OUTER_BOUND ( 'NONE', #133, .T. ) ;
#233 = DIRECTION ( 'NONE',  ( -0.000000000000000000, -0.000000000000000000, -1.000000000000000000 ) ) ;
#234 = AXIS2_PLACEMENT_3D ( 'NONE', #343, #139, #254 ) ;
#235 = DIRECTION ( 'NONE',  ( 0.000000000000000000, 0.000000000000000000, 1.000000000000000000 ) ) ;
#236 = CARTESIAN_POINT ( 'NONE',  ( 0.000000000000000000, 0.000000000000000000, 0.000000000000000000 ) ) ;
#237 = EDGE_CURVE ( 'NONE', #350, #81, #318, .T. ) ;
#238 = PERSON ( 'NEURÈENÝ', 'NEURÈENÝ', 'NEURÈENÝ', ('NEURÈENÝ'), ('NEURÈENÝ'), ('NEURÈENÝ') ) ;
#239 = CARTESIAN_POINT ( 'NONE',  ( 2.799999999999999822, 0.000000000000000000, 3.300000000000025135 ) ) ;
#240 = AXIS2_PLACEMENT_3D ( 'NONE', #114, #165, #320 ) ;
#241 = VECTOR ( 'NONE', #372, 1000.000000000000000 ) ;
#242 = PRODUCT_DEFINITION ( 'NEZNÁMÝ', '', #267, #205 ) ;
#243 = LOCAL_TIME ( 17, 41, 27.00000000000000000, #156 ) ;
#244 = CALENDAR_DATE ( 2022, 8, 7 ) ;
#245 = LINE ( 'NONE', #215, #241 ) ;
#246 = DATE_TIME_ROLE ( 'creation_date' ) ;
#247 = ORIENTED_EDGE ( 'NONE', *, *, #57, .T. ) ;
#248 = APPROVAL_DATE_TIME ( #69, #174 ) ;
#249 = ORIENTED_EDGE ( 'NONE', *, *, #138, .T. ) ;
#250 = CARTESIAN_POINT ( 'NONE',  ( 0.000000000000000000, 0.000000000000000000, 3.000000000000000000 ) ) ;
#251 = AXIS2_PLACEMENT_3D ( 'NONE', #301, #175, #131 ) ;
#252 = LOCAL_TIME ( 17, 41, 27.00000000000000000, #333 ) ;
#253 = ORIENTED_EDGE ( 'NONE', *, *, #33, .T. ) ;
#254 = DIRECTION ( 'NONE',  ( 1.000000000000000000, 0.000000000000000000, 0.000000000000000000 ) ) ;
#255 = EDGE_CURVE ( 'NONE', #279, #29, #356, .T. ) ;
#256 = CC_DESIGN_PERSON_AND_ORGANIZATION_ASSIGNMENT ( #341, #222, ( #198 ) ) ;
#257 = ORIENTED_EDGE ( 'NONE', *, *, #339, .T. ) ;
#258 = DIRECTION ( 'NONE',  ( -0.000000000000000000, -0.000000000000000000, -1.000000000000000000 ) ) ;
#259 = CARTESIAN_POINT ( 'NONE',  ( 0.000000000000000000, 0.000000000000000000, 403.0000000000000000 ) ) ;
#260 = CIRCLE ( 'NONE', #302, 0.2999999999999999334 ) ;
#261 = ORIENTED_EDGE ( 'NONE', *, *, #6, .T. ) ;
#262 = CIRCLE ( 'NONE', #27, 5.000000000000000000 ) ;
#263 = CARTESIAN_POINT ( 'NONE',  ( 0.000000000000000000, 0.000000000000000000, 403.0000000000000000 ) ) ;
#264 = CYLINDRICAL_SURFACE ( 'NONE', #323, 5.000000000000000000 ) ;
#265 = CYLINDRICAL_SURFACE ( 'NONE', #67, 2.500000000000000000 ) ;
#266 = VECTOR ( 'NONE', #258, 1000.000000000000000 ) ;
#267 = PRODUCT_DEFINITION_FORMATION_WITH_SPECIFIED_SOURCE ( 'LIBOVOLNÝ', '', #95, .NOT_KNOWN. ) ;
#268 = APPROVAL ( #308, 'NEURÈENÝ' ) ;
#269 = EDGE_CURVE ( 'NONE', #59, #293, #378, .T. ) ;
#270 = AXIS2_PLACEMENT_3D ( 'NONE', #225, #354, #359 ) ;
#271 = PERSON_AND_ORGANIZATION ( #238, #86 ) ;
#272 = DIRECTION ( 'NONE',  ( 1.000000000000000000, 0.000000000000000000, 0.000000000000000000 ) ) ;
#273 = PERSON_AND_ORGANIZATION_ROLE ( 'creator' ) ;
#274 = TOROIDAL_SURFACE ( 'NONE', #115, 2.799999999999999822, 0.2999999999999999889 ) ;
#275 = VECTOR ( 'NONE', #365, 1000.000000000000000 ) ;
#276 = DIRECTION ( 'NONE',  ( 0.000000000000000000, 0.000000000000000000, 1.000000000000000000 ) ) ;
#277 = PERSON_AND_ORGANIZATION_ROLE ( 'creator' ) ;
#278 = ADVANCED_FACE ( 'NONE', ( #196 ), #159, .T. ) ;
#279 = VERTEX_POINT ( 'NONE', #11 ) ;
#280 = DIRECTION ( 'NONE',  ( 1.000000000000000000, 0.000000000000000000, 0.000000000000000000 ) ) ;
#281 = DATE_AND_TIME ( #70, #243 ) ;
#282 = ORIENTED_EDGE ( 'NONE', *, *, #211, .F. ) ;
#283 = CALENDAR_DATE ( 2022, 8, 7 ) ;
#284 = ORIENTED_EDGE ( 'NONE', *, *, #269, .T. ) ;
#285 = EDGE_CURVE ( 'NONE', #46, #74, #219, .T. ) ;
#286 = EDGE_CURVE ( 'NONE', #62, #81, #229, .T. ) ;
#287 = AXIS2_PLACEMENT_3D ( 'NONE', #291, #170, #295 ) ;
#288 = DIRECTION ( 'NONE',  ( -0.000000000000000000, -0.000000000000000000, -1.000000000000000000 ) ) ;
#289 = ORIENTED_EDGE ( 'NONE', *, *, #158, .T. ) ;
#290 = CARTESIAN_POINT ( 'NONE',  ( 2.500000000000000000, 3.061616997868383141E-16, 3.300000000000025135 ) ) ;
#291 = CARTESIAN_POINT ( 'NONE',  ( 0.000000000000000000, 0.000000000000000000, 3.300000000000025135 ) ) ;
#292 = DIRECTION ( 'NONE',  ( 1.000000000000000000, 0.000000000000000000, 0.000000000000000000 ) ) ;
#293 = VERTEX_POINT ( 'NONE', #60 ) ;
#294 =( NAMED_UNIT ( * ) SI_UNIT ( $, .STERADIAN. ) SOLID_ANGLE_UNIT ( ) );
#295 = DIRECTION ( 'NONE',  ( 1.000000000000000000, 0.000000000000000000, 0.000000000000000000 ) ) ;
#296 = FACE_OUTER_BOUND ( 'NONE', #223, .T. ) ;
#297 = FACE_OUTER_BOUND ( 'NONE', #130, .T. ) ;
#298 = ADVANCED_FACE ( 'NONE', ( #347, #28 ), #132, .F. ) ;
#299 = LINE ( 'NONE', #9, #338 ) ;
#300 = AXIS2_PLACEMENT_3D ( 'NONE', #1, #78, #194 ) ;
#301 = CARTESIAN_POINT ( 'NONE',  ( 0.000000000000000000, 0.000000000000000000, 3.000000000000000000 ) ) ;
#302 = AXIS2_PLACEMENT_3D ( 'NONE', #239, #151, #362 ) ;
#303 = LINE ( 'NONE', #366, #360 ) ;
#304 = CC_DESIGN_APPROVAL ( #268, ( #198 ) ) ;
#305 = DIRECTION ( 'NONE',  ( 1.000000000000000000, 0.000000000000000000, 0.000000000000000000 ) ) ;
#306 = APPROVAL_ROLE ( '' ) ;
#307 = EDGE_CURVE ( 'NONE', #81, #350, #82, .T. ) ;
#308 = APPROVAL_STATUS ( 'not_yet_approved' ) ;
#309 = ORIENTED_EDGE ( 'NONE', *, *, #314, .T. ) ;
#310 = AXIS2_PLACEMENT_3D ( 'NONE', #89, #13, #206 ) ;
#311 = DATE_TIME_ROLE ( 'classification_date' ) ;
#312 = ORIENTED_EDGE ( 'NONE', *, *, #286, .F. ) ;
#313 = ORIENTED_EDGE ( 'NONE', *, *, #33, .F. ) ;
#314 = EDGE_CURVE ( 'NONE', #26, #136, #172, .T. ) ;
#315 = CARTESIAN_POINT ( 'NONE',  ( 5.000000000000000000, 6.123233995736766282E-16, 3.000000000000000000 ) ) ;
#316 = DIRECTION ( 'NONE',  ( 0.000000000000000000, 0.000000000000000000, 1.000000000000000000 ) ) ;
#317 = ORIENTED_EDGE ( 'NONE', *, *, #118, .F. ) ;
#318 = CIRCLE ( 'NONE', #123, 5.000000000000000000 ) ;
#319 = ORIENTED_EDGE ( 'NONE', *, *, #255, .T. ) ;
#320 = DIRECTION ( 'NONE',  ( -1.000000000000000000, 0.000000000000000000, 0.000000000000000000 ) ) ;
#321 = EDGE_CURVE ( 'NONE', #113, #53, #108, .T. ) ;
#322 = DIRECTION ( 'NONE',  ( -1.000000000000000000, 0.000000000000000000, 0.000000000000000000 ) ) ;
#323 = AXIS2_PLACEMENT_3D ( 'NONE', #357, #116, #10 ) ;
#324 = ORIENTED_EDGE ( 'NONE', *, *, #351, .F. ) ;
#325 = CC_DESIGN_PERSON_AND_ORGANIZATION_ASSIGNMENT ( #100, #336, ( #267 ) ) ;
#326 = CARTESIAN_POINT ( 'NONE',  ( 0.000000000000000000, 0.000000000000000000, 0.000000000000000000 ) ) ;
#327 = CIRCLE ( 'NONE', #287, 2.500000000000000000 ) ;
#328 = DIRECTION ( 'NONE',  ( 0.000000000000000000, 0.000000000000000000, 1.000000000000000000 ) ) ;
#329 = AXIS2_PLACEMENT_3D ( 'NONE', #363, #40, #145 ) ;
#330 = FACE_OUTER_BOUND ( 'NONE', #71, .T. ) ;
#331 = AXIS2_PLACEMENT_3D ( 'NONE', #250, #233, #171 ) ;
#332 = APPROVAL_STATUS ( 'not_yet_approved' ) ;
#333 = COORDINATED_UNIVERSAL_TIME_OFFSET ( 1, 0, .AHEAD. ) ;
#334 = EDGE_LOOP ( 'NONE', ( #342, #337 ) ) ;
#335 = CARTESIAN_POINT ( 'NONE',  ( 0.000000000000000000, 0.000000000000000000, 403.0000000000000000 ) ) ;
#336 = PERSON_AND_ORGANIZATION_ROLE ( 'design_supplier' ) ;
#337 = ORIENTED_EDGE ( 'NONE', *, *, #321, .F. ) ;
#338 = VECTOR ( 'NONE', #35, 1000.000000000000000 ) ;
#339 = EDGE_CURVE ( 'NONE', #2, #62, #262, .T. ) ;
#340 = ORIENTED_EDGE ( 'NONE', *, *, #54, .T. ) ;
#341 = PERSON_AND_ORGANIZATION ( #238, #86 ) ;
#342 = ORIENTED_EDGE ( 'NONE', *, *, #72, .F. ) ;
#343 = CARTESIAN_POINT ( 'NONE',  ( 0.000000000000000000, 0.000000000000000000, 3.000000000000000000 ) ) ;
#344 = DIRECTION ( 'NONE',  ( 0.000000000000000000, 0.000000000000000000, 1.000000000000000000 ) ) ;
#345 = ORIENTED_EDGE ( 'NONE', *, *, #321, .T. ) ;
#346 = CLOSED_SHELL ( 'NONE', ( #128, #355, #143, #278, #42, #14, #298, #3, #367, #17, #201 ) ) ;
#347 = FACE_BOUND ( 'NONE', #207, .T. ) ;
#348 = AXIS2_PLACEMENT_3D ( 'NONE', #335, #276, #272 ) ;
#349 =( LENGTH_UNIT ( ) NAMED_UNIT ( * ) SI_UNIT ( .MILLI., .METRE. ) );
#350 = VERTEX_POINT ( 'NONE', #19 ) ;
#351 = EDGE_CURVE ( 'NONE', #59, #26, #245, .T. ) ;
#352 = DIRECTION ( 'NONE',  ( 0.000000000000000000, 0.000000000000000000, 1.000000000000000000 ) ) ;
#353 = ORIENTED_EDGE ( 'NONE', *, *, #118, .T. ) ;
#354 = DIRECTION ( 'NONE',  ( 0.000000000000000000, 0.000000000000000000, 1.000000000000000000 ) ) ;
#355 = ADVANCED_FACE ( 'NONE', ( #120 ), #191, .F. ) ;
#356 = CIRCLE ( 'NONE', #234, 2.799999999999999822 ) ;
#357 = CARTESIAN_POINT ( 'NONE',  ( 0.000000000000000000, 0.000000000000000000, 3.000000000000000000 ) ) ;
#358 =( NAMED_UNIT ( * ) PLANE_ANGLE_UNIT ( ) SI_UNIT ( $, .RADIAN. ) );
#359 = DIRECTION ( 'NONE',  ( 1.000000000000000000, 0.000000000000000000, -0.000000000000000000 ) ) ;
#360 = VECTOR ( 'NONE', #212, 1000.000000000000000 ) ;
#361 = LOCAL_TIME ( 17, 41, 27.00000000000000000, #129 ) ;
#362 = DIRECTION ( 'NONE',  ( 0.000000000000000000, 0.000000000000000000, -1.000000000000000000 ) ) ;
#363 = CARTESIAN_POINT ( 'NONE',  ( -2.799999999999999822, 3.429011037612588783E-16, 3.300000000000025135 ) ) ;
#364 = PRODUCT_DEFINITION_SHAPE ( 'NONE', 'NONE',  #242 ) ;
#365 = DIRECTION ( 'NONE',  ( 0.000000000000000000, 0.000000000000000000, -1.000000000000000000 ) ) ;
#366 = CARTESIAN_POINT ( 'NONE',  ( -1.600000000000000089, 0.000000000000000000, 403.0000000000000000 ) ) ;
#367 = ADVANCED_FACE ( 'NONE', ( #112, #160 ), #41, .T. ) ;
#368 = CC_DESIGN_PERSON_AND_ORGANIZATION_ASSIGNMENT ( #153, #277, ( #242 ) ) ;
#369 = CC_DESIGN_APPROVAL ( #121, ( #267 ) ) ;
#370 = DATE_AND_TIME ( #283, #58 ) ;
#371 = ORIENTED_EDGE ( 'NONE', *, *, #269, .F. ) ;
#372 = DIRECTION ( 'NONE',  ( -0.000000000000000000, -0.000000000000000000, -1.000000000000000000 ) ) ;
#373 = PERSON_AND_ORGANIZATION ( #238, #86 ) ;
#374 = ORIENTED_EDGE ( 'NONE', *, *, #285, .F. ) ;
#375 = CARTESIAN_POINT ( 'NONE',  ( 0.000000000000000000, 0.000000000000000000, 403.0000000000000000 ) ) ;
#376 = PERSON_AND_ORGANIZATION ( #238, #86 ) ;
#377 = ORIENTED_EDGE ( 'NONE', *, *, #307, .F. ) ;
#378 = CIRCLE ( 'NONE', #203, 2.500000000000000000 ) ;
#379 = APPROVAL_DATE_TIME ( #152, #121 ) ;
#380 = EDGE_LOOP ( 'NONE', ( #284, #261 ) ) ;
#381 = FACE_OUTER_BOUND ( 'NONE', #23, .T. ) ;
ENDSEC;
END-ISO-10303-21;
