ISO-10303-21;
HEADER;
FILE_DESCRIPTION (( 'STEP AP203' ),
    '1' );
FILE_NAME ('9b1b.STEP',
    '2022-07-08T14:20:25',
    ( '' ),
    ( '' ),
    'SwSTEP 2.0',
    'SolidWorks 2019',
    '' );
FILE_SCHEMA (( 'CONFIG_CONTROL_DESIGN' ));
ENDSEC;

DATA;
#1 = APPROVAL_DATE_TIME ( #240, #156 ) ;
#2 = ORIENTED_EDGE ( 'NONE', *, *, #65, .F. ) ;
#3 = COORDINATED_UNIVERSAL_TIME_OFFSET ( 1, 0, .AHEAD. ) ;
#4 = DIRECTION ( 'NONE',  ( 0.000000000000000000, 0.000000000000000000, 1.000000000000000000 ) ) ;
#5 = EDGE_CURVE ( 'NONE', #248, #117, #219, .T. ) ;
#6 = DIRECTION ( 'NONE',  ( 0.000000000000000000, 0.000000000000000000, 1.000000000000000000 ) ) ;
#7 = LOCAL_TIME ( 16, 20, 25.00000000000000000, #3 ) ;
#8 = FACE_OUTER_BOUND ( 'NONE', #244, .T. ) ;
#9 = PERSON ( 'NEURÈENÝ', 'NEURÈENÝ', 'NEURÈENÝ', ('NEURÈENÝ'), ('NEURÈENÝ'), ('NEURÈENÝ') ) ;
#10 = DIRECTION ( 'NONE',  ( 1.000000000000000000, 0.000000000000000000, 0.000000000000000000 ) ) ;
#11 = AXIS2_PLACEMENT_3D ( 'NONE', #161, #334, #299 ) ;
#12 = SHAPE_DEFINITION_REPRESENTATION ( #50, #167 ) ;
#13 = CARTESIAN_POINT ( 'NONE',  ( -8.000000000000000000, 0.000000000000000000, 132.0000000000000000 ) ) ;
#14 = AXIS2_PLACEMENT_3D ( 'NONE', #61, #379, #294 ) ;
#15 = DIRECTION ( 'NONE',  ( 0.000000000000000000, 0.000000000000000000, -1.000000000000000000 ) ) ;
#16 = CARTESIAN_POINT ( 'NONE',  ( -6.000000000000000888, 0.000000000000000000, 0.000000000000000000 ) ) ;
#17 = CARTESIAN_POINT ( 'NONE',  ( 0.000000000000000000, 0.000000000000000000, 0.000000000000000000 ) ) ;
#18 = EDGE_CURVE ( 'NONE', #201, #325, #178, .T. ) ;
#19 = ADVANCED_FACE ( 'NONE', ( #37 ), #199, .F. ) ;
#20 = VECTOR ( 'NONE', #238, 1000.000000000000000 ) ;
#21 = DIRECTION ( 'NONE',  ( 1.000000000000000000, 0.000000000000000000, 0.000000000000000000 ) ) ;
#22 = DIRECTION ( 'NONE',  ( 0.000000000000000000, 0.000000000000000000, 1.000000000000000000 ) ) ;
#23 = APPROVAL_ROLE ( '' ) ;
#24 = ORIENTED_EDGE ( 'NONE', *, *, #5, .T. ) ;
#25 = LOCAL_TIME ( 16, 20, 25.00000000000000000, #349 ) ;
#26 = UNCERTAINTY_MEASURE_WITH_UNIT (LENGTH_MEASURE( 1.000000000000000082E-05 ), #145, 'distance_accuracy_value', 'NONE');
#27 = ORIENTED_EDGE ( 'NONE', *, *, #265, .F. ) ;
#28 = PLANE ( 'NONE',  #100 ) ;
#29 = EDGE_LOOP ( 'NONE', ( #241, #322, #64, #149 ) ) ;
#30 = FACE_OUTER_BOUND ( 'NONE', #141, .T. ) ;
#31 = ORIENTED_EDGE ( 'NONE', *, *, #282, .F. ) ;
#32 = ADVANCED_FACE ( 'NONE', ( #249 ), #275, .F. ) ;
#33 = PERSON_AND_ORGANIZATION ( #9, #123 ) ;
#34 = ORIENTED_EDGE ( 'NONE', *, *, #276, .T. ) ;
#35 = CIRCLE ( 'NONE', #163, 11.00000000000000000 ) ;
#36 = DATE_TIME_ROLE ( 'classification_date' ) ;
#37 = FACE_OUTER_BOUND ( 'NONE', #157, .T. ) ;
#38 = APPROVAL ( #302, 'NEURÈENÝ' ) ;
#39 = ADVANCED_FACE ( 'NONE', ( #43, #188 ), #127, .T. ) ;
#40 = AXIS2_PLACEMENT_3D ( 'NONE', #186, #6, #10 ) ;
#41 = CARTESIAN_POINT ( 'NONE',  ( 0.000000000000000000, 0.000000000000000000, 7.000000000000000000 ) ) ;
#42 = COORDINATED_UNIVERSAL_TIME_OFFSET ( 1, 0, .AHEAD. ) ;
#43 = FACE_BOUND ( 'NONE', #358, .T. ) ;
#44 = CIRCLE ( 'NONE', #209, 6.000000000000000888 ) ;
#45 = APPROVAL_DATE_TIME ( #273, #38 ) ;
#46 = CARTESIAN_POINT ( 'NONE',  ( 8.699999999999999289, 0.000000000000000000, 6.999999999999999112 ) ) ;
#47 = LINE ( 'NONE', #13, #169 ) ;
#48 = CARTESIAN_POINT ( 'NONE',  ( 0.000000000000000000, 0.000000000000000000, 7.000000000000000000 ) ) ;
#49 = AXIS2_PLACEMENT_3D ( 'NONE', #121, #179, #83 ) ;
#50 = PRODUCT_DEFINITION_SHAPE ( 'NONE', 'NONE',  #137 ) ;
#51 = CYLINDRICAL_SURFACE ( 'NONE', #181, 11.00000000000000000 ) ;
#52 = CC_DESIGN_DATE_AND_TIME_ASSIGNMENT ( #116, #232, ( #137 ) ) ;
#53 = FACE_OUTER_BOUND ( 'NONE', #233, .T. ) ;
#54 = EDGE_CURVE ( 'NONE', #68, #324, #220, .T. ) ;
#55 = FACE_OUTER_BOUND ( 'NONE', #274, .T. ) ;
#56 = CARTESIAN_POINT ( 'NONE',  ( -11.00000000000000000, 0.000000000000000000, 7.000000000000000000 ) ) ;
#57 = PERSON_AND_ORGANIZATION ( #9, #123 ) ;
#58 = CIRCLE ( 'NONE', #253, 0.6999999999999992895 ) ;
#59 = CARTESIAN_POINT ( 'NONE',  ( 0.000000000000000000, 0.000000000000000000, 7.000000000000000000 ) ) ;
#60 = ORIENTED_EDGE ( 'NONE', *, *, #18, .F. ) ;
#61 = CARTESIAN_POINT ( 'NONE',  ( 0.000000000000000000, 0.000000000000000000, 0.000000000000000000 ) ) ;
#62 = AXIS2_PLACEMENT_3D ( 'NONE', #369, #193, #15 ) ;
#63 = ORIENTED_EDGE ( 'NONE', *, *, #185, .T. ) ;
#64 = ORIENTED_EDGE ( 'NONE', *, *, #54, .F. ) ;
#65 = EDGE_CURVE ( 'NONE', #324, #68, #139, .T. ) ;
#66 = EDGE_LOOP ( 'NONE', ( #60, #27 ) ) ;
#67 = AXIS2_PLACEMENT_3D ( 'NONE', #371, #306, #221 ) ;
#68 = VERTEX_POINT ( 'NONE', #46 ) ;
#69 = CYLINDRICAL_SURFACE ( 'NONE', #207, 8.000000000000000000 ) ;
#70 = CARTESIAN_POINT ( 'NONE',  ( 8.000000000000000000, 9.797174393178825657E-16, 132.0000000000000000 ) ) ;
#71 = DIRECTION ( 'NONE',  ( 1.000000000000000000, 0.000000000000000000, 0.000000000000000000 ) ) ;
#72 = CC_DESIGN_SECURITY_CLASSIFICATION ( #354, ( #135 ) ) ;
#73 = DIRECTION ( 'NONE',  ( 1.000000000000000000, 0.000000000000000000, 0.000000000000000000 ) ) ;
#74 = DIRECTION ( 'NONE',  ( -0.000000000000000000, -0.000000000000000000, -1.000000000000000000 ) ) ;
#75 = CARTESIAN_POINT ( 'NONE',  ( 6.000000000000000888, 7.347880794884120722E-16, 132.0000000000000000 ) ) ;
#76 = CIRCLE ( 'NONE', #326, 6.000000000000000888 ) ;
#77 = DIRECTION ( 'NONE',  ( 0.000000000000000000, 0.000000000000000000, -1.000000000000000000 ) ) ;
#78 = CARTESIAN_POINT ( 'NONE',  ( 0.000000000000000000, 0.000000000000000000, 132.0000000000000000 ) ) ;
#79 = PRODUCT ( '9b1b', '9b1b', '', ( #312 ) ) ;
#80 = DIRECTION ( 'NONE',  ( 1.000000000000000000, 0.000000000000000000, 0.000000000000000000 ) ) ;
#81 = AXIS2_PLACEMENT_3D ( 'NONE', #339, #367, #166 ) ;
#82 = DIRECTION ( 'NONE',  ( -1.000000000000000000, 0.000000000000000000, 0.000000000000000000 ) ) ;
#83 = DIRECTION ( 'NONE',  ( 1.000000000000000000, 0.000000000000000000, 0.000000000000000000 ) ) ;
#84 = ORIENTED_EDGE ( 'NONE', *, *, #342, .T. ) ;
#85 = AXIS2_PLACEMENT_3D ( 'NONE', #153, #272, #218 ) ;
#86 = APPROVAL_STATUS ( 'not_yet_approved' ) ;
#87 = ORIENTED_EDGE ( 'NONE', *, *, #348, .T. ) ;
#88 = EDGE_CURVE ( 'NONE', #262, #324, #58, .T. ) ;
#89 = VECTOR ( 'NONE', #77, 1000.000000000000000 ) ;
#90 = ORIENTED_EDGE ( 'NONE', *, *, #144, .T. ) ;
#91 = ORIENTED_EDGE ( 'NONE', *, *, #65, .T. ) ;
#92 = AXIS2_PLACEMENT_3D ( 'NONE', #216, #277, #73 ) ;
#93 = ORIENTED_EDGE ( 'NONE', *, *, #265, .T. ) ;
#94 = AXIS2_PLACEMENT_3D ( 'NONE', #211, #297, #95 ) ;
#95 = DIRECTION ( 'NONE',  ( 1.000000000000000000, 0.000000000000000000, 0.000000000000000000 ) ) ;
#96 = DIRECTION ( 'NONE',  ( -0.000000000000000000, -0.000000000000000000, -1.000000000000000000 ) ) ;
#97 = FACE_BOUND ( 'NONE', #66, .T. ) ;
#98 = ADVANCED_FACE ( 'NONE', ( #97, #124 ), #99, .F. ) ;
#99 = PLANE ( 'NONE',  #85 ) ;
#100 = AXIS2_PLACEMENT_3D ( 'NONE', #59, #140, #200 ) ;
#101 = DIRECTION ( 'NONE',  ( -0.000000000000000000, -0.000000000000000000, -1.000000000000000000 ) ) ;
#102 = DIRECTION ( 'NONE',  ( 1.000000000000000000, 0.000000000000000000, 0.000000000000000000 ) ) ;
#103 = AXIS2_PLACEMENT_3D ( 'NONE', #184, #101, #269 ) ;
#104 = CC_DESIGN_PERSON_AND_ORGANIZATION_ASSIGNMENT ( #271, #159, ( #135 ) ) ;
#105 = LINE ( 'NONE', #108, #89 ) ;
#106 = VECTOR ( 'NONE', #288, 1000.000000000000000 ) ;
#107 = LINE ( 'NONE', #75, #296 ) ;
#108 = CARTESIAN_POINT ( 'NONE',  ( -6.000000000000000888, 0.000000000000000000, 132.0000000000000000 ) ) ;
#109 = AXIS2_PLACEMENT_3D ( 'NONE', #301, #154, #160 ) ;
#110 = CARTESIAN_POINT ( 'NONE',  ( 0.000000000000000000, 0.000000000000000000, 0.000000000000000000 ) ) ;
#111 = FACE_BOUND ( 'NONE', #112, .T. ) ;
#112 = EDGE_LOOP ( 'NONE', ( #289, #91 ) ) ;
#113 = APPROVAL_ROLE ( '' ) ;
#114 = ORIENTED_EDGE ( 'NONE', *, *, #224, .T. ) ;
#115 = ADVANCED_FACE ( 'NONE', ( #8 ), #69, .T. ) ;
#116 = DATE_AND_TIME ( #171, #285 ) ;
#117 = VERTEX_POINT ( 'NONE', #247 ) ;
#118 = LINE ( 'NONE', #148, #106 ) ;
#119 = CIRCLE ( 'NONE', #67, 8.000000000000000000 ) ;
#120 = ORIENTED_EDGE ( 'NONE', *, *, #194, .F. ) ;
#121 = CARTESIAN_POINT ( 'NONE',  ( 0.000000000000000000, 0.000000000000000000, 7.000000000000000000 ) ) ;
#122 = VERTEX_POINT ( 'NONE', #305 ) ;
#123 = ORGANIZATION ( 'NEURÈENÝ', 'NEURÈENÝ', '' ) ;
#124 = FACE_OUTER_BOUND ( 'NONE', #380, .T. ) ;
#125 = ORIENTED_EDGE ( 'NONE', *, *, #224, .F. ) ;
#126 = EDGE_CURVE ( 'NONE', #355, #248, #133, .T. ) ;
#127 = PLANE ( 'NONE',  #109 ) ;
#128 = APPROVAL_ROLE ( '' ) ;
#129 = DIRECTION ( 'NONE',  ( 1.224646799147353207E-16, 1.000000000000000000, -0.000000000000000000 ) ) ;
#130 = AXIS2_PLACEMENT_3D ( 'NONE', #268, #327, #80 ) ;
#131 = DIRECTION ( 'NONE',  ( -0.000000000000000000, -0.000000000000000000, -1.000000000000000000 ) ) ;
#132 = CARTESIAN_POINT ( 'NONE',  ( 8.000000000000000000, 9.797174393178825657E-16, 132.0000000000000000 ) ) ;
#133 = CIRCLE ( 'NONE', #351, 8.000000000000000000 ) ;
#134 = DIRECTION ( 'NONE',  ( -1.000000000000000000, 0.000000000000000000, 0.000000000000000000 ) ) ;
#135 = PRODUCT_DEFINITION_FORMATION_WITH_SPECIFIED_SOURCE ( 'LIBOVOLNÝ', '', #79, .NOT_KNOWN. ) ;
#136 = CARTESIAN_POINT ( 'NONE',  ( 0.000000000000000000, 0.000000000000000000, 132.0000000000000000 ) ) ;
#137 = PRODUCT_DEFINITION ( 'NEZNÁMÝ', '', #135, #227 ) ;
#138 = CARTESIAN_POINT ( 'NONE',  ( 0.000000000000000000, 0.000000000000000000, 7.699999999999998401 ) ) ;
#139 = CIRCLE ( 'NONE', #357, 8.699999999999999289 ) ;
#140 = DIRECTION ( 'NONE',  ( 0.000000000000000000, 0.000000000000000000, 1.000000000000000000 ) ) ;
#141 = EDGE_LOOP ( 'NONE', ( #266, #375 ) ) ;
#142 = APPROVAL_PERSON_ORGANIZATION ( #234, #172, #23 ) ;
#143 = ORIENTED_EDGE ( 'NONE', *, *, #168, .F. ) ;
#144 = EDGE_CURVE ( 'NONE', #355, #262, #47, .T. ) ;
#145 =( LENGTH_UNIT ( ) NAMED_UNIT ( * ) SI_UNIT ( .MILLI., .METRE. ) );
#146 = ORIENTED_EDGE ( 'NONE', *, *, #185, .F. ) ;
#147 = VECTOR ( 'NONE', #251, 1000.000000000000000 ) ;
#148 = CARTESIAN_POINT ( 'NONE',  ( -11.00000000000000000, 0.000000000000000000, 7.000000000000000000 ) ) ;
#149 = ORIENTED_EDGE ( 'NONE', *, *, #237, .F. ) ;
#150 = PERSON_AND_ORGANIZATION ( #9, #123 ) ;
#151 = CIRCLE ( 'NONE', #250, 8.000000000000000000 ) ;
#152 = ORIENTED_EDGE ( 'NONE', *, *, #276, .F. ) ;
#153 = CARTESIAN_POINT ( 'NONE',  ( 0.000000000000000000, 0.000000000000000000, 0.000000000000000000 ) ) ;
#154 = DIRECTION ( 'NONE',  ( 0.000000000000000000, 0.000000000000000000, 1.000000000000000000 ) ) ;
#155 =( GEOMETRIC_REPRESENTATION_CONTEXT ( 3 ) GLOBAL_UNCERTAINTY_ASSIGNED_CONTEXT ( ( #26 ) ) GLOBAL_UNIT_ASSIGNED_CONTEXT ( ( #145, #203, #197 ) ) REPRESENTATION_CONTEXT ( 'NONE', 'WORKASPACE' ) );
#156 = APPROVAL ( #86, 'NEURÈENÝ' ) ;
#157 = EDGE_LOOP ( 'NONE', ( #208, #31, #328, #2 ) ) ;
#158 = EDGE_CURVE ( 'NONE', #248, #355, #196, .T. ) ;
#159 = PERSON_AND_ORGANIZATION_ROLE ( 'design_supplier' ) ;
#160 = DIRECTION ( 'NONE',  ( 1.000000000000000000, 0.000000000000000000, -0.000000000000000000 ) ) ;
#161 = CARTESIAN_POINT ( 'NONE',  ( 0.000000000000000000, 0.000000000000000000, 7.699999999999998401 ) ) ;
#162 = CARTESIAN_POINT ( 'NONE',  ( 0.000000000000000000, 0.000000000000000000, 0.000000000000000000 ) ) ;
#163 = AXIS2_PLACEMENT_3D ( 'NONE', #17, #311, #283 ) ;
#164 = CARTESIAN_POINT ( 'NONE',  ( 0.000000000000000000, 0.000000000000000000, 7.000000000000000000 ) ) ;
#165 = CYLINDRICAL_SURFACE ( 'NONE', #270, 6.000000000000000888 ) ;
#166 = DIRECTION ( 'NONE',  ( -1.000000000000000000, 0.000000000000000000, 0.000000000000000000 ) ) ;
#167 = ADVANCED_BREP_SHAPE_REPRESENTATION ( '9b1b', ( #316, #14 ), #155 ) ;
#168 = EDGE_CURVE ( 'NONE', #198, #122, #278, .T. ) ;
#169 = VECTOR ( 'NONE', #74, 1000.000000000000000 ) ;
#170 = DIRECTION ( 'NONE',  ( 1.000000000000000000, 0.000000000000000000, 0.000000000000000000 ) ) ;
#171 = CALENDAR_DATE ( 2022, 8, 7 ) ;
#172 = APPROVAL ( #287, 'NEURÈENÝ' ) ;
#173 = CARTESIAN_POINT ( 'NONE',  ( -8.000000000000000000, 0.000000000000000000, 132.0000000000000000 ) ) ;
#174 = EDGE_LOOP ( 'NONE', ( #231, #182, #93, #152 ) ) ;
#175 = APPROVAL_PERSON_ORGANIZATION ( #363, #38, #128 ) ;
#176 = ORIENTED_EDGE ( 'NONE', *, *, #282, .T. ) ;
#177 = ORIENTED_EDGE ( 'NONE', *, *, #18, .T. ) ;
#178 = CIRCLE ( 'NONE', #103, 6.000000000000000888 ) ;
#179 = DIRECTION ( 'NONE',  ( 0.000000000000000000, 0.000000000000000000, 1.000000000000000000 ) ) ;
#180 = EDGE_LOOP ( 'NONE', ( #346, #318, #90, #264 ) ) ;
#181 = AXIS2_PLACEMENT_3D ( 'NONE', #164, #343, #192 ) ;
#182 = ORIENTED_EDGE ( 'NONE', *, *, #291, .T. ) ;
#183 = PERSON_AND_ORGANIZATION ( #9, #123 ) ;
#184 = CARTESIAN_POINT ( 'NONE',  ( 0.000000000000000000, 0.000000000000000000, 0.000000000000000000 ) ) ;
#185 = EDGE_CURVE ( 'NONE', #314, #267, #202, .T. ) ;
#186 = CARTESIAN_POINT ( 'NONE',  ( 0.000000000000000000, 0.000000000000000000, 7.699999999999998401 ) ) ;
#187 = CC_DESIGN_APPROVAL ( #156, ( #137 ) ) ;
#188 = FACE_OUTER_BOUND ( 'NONE', #378, .T. ) ;
#189 = CARTESIAN_POINT ( 'NONE',  ( 0.000000000000000000, 0.000000000000000000, 132.0000000000000000 ) ) ;
#190 = DIRECTION ( 'NONE',  ( -0.000000000000000000, -0.000000000000000000, -1.000000000000000000 ) ) ;
#191 = CARTESIAN_POINT ( 'NONE',  ( 11.00000000000000000, 1.347111479062088405E-15, 7.000000000000000000 ) ) ;
#192 = DIRECTION ( 'NONE',  ( -1.000000000000000000, 0.000000000000000000, 0.000000000000000000 ) ) ;
#193 = DIRECTION ( 'NONE',  ( 0.000000000000000000, -1.000000000000000000, 0.000000000000000000 ) ) ;
#194 = EDGE_CURVE ( 'NONE', #295, #239, #344, .T. ) ;
#195 = DIRECTION ( 'NONE',  ( 0.000000000000000000, 0.000000000000000000, 1.000000000000000000 ) ) ;
#196 = CIRCLE ( 'NONE', #94, 8.000000000000000000 ) ;
#197 =( NAMED_UNIT ( * ) SI_UNIT ( $, .STERADIAN. ) SOLID_ANGLE_UNIT ( ) );
#198 = VERTEX_POINT ( 'NONE', #256 ) ;
#199 = TOROIDAL_SURFACE ( 'NONE', #11, 8.699999999999999289, 0.6999999999999999556 ) ;
#200 = DIRECTION ( 'NONE',  ( 1.000000000000000000, 0.000000000000000000, -0.000000000000000000 ) ) ;
#201 = VERTEX_POINT ( 'NONE', #16 ) ;
#202 = CIRCLE ( 'NONE', #366, 11.00000000000000000 ) ;
#203 =( NAMED_UNIT ( * ) PLANE_ANGLE_UNIT ( ) SI_UNIT ( $, .RADIAN. ) );
#204 = ORIENTED_EDGE ( 'NONE', *, *, #370, .F. ) ;
#205 = ORIENTED_EDGE ( 'NONE', *, *, #245, .F. ) ;
#206 = CC_DESIGN_PERSON_AND_ORGANIZATION_ASSIGNMENT ( #150, #317, ( #79 ) ) ;
#207 = AXIS2_PLACEMENT_3D ( 'NONE', #189, #96, #214 ) ;
#208 = ORIENTED_EDGE ( 'NONE', *, *, #88, .F. ) ;
#209 = AXIS2_PLACEMENT_3D ( 'NONE', #281, #226, #228 ) ;
#210 = CALENDAR_DATE ( 2022, 8, 7 ) ;
#211 = CARTESIAN_POINT ( 'NONE',  ( 0.000000000000000000, 0.000000000000000000, 132.0000000000000000 ) ) ;
#212 = ADVANCED_FACE ( 'NONE', ( #252 ), #336, .F. ) ;
#213 = ADVANCED_FACE ( 'NONE', ( #309 ), #341, .T. ) ;
#214 = DIRECTION ( 'NONE',  ( -1.000000000000000000, 0.000000000000000000, 0.000000000000000000 ) ) ;
#215 = APPROVAL_DATE_TIME ( #373, #172 ) ;
#216 = CARTESIAN_POINT ( 'NONE',  ( 0.000000000000000000, 0.000000000000000000, 7.000000000000000000 ) ) ;
#217 = AXIS2_PLACEMENT_3D ( 'NONE', #78, #190, #134 ) ;
#218 = DIRECTION ( 'NONE',  ( 1.000000000000000000, 0.000000000000000000, -0.000000000000000000 ) ) ;
#219 = LINE ( 'NONE', #70, #147 ) ;
#220 = CIRCLE ( 'NONE', #92, 8.699999999999999289 ) ;
#221 = DIRECTION ( 'NONE',  ( 1.000000000000000000, 0.000000000000000000, 0.000000000000000000 ) ) ;
#222 = DIRECTION ( 'NONE',  ( -1.000000000000000000, 0.000000000000000000, 0.000000000000000000 ) ) ;
#223 = CC_DESIGN_APPROVAL ( #38, ( #354 ) ) ;
#224 = EDGE_CURVE ( 'NONE', #267, #314, #35, .T. ) ;
#225 = DIRECTION ( 'NONE',  ( 0.000000000000000000, 0.000000000000000000, -1.000000000000000000 ) ) ;
#226 = DIRECTION ( 'NONE',  ( 0.000000000000000000, 0.000000000000000000, 1.000000000000000000 ) ) ;
#227 = DESIGN_CONTEXT ( 'detailed design', #263, 'design' ) ;
#228 = DIRECTION ( 'NONE',  ( 1.000000000000000000, 0.000000000000000000, 0.000000000000000000 ) ) ;
#229 = LOCAL_TIME ( 16, 20, 25.00000000000000000, #321 ) ;
#230 = LINE ( 'NONE', #313, #20 ) ;
#231 = ORIENTED_EDGE ( 'NONE', *, *, #245, .T. ) ;
#232 = DATE_TIME_ROLE ( 'creation_date' ) ;
#233 = EDGE_LOOP ( 'NONE', ( #303, #377, #34, #177 ) ) ;
#234 = PERSON_AND_ORGANIZATION ( #9, #123 ) ;
#235 = EDGE_LOOP ( 'NONE', ( #293, #204, #87, #114 ) ) ;
#236 = AXIS2_PLACEMENT_3D ( 'NONE', #48, #195, #21 ) ;
#237 = EDGE_CURVE ( 'NONE', #117, #68, #374, .T. ) ;
#238 = DIRECTION ( 'NONE',  ( -0.000000000000000000, -0.000000000000000000, -1.000000000000000000 ) ) ;
#239 = VERTEX_POINT ( 'NONE', #56 ) ;
#240 = DATE_AND_TIME ( #323, #229 ) ;
#241 = ORIENTED_EDGE ( 'NONE', *, *, #255, .F. ) ;
#242 = SECURITY_CLASSIFICATION_LEVEL ( 'unclassified' ) ;
#243 = CC_DESIGN_PERSON_AND_ORGANIZATION_ASSIGNMENT ( #57, #292, ( #137 ) ) ;
#244 = EDGE_LOOP ( 'NONE', ( #290, #24, #176, #359 ) ) ;
#245 = EDGE_CURVE ( 'NONE', #122, #198, #44, .T. ) ;
#246 = CC_DESIGN_APPROVAL ( #172, ( #135 ) ) ;
#247 = CARTESIAN_POINT ( 'NONE',  ( 8.000000000000000000, 9.797174393178825657E-16, 7.699999999999998401 ) ) ;
#248 = VERTEX_POINT ( 'NONE', #132 ) ;
#249 = FACE_OUTER_BOUND ( 'NONE', #29, .T. ) ;
#250 = AXIS2_PLACEMENT_3D ( 'NONE', #138, #22, #258 ) ;
#251 = DIRECTION ( 'NONE',  ( -0.000000000000000000, -0.000000000000000000, -1.000000000000000000 ) ) ;
#252 = FACE_OUTER_BOUND ( 'NONE', #174, .T. ) ;
#253 = AXIS2_PLACEMENT_3D ( 'NONE', #335, #129, #365 ) ;
#254 = CARTESIAN_POINT ( 'NONE',  ( -8.000000000000000000, 0.000000000000000000, 7.699999999999998401 ) ) ;
#255 = EDGE_CURVE ( 'NONE', #262, #117, #119, .T. ) ;
#256 = CARTESIAN_POINT ( 'NONE',  ( 6.000000000000000888, 7.347880794884120722E-16, 132.0000000000000000 ) ) ;
#257 = CARTESIAN_POINT ( 'NONE',  ( 0.000000000000000000, 0.000000000000000000, 132.0000000000000000 ) ) ;
#258 = DIRECTION ( 'NONE',  ( 1.000000000000000000, 0.000000000000000000, 0.000000000000000000 ) ) ;
#259 = CALENDAR_DATE ( 2022, 8, 7 ) ;
#260 = ORIENTED_EDGE ( 'NONE', *, *, #126, .T. ) ;
#261 = APPLICATION_PROTOCOL_DEFINITION ( 'international standard', 'config_control_design', 1994, #320 ) ;
#262 = VERTEX_POINT ( 'NONE', #254 ) ;
#263 = APPLICATION_CONTEXT ( 'configuration controlled 3d designs of mechanical parts and assemblies' ) ;
#264 = ORIENTED_EDGE ( 'NONE', *, *, #255, .T. ) ;
#265 = EDGE_CURVE ( 'NONE', #325, #201, #76, .T. ) ;
#266 = ORIENTED_EDGE ( 'NONE', *, *, #370, .T. ) ;
#267 = VERTEX_POINT ( 'NONE', #368 ) ;
#268 = CARTESIAN_POINT ( 'NONE',  ( 0.000000000000000000, 0.000000000000000000, 132.0000000000000000 ) ) ;
#269 = DIRECTION ( 'NONE',  ( 1.000000000000000000, 0.000000000000000000, 0.000000000000000000 ) ) ;
#270 = AXIS2_PLACEMENT_3D ( 'NONE', #136, #352, #82 ) ;
#271 = PERSON_AND_ORGANIZATION ( #9, #123 ) ;
#272 = DIRECTION ( 'NONE',  ( 0.000000000000000000, 0.000000000000000000, 1.000000000000000000 ) ) ;
#273 = DATE_AND_TIME ( #356, #7 ) ;
#274 = EDGE_LOOP ( 'NONE', ( #120, #84, #63, #350 ) ) ;
#275 = TOROIDAL_SURFACE ( 'NONE', #40, 8.699999999999999289, 0.6999999999999999556 ) ;
#276 = EDGE_CURVE ( 'NONE', #122, #201, #105, .T. ) ;
#277 = DIRECTION ( 'NONE',  ( -0.000000000000000000, -0.000000000000000000, -1.000000000000000000 ) ) ;
#278 = CIRCLE ( 'NONE', #130, 6.000000000000000888 ) ;
#279 = DIRECTION ( 'NONE',  ( 0.000000000000000000, 0.000000000000000000, -1.000000000000000000 ) ) ;
#280 = CC_DESIGN_PERSON_AND_ORGANIZATION_ASSIGNMENT ( #330, #333, ( #135 ) ) ;
#281 = CARTESIAN_POINT ( 'NONE',  ( 0.000000000000000000, 0.000000000000000000, 132.0000000000000000 ) ) ;
#282 = EDGE_CURVE ( 'NONE', #117, #262, #151, .T. ) ;
#283 = DIRECTION ( 'NONE',  ( 1.000000000000000000, 0.000000000000000000, 0.000000000000000000 ) ) ;
#284 = CARTESIAN_POINT ( 'NONE',  ( 6.000000000000000888, 7.347880794884120722E-16, 0.000000000000000000 ) ) ;
#285 = LOCAL_TIME ( 16, 20, 25.00000000000000000, #345 ) ;
#286 = DIRECTION ( 'NONE',  ( 0.000000000000000000, 0.000000000000000000, 1.000000000000000000 ) ) ;
#287 = APPROVAL_STATUS ( 'not_yet_approved' ) ;
#288 = DIRECTION ( 'NONE',  ( -0.000000000000000000, -0.000000000000000000, -1.000000000000000000 ) ) ;
#289 = ORIENTED_EDGE ( 'NONE', *, *, #54, .T. ) ;
#290 = ORIENTED_EDGE ( 'NONE', *, *, #158, .F. ) ;
#291 = EDGE_CURVE ( 'NONE', #198, #325, #107, .T. ) ;
#292 = PERSON_AND_ORGANIZATION_ROLE ( 'creator' ) ;
#293 = ORIENTED_EDGE ( 'NONE', *, *, #342, .F. ) ;
#294 = DIRECTION ( 'NONE',  ( 1.000000000000000000, 0.000000000000000000, 0.000000000000000000 ) ) ;
#295 = VERTEX_POINT ( 'NONE', #191 ) ;
#296 = VECTOR ( 'NONE', #225, 1000.000000000000000 ) ;
#297 = DIRECTION ( 'NONE',  ( 0.000000000000000000, 0.000000000000000000, 1.000000000000000000 ) ) ;
#298 = DATE_AND_TIME ( #210, #337 ) ;
#299 = DIRECTION ( 'NONE',  ( 1.000000000000000000, 0.000000000000000000, 0.000000000000000000 ) ) ;
#300 = PERSON_AND_ORGANIZATION_ROLE ( 'classification_officer' ) ;
#301 = CARTESIAN_POINT ( 'NONE',  ( 0.000000000000000000, 0.000000000000000000, 132.0000000000000000 ) ) ;
#302 = APPROVAL_STATUS ( 'not_yet_approved' ) ;
#303 = ORIENTED_EDGE ( 'NONE', *, *, #291, .F. ) ;
#304 = ADVANCED_FACE ( 'NONE', ( #338 ), #310, .T. ) ;
#305 = CARTESIAN_POINT ( 'NONE',  ( -6.000000000000000888, 0.000000000000000000, 132.0000000000000000 ) ) ;
#306 = DIRECTION ( 'NONE',  ( 0.000000000000000000, 0.000000000000000000, 1.000000000000000000 ) ) ;
#307 = CIRCLE ( 'NONE', #49, 11.00000000000000000 ) ;
#308 = CARTESIAN_POINT ( 'NONE',  ( -8.699999999999999289, 1.065442715258197248E-15, 6.999999999999999112 ) ) ;
#309 = FACE_OUTER_BOUND ( 'NONE', #180, .T. ) ;
#310 = CYLINDRICAL_SURFACE ( 'NONE', #81, 11.00000000000000000 ) ;
#311 = DIRECTION ( 'NONE',  ( 0.000000000000000000, 0.000000000000000000, 1.000000000000000000 ) ) ;
#312 = MECHANICAL_CONTEXT ( 'NONE', #320, 'mechanical' ) ;
#313 = CARTESIAN_POINT ( 'NONE',  ( 11.00000000000000000, 1.347111479062088405E-15, 7.000000000000000000 ) ) ;
#314 = VERTEX_POINT ( 'NONE', #372 ) ;
#315 = CC_DESIGN_DATE_AND_TIME_ASSIGNMENT ( #298, #36, ( #354 ) ) ;
#316 = MANIFOLD_SOLID_BREP ( 'Odebrat vysunutím3', #340 ) ;
#317 = PERSON_AND_ORGANIZATION_ROLE ( 'design_owner' ) ;
#318 = ORIENTED_EDGE ( 'NONE', *, *, #126, .F. ) ;
#319 = APPROVAL_PERSON_ORGANIZATION ( #33, #156, #113 ) ;
#320 = APPLICATION_CONTEXT ( 'configuration controlled 3d designs of mechanical parts and assemblies' ) ;
#321 = COORDINATED_UNIVERSAL_TIME_OFFSET ( 1, 0, .AHEAD. ) ;
#322 = ORIENTED_EDGE ( 'NONE', *, *, #88, .T. ) ;
#323 = CALENDAR_DATE ( 2022, 8, 7 ) ;
#324 = VERTEX_POINT ( 'NONE', #308 ) ;
#325 = VERTEX_POINT ( 'NONE', #284 ) ;
#326 = AXIS2_PLACEMENT_3D ( 'NONE', #110, #131, #170 ) ;
#327 = DIRECTION ( 'NONE',  ( 0.000000000000000000, 0.000000000000000000, 1.000000000000000000 ) ) ;
#328 = ORIENTED_EDGE ( 'NONE', *, *, #237, .T. ) ;
#329 = ADVANCED_FACE ( 'NONE', ( #55 ), #51, .T. ) ;
#330 = PERSON_AND_ORGANIZATION ( #9, #123 ) ;
#331 = ADVANCED_FACE ( 'NONE', ( #53 ), #165, .F. ) ;
#332 = CARTESIAN_POINT ( 'NONE',  ( 0.000000000000000000, 0.000000000000000000, 132.0000000000000000 ) ) ;
#333 = PERSON_AND_ORGANIZATION_ROLE ( 'creator' ) ;
#334 = DIRECTION ( 'NONE',  ( 0.000000000000000000, 0.000000000000000000, 1.000000000000000000 ) ) ;
#335 = CARTESIAN_POINT ( 'NONE',  ( -8.699999999999999289, 1.065442715258197248E-15, 7.699999999999998401 ) ) ;
#336 = CYLINDRICAL_SURFACE ( 'NONE', #381, 6.000000000000000888 ) ;
#337 = LOCAL_TIME ( 16, 20, 25.00000000000000000, #42 ) ;
#338 = FACE_OUTER_BOUND ( 'NONE', #235, .T. ) ;
#339 = CARTESIAN_POINT ( 'NONE',  ( 0.000000000000000000, 0.000000000000000000, 7.000000000000000000 ) ) ;
#340 = CLOSED_SHELL ( 'NONE', ( #212, #32, #115, #329, #304, #362, #98, #213, #39, #19, #331 ) ) ;
#341 = CYLINDRICAL_SURFACE ( 'NONE', #217, 8.000000000000000000 ) ;
#342 = EDGE_CURVE ( 'NONE', #295, #314, #230, .T. ) ;
#343 = DIRECTION ( 'NONE',  ( -0.000000000000000000, -0.000000000000000000, -1.000000000000000000 ) ) ;
#344 = CIRCLE ( 'NONE', #236, 11.00000000000000000 ) ;
#345 = COORDINATED_UNIVERSAL_TIME_OFFSET ( 1, 0, .AHEAD. ) ;
#346 = ORIENTED_EDGE ( 'NONE', *, *, #5, .F. ) ;
#347 = PRODUCT_RELATED_PRODUCT_CATEGORY ( 'detail', '', ( #79 ) ) ;
#348 = EDGE_CURVE ( 'NONE', #239, #267, #118, .T. ) ;
#349 = COORDINATED_UNIVERSAL_TIME_OFFSET ( 1, 0, .AHEAD. ) ;
#350 = ORIENTED_EDGE ( 'NONE', *, *, #348, .F. ) ;
#351 = AXIS2_PLACEMENT_3D ( 'NONE', #332, #4, #71 ) ;
#352 = DIRECTION ( 'NONE',  ( 0.000000000000000000, 0.000000000000000000, -1.000000000000000000 ) ) ;
#353 = ORIENTED_EDGE ( 'NONE', *, *, #158, .T. ) ;
#354 = SECURITY_CLASSIFICATION ( '', '', #242 ) ;
#355 = VERTEX_POINT ( 'NONE', #173 ) ;
#356 = CALENDAR_DATE ( 2022, 8, 7 ) ;
#357 = AXIS2_PLACEMENT_3D ( 'NONE', #41, #364, #360 ) ;
#358 = EDGE_LOOP ( 'NONE', ( #205, #143 ) ) ;
#359 = ORIENTED_EDGE ( 'NONE', *, *, #144, .F. ) ;
#360 = DIRECTION ( 'NONE',  ( 1.000000000000000000, 0.000000000000000000, 0.000000000000000000 ) ) ;
#361 = CC_DESIGN_PERSON_AND_ORGANIZATION_ASSIGNMENT ( #183, #300, ( #354 ) ) ;
#362 = ADVANCED_FACE ( 'NONE', ( #111, #30 ), #28, .T. ) ;
#363 = PERSON_AND_ORGANIZATION ( #9, #123 ) ;
#364 = DIRECTION ( 'NONE',  ( -0.000000000000000000, -0.000000000000000000, -1.000000000000000000 ) ) ;
#365 = DIRECTION ( 'NONE',  ( -1.000000000000000000, 1.224646799147353207E-16, 0.000000000000000000 ) ) ;
#366 = AXIS2_PLACEMENT_3D ( 'NONE', #162, #286, #102 ) ;
#367 = DIRECTION ( 'NONE',  ( -0.000000000000000000, -0.000000000000000000, -1.000000000000000000 ) ) ;
#368 = CARTESIAN_POINT ( 'NONE',  ( -11.00000000000000000, 0.000000000000000000, 0.000000000000000000 ) ) ;
#369 = CARTESIAN_POINT ( 'NONE',  ( 8.699999999999999289, 0.000000000000000000, 7.699999999999998401 ) ) ;
#370 = EDGE_CURVE ( 'NONE', #239, #295, #307, .T. ) ;
#371 = CARTESIAN_POINT ( 'NONE',  ( 0.000000000000000000, 0.000000000000000000, 7.699999999999998401 ) ) ;
#372 = CARTESIAN_POINT ( 'NONE',  ( 11.00000000000000000, 1.347111479062088405E-15, 0.000000000000000000 ) ) ;
#373 = DATE_AND_TIME ( #259, #25 ) ;
#374 = CIRCLE ( 'NONE', #62, 0.7000000000000000666 ) ;
#375 = ORIENTED_EDGE ( 'NONE', *, *, #194, .T. ) ;
#376 = APPLICATION_PROTOCOL_DEFINITION ( 'international standard', 'config_control_design', 1994, #263 ) ;
#377 = ORIENTED_EDGE ( 'NONE', *, *, #168, .T. ) ;
#378 = EDGE_LOOP ( 'NONE', ( #260, #353 ) ) ;
#379 = DIRECTION ( 'NONE',  ( 0.000000000000000000, 0.000000000000000000, 1.000000000000000000 ) ) ;
#380 = EDGE_LOOP ( 'NONE', ( #125, #146 ) ) ;
#381 = AXIS2_PLACEMENT_3D ( 'NONE', #257, #279, #222 ) ;
ENDSEC;
END-ISO-10303-21;
