ISO-10303-21;
HEADER;
FILE_DESCRIPTION (( 'STEP AP203' ),
    '1' );
FILE_NAME ('14b2.STEP',
    '2022-07-08T14:20:42',
    ( '' ),
    ( '' ),
    'SwSTEP 2.0',
    'SolidWorks 2019',
    '' );
FILE_SCHEMA (( 'CONFIG_CONTROL_DESIGN' ));
ENDSEC;

DATA;
#1 = DIRECTION ( 'NONE',  ( 0.000000000000000000, 0.000000000000000000, 1.000000000000000000 ) ) ;
#2 = AXIS2_PLACEMENT_3D ( 'NONE', #193, #375, #304 ) ;
#3 = AXIS2_PLACEMENT_3D ( 'NONE', #346, #203, #316 ) ;
#4 = DIRECTION ( 'NONE',  ( -1.000000000000000000, 1.224646799147353207E-16, 0.000000000000000000 ) ) ;
#5 = EDGE_CURVE ( 'NONE', #114, #44, #268, .T. ) ;
#6 = DIRECTION ( 'NONE',  ( 1.000000000000000000, 0.000000000000000000, 0.000000000000000000 ) ) ;
#7 = ORIENTED_EDGE ( 'NONE', *, *, #185, .T. ) ;
#8 = CARTESIAN_POINT ( 'NONE',  ( 0.000000000000000000, 0.000000000000000000, 82.00000000000000000 ) ) ;
#9 = EDGE_LOOP ( 'NONE', ( #279, #103, #7, #65 ) ) ;
#10 = ORIENTED_EDGE ( 'NONE', *, *, #5, .F. ) ;
#11 = EDGE_CURVE ( 'NONE', #213, #16, #173, .T. ) ;
#12 = ORIENTED_EDGE ( 'NONE', *, *, #371, .F. ) ;
#13 = AXIS2_PLACEMENT_3D ( 'NONE', #187, #1, #155 ) ;
#14 = APPROVAL_DATE_TIME ( #254, #272 ) ;
#15 = ORIENTED_EDGE ( 'NONE', *, *, #17, .T. ) ;
#16 = VERTEX_POINT ( 'NONE', #43 ) ;
#17 = EDGE_CURVE ( 'NONE', #302, #163, #146, .T. ) ;
#18 = CYLINDRICAL_SURFACE ( 'NONE', #283, 6.000000000000000888 ) ;
#19 = APPROVAL_DATE_TIME ( #76, #124 ) ;
#20 = DIRECTION ( 'NONE',  ( 0.000000000000000000, 0.000000000000000000, -1.000000000000000000 ) ) ;
#21 = CARTESIAN_POINT ( 'NONE',  ( 0.000000000000000000, 0.000000000000000000, 7.000000000000000000 ) ) ;
#22 = AXIS2_PLACEMENT_3D ( 'NONE', #57, #24, #260 ) ;
#23 = UNCERTAINTY_MEASURE_WITH_UNIT (LENGTH_MEASURE( 1.000000000000000082E-05 ), #328, 'distance_accuracy_value', 'NONE');
#24 = DIRECTION ( 'NONE',  ( 0.000000000000000000, 0.000000000000000000, 1.000000000000000000 ) ) ;
#25 = CC_DESIGN_PERSON_AND_ORGANIZATION_ASSIGNMENT ( #71, #303, ( #235 ) ) ;
#26 = DIRECTION ( 'NONE',  ( 0.000000000000000000, 0.000000000000000000, -1.000000000000000000 ) ) ;
#27 = CARTESIAN_POINT ( 'NONE',  ( 0.000000000000000000, 0.000000000000000000, 7.000000000000000000 ) ) ;
#28 = SECURITY_CLASSIFICATION ( '', '', #246 ) ;
#29 = CARTESIAN_POINT ( 'NONE',  ( -8.000000000000000000, 0.000000000000000000, 7.699999999999998401 ) ) ;
#30 = ADVANCED_FACE ( 'NONE', ( #199 ), #122, .F. ) ;
#31 = DIRECTION ( 'NONE',  ( -0.000000000000000000, -0.000000000000000000, -1.000000000000000000 ) ) ;
#32 = AXIS2_PLACEMENT_3D ( 'NONE', #377, #349, #261 ) ;
#33 = LOCAL_TIME ( 16, 20, 42.00000000000000000, #113 ) ;
#34 = CC_DESIGN_DATE_AND_TIME_ASSIGNMENT ( #336, #41, ( #28 ) ) ;
#35 = DIRECTION ( 'NONE',  ( -0.000000000000000000, -0.000000000000000000, -1.000000000000000000 ) ) ;
#36 = PRODUCT ( '14b2', '14b2', '', ( #250 ) ) ;
#37 = CYLINDRICAL_SURFACE ( 'NONE', #263, 11.00000000000000000 ) ;
#38 = CARTESIAN_POINT ( 'NONE',  ( -6.000000000000000888, 0.000000000000000000, 82.00000000000000000 ) ) ;
#39 = ORIENTED_EDGE ( 'NONE', *, *, #165, .T. ) ;
#40 = CIRCLE ( 'NONE', #247, 8.000000000000000000 ) ;
#41 = DATE_TIME_ROLE ( 'classification_date' ) ;
#42 = ORIENTED_EDGE ( 'NONE', *, *, #56, .T. ) ;
#43 = CARTESIAN_POINT ( 'NONE',  ( -11.00000000000000000, 0.000000000000000000, 7.000000000000000000 ) ) ;
#44 = VERTEX_POINT ( 'NONE', #134 ) ;
#45 = APPROVAL_STATUS ( 'not_yet_approved' ) ;
#46 = LINE ( 'NONE', #167, #324 ) ;
#47 = ADVANCED_FACE ( 'NONE', ( #172 ), #332, .F. ) ;
#48 = ORIENTED_EDGE ( 'NONE', *, *, #68, .F. ) ;
#49 = VERTEX_POINT ( 'NONE', #80 ) ;
#50 = APPROVAL_ROLE ( '' ) ;
#51 = DIRECTION ( 'NONE',  ( -1.000000000000000000, 0.000000000000000000, 0.000000000000000000 ) ) ;
#52 = CIRCLE ( 'NONE', #289, 11.00000000000000000 ) ;
#53 = ADVANCED_FACE ( 'NONE', ( #248 ), #18, .F. ) ;
#54 = CARTESIAN_POINT ( 'NONE',  ( 8.699999999999999289, 0.000000000000000000, 6.999999999999999112 ) ) ;
#55 = CARTESIAN_POINT ( 'NONE',  ( 8.699999999999999289, 0.000000000000000000, 7.699999999999998401 ) ) ;
#56 = EDGE_CURVE ( 'NONE', #163, #69, #74, .T. ) ;
#57 = CARTESIAN_POINT ( 'NONE',  ( 0.000000000000000000, 0.000000000000000000, 82.00000000000000000 ) ) ;
#58 = CIRCLE ( 'NONE', #123, 0.7000000000000000666 ) ;
#59 = DIRECTION ( 'NONE',  ( -0.000000000000000000, -0.000000000000000000, -1.000000000000000000 ) ) ;
#60 =( NAMED_UNIT ( * ) PLANE_ANGLE_UNIT ( ) SI_UNIT ( $, .RADIAN. ) );
#61 = EDGE_LOOP ( 'NONE', ( #125, #12 ) ) ;
#62 = CARTESIAN_POINT ( 'NONE',  ( 8.000000000000000000, 9.797174393178825657E-16, 82.00000000000000000 ) ) ;
#63 = LOCAL_TIME ( 16, 20, 42.00000000000000000, #373 ) ;
#64 = FACE_OUTER_BOUND ( 'NONE', #9, .T. ) ;
#65 = ORIENTED_EDGE ( 'NONE', *, *, #363, .T. ) ;
#66 = DIRECTION ( 'NONE',  ( -0.000000000000000000, -0.000000000000000000, -1.000000000000000000 ) ) ;
#67 = EDGE_LOOP ( 'NONE', ( #271, #211 ) ) ;
#68 = EDGE_CURVE ( 'NONE', #186, #240, #152, .T. ) ;
#69 = VERTEX_POINT ( 'NONE', #225 ) ;
#70 = AXIS2_PLACEMENT_3D ( 'NONE', #207, #120, #205 ) ;
#71 = PERSON_AND_ORGANIZATION ( #257, #229 ) ;
#72 = DIRECTION ( 'NONE',  ( 1.000000000000000000, 0.000000000000000000, 0.000000000000000000 ) ) ;
#73 = EDGE_LOOP ( 'NONE', ( #195, #10, #182, #39 ) ) ;
#74 = LINE ( 'NONE', #109, #223 ) ;
#75 = EDGE_CURVE ( 'NONE', #302, #309, #46, .T. ) ;
#76 = DATE_AND_TIME ( #192, #63 ) ;
#77 = ORIENTED_EDGE ( 'NONE', *, *, #232, .F. ) ;
#78 = AXIS2_PLACEMENT_3D ( 'NONE', #267, #294, #4 ) ;
#79 = PERSON_AND_ORGANIZATION ( #257, #229 ) ;
#80 = CARTESIAN_POINT ( 'NONE',  ( 8.000000000000000000, 9.797174393178825657E-16, 7.699999999999998401 ) ) ;
#81 = PERSON_AND_ORGANIZATION_ROLE ( 'creator' ) ;
#82 = CARTESIAN_POINT ( 'NONE',  ( 0.000000000000000000, 0.000000000000000000, 7.699999999999998401 ) ) ;
#83 = ADVANCED_BREP_SHAPE_REPRESENTATION ( '14b2', ( #322, #313 ), #202 ) ;
#84 = ADVANCED_FACE ( 'NONE', ( #310 ), #290, .T. ) ;
#85 = CARTESIAN_POINT ( 'NONE',  ( 11.00000000000000000, 1.347111479062088405E-15, 7.000000000000000000 ) ) ;
#86 = CIRCLE ( 'NONE', #91, 6.000000000000000888 ) ;
#87 = DIRECTION ( 'NONE',  ( -0.000000000000000000, -0.000000000000000000, -1.000000000000000000 ) ) ;
#88 = DIRECTION ( 'NONE',  ( -0.000000000000000000, -0.000000000000000000, -1.000000000000000000 ) ) ;
#89 = DIRECTION ( 'NONE',  ( -0.000000000000000000, -0.000000000000000000, -1.000000000000000000 ) ) ;
#90 = FACE_OUTER_BOUND ( 'NONE', #67, .T. ) ;
#91 = AXIS2_PLACEMENT_3D ( 'NONE', #287, #88, #148 ) ;
#92 = DIRECTION ( 'NONE',  ( 0.000000000000000000, 0.000000000000000000, 1.000000000000000000 ) ) ;
#93 = EDGE_LOOP ( 'NONE', ( #77, #136, #100, #110 ) ) ;
#94 = DIRECTION ( 'NONE',  ( 0.000000000000000000, 0.000000000000000000, 1.000000000000000000 ) ) ;
#95 = CC_DESIGN_DATE_AND_TIME_ASSIGNMENT ( #224, #307, ( #196 ) ) ;
#96 = VERTEX_POINT ( 'NONE', #29 ) ;
#97 =( NAMED_UNIT ( * ) SI_UNIT ( $, .STERADIAN. ) SOLID_ANGLE_UNIT ( ) );
#98 = ORIENTED_EDGE ( 'NONE', *, *, #68, .T. ) ;
#99 = CIRCLE ( 'NONE', #105, 6.000000000000000888 ) ;
#100 = ORIENTED_EDGE ( 'NONE', *, *, #191, .T. ) ;
#101 = DIRECTION ( 'NONE',  ( 0.000000000000000000, 0.000000000000000000, 1.000000000000000000 ) ) ;
#102 = APPROVAL_ROLE ( '' ) ;
#103 = ORIENTED_EDGE ( 'NONE', *, *, #338, .F. ) ;
#104 = ORIENTED_EDGE ( 'NONE', *, *, #11, .T. ) ;
#105 = AXIS2_PLACEMENT_3D ( 'NONE', #359, #101, #6 ) ;
#106 = PERSON_AND_ORGANIZATION ( #257, #229 ) ;
#107 = EDGE_CURVE ( 'NONE', #309, #69, #312, .T. ) ;
#108 = ORIENTED_EDGE ( 'NONE', *, *, #265, .F. ) ;
#109 = CARTESIAN_POINT ( 'NONE',  ( 6.000000000000000888, 7.347880794884120722E-16, 82.00000000000000000 ) ) ;
#110 = ORIENTED_EDGE ( 'NONE', *, *, #320, .F. ) ;
#111 = DIRECTION ( 'NONE',  ( 0.000000000000000000, 0.000000000000000000, 1.000000000000000000 ) ) ;
#112 = LOCAL_TIME ( 16, 20, 42.00000000000000000, #142 ) ;
#113 = COORDINATED_UNIVERSAL_TIME_OFFSET ( 1, 0, .AHEAD. ) ;
#114 = VERTEX_POINT ( 'NONE', #200 ) ;
#115 = CARTESIAN_POINT ( 'NONE',  ( 0.000000000000000000, 0.000000000000000000, 7.000000000000000000 ) ) ;
#116 = FACE_OUTER_BOUND ( 'NONE', #143, .T. ) ;
#117 = CARTESIAN_POINT ( 'NONE',  ( 6.000000000000000888, 7.347880794884120722E-16, 82.00000000000000000 ) ) ;
#118 = EDGE_CURVE ( 'NONE', #255, #218, #168, .T. ) ;
#119 = DIRECTION ( 'NONE',  ( 0.000000000000000000, 0.000000000000000000, -1.000000000000000000 ) ) ;
#120 = DIRECTION ( 'NONE',  ( 0.000000000000000000, 0.000000000000000000, 1.000000000000000000 ) ) ;
#121 = FACE_OUTER_BOUND ( 'NONE', #239, .T. ) ;
#122 = TOROIDAL_SURFACE ( 'NONE', #135, 8.699999999999999289, 0.6999999999999999556 ) ;
#123 = AXIS2_PLACEMENT_3D ( 'NONE', #55, #177, #119 ) ;
#124 = APPROVAL ( #197, 'NEURÈENÝ' ) ;
#125 = ORIENTED_EDGE ( 'NONE', *, *, #17, .F. ) ;
#126 = ORIENTED_EDGE ( 'NONE', *, *, #107, .F. ) ;
#127 = CARTESIAN_POINT ( 'NONE',  ( 0.000000000000000000, 0.000000000000000000, 7.000000000000000000 ) ) ;
#128 = CC_DESIGN_PERSON_AND_ORGANIZATION_ASSIGNMENT ( #106, #305, ( #28 ) ) ;
#129 = LOCAL_TIME ( 16, 20, 42.00000000000000000, #333 ) ;
#130 = DIRECTION ( 'NONE',  ( -1.000000000000000000, 0.000000000000000000, 0.000000000000000000 ) ) ;
#131 = ORIENTED_EDGE ( 'NONE', *, *, #11, .F. ) ;
#132 = CALENDAR_DATE ( 2022, 8, 7 ) ;
#133 = DATE_AND_TIME ( #343, #112 ) ;
#134 = CARTESIAN_POINT ( 'NONE',  ( 8.000000000000000000, 9.797174393178825657E-16, 82.00000000000000000 ) ) ;
#135 = AXIS2_PLACEMENT_3D ( 'NONE', #144, #169, #220 ) ;
#136 = ORIENTED_EDGE ( 'NONE', *, *, #293, .T. ) ;
#137 = LOCAL_TIME ( 16, 20, 42.00000000000000000, #219 ) ;
#138 = APPROVAL_DATE_TIME ( #133, #175 ) ;
#139 = ORIENTED_EDGE ( 'NONE', *, *, #118, .T. ) ;
#140 = PERSON_AND_ORGANIZATION ( #257, #229 ) ;
#141 = CARTESIAN_POINT ( 'NONE',  ( 0.000000000000000000, 0.000000000000000000, 82.00000000000000000 ) ) ;
#142 = COORDINATED_UNIVERSAL_TIME_OFFSET ( 1, 0, .AHEAD. ) ;
#143 = EDGE_LOOP ( 'NONE', ( #244, #321, #354, #369 ) ) ;
#144 = CARTESIAN_POINT ( 'NONE',  ( 0.000000000000000000, 0.000000000000000000, 7.699999999999998401 ) ) ;
#145 = LINE ( 'NONE', #230, #262 ) ;
#146 = CIRCLE ( 'NONE', #153, 6.000000000000000888 ) ;
#147 = AXIS2_PLACEMENT_3D ( 'NONE', #210, #92, #330 ) ;
#148 = DIRECTION ( 'NONE',  ( 1.000000000000000000, 0.000000000000000000, 0.000000000000000000 ) ) ;
#149 = DIRECTION ( 'NONE',  ( 1.000000000000000000, 0.000000000000000000, 0.000000000000000000 ) ) ;
#150 = FACE_OUTER_BOUND ( 'NONE', #367, .T. ) ;
#151 = EDGE_CURVE ( 'NONE', #213, #186, #314, .T. ) ;
#152 = CIRCLE ( 'NONE', #2, 11.00000000000000000 ) ;
#153 = AXIS2_PLACEMENT_3D ( 'NONE', #164, #370, #340 ) ;
#154 = ORIENTED_EDGE ( 'NONE', *, *, #265, .T. ) ;
#155 = DIRECTION ( 'NONE',  ( 1.000000000000000000, 0.000000000000000000, -0.000000000000000000 ) ) ;
#156 = EDGE_LOOP ( 'NONE', ( #329, #154, #306, #184 ) ) ;
#157 = EDGE_CURVE ( 'NONE', #218, #255, #234, .T. ) ;
#158 = PLANE ( 'NONE',  #334 ) ;
#159 = FACE_BOUND ( 'NONE', #362, .T. ) ;
#160 = ORIENTED_EDGE ( 'NONE', *, *, #185, .F. ) ;
#161 = AXIS2_PLACEMENT_3D ( 'NONE', #8, #275, #242 ) ;
#162 = PERSON_AND_ORGANIZATION ( #257, #229 ) ;
#163 = VERTEX_POINT ( 'NONE', #117 ) ;
#164 = CARTESIAN_POINT ( 'NONE',  ( 0.000000000000000000, 0.000000000000000000, 82.00000000000000000 ) ) ;
#165 = EDGE_CURVE ( 'NONE', #96, #49, #378, .T. ) ;
#166 = PERSON_AND_ORGANIZATION ( #257, #229 ) ;
#167 = CARTESIAN_POINT ( 'NONE',  ( -6.000000000000000888, 0.000000000000000000, 82.00000000000000000 ) ) ;
#168 = CIRCLE ( 'NONE', #374, 8.699999999999999289 ) ;
#169 = DIRECTION ( 'NONE',  ( 0.000000000000000000, 0.000000000000000000, 1.000000000000000000 ) ) ;
#170 = DESIGN_CONTEXT ( 'detailed design', #372, 'design' ) ;
#171 = PERSON_AND_ORGANIZATION ( #257, #229 ) ;
#172 = FACE_OUTER_BOUND ( 'NONE', #156, .T. ) ;
#173 = CIRCLE ( 'NONE', #347, 11.00000000000000000 ) ;
#174 = CARTESIAN_POINT ( 'NONE',  ( 0.000000000000000000, 0.000000000000000000, 7.699999999999998401 ) ) ;
#175 = APPROVAL ( #194, 'NEURÈENÝ' ) ;
#176 = FACE_OUTER_BOUND ( 'NONE', #73, .T. ) ;
#177 = DIRECTION ( 'NONE',  ( 0.000000000000000000, -1.000000000000000000, 0.000000000000000000 ) ) ;
#178 = DIRECTION ( 'NONE',  ( 1.000000000000000000, 0.000000000000000000, 0.000000000000000000 ) ) ;
#179 = DIRECTION ( 'NONE',  ( 1.000000000000000000, 0.000000000000000000, 0.000000000000000000 ) ) ;
#180 = ADVANCED_FACE ( 'NONE', ( #176 ), #285, .T. ) ;
#181 = CARTESIAN_POINT ( 'NONE',  ( -6.000000000000000888, 0.000000000000000000, 0.000000000000000000 ) ) ;
#182 = ORIENTED_EDGE ( 'NONE', *, *, #320, .T. ) ;
#183 = DIRECTION ( 'NONE',  ( -0.000000000000000000, -0.000000000000000000, -1.000000000000000000 ) ) ;
#184 = ORIENTED_EDGE ( 'NONE', *, *, #259, .F. ) ;
#185 = EDGE_CURVE ( 'NONE', #16, #240, #145, .T. ) ;
#186 = VERTEX_POINT ( 'NONE', #381 ) ;
#187 = CARTESIAN_POINT ( 'NONE',  ( 0.000000000000000000, 0.000000000000000000, 0.000000000000000000 ) ) ;
#188 = ORIENTED_EDGE ( 'NONE', *, *, #191, .F. ) ;
#189 = AXIS2_PLACEMENT_3D ( 'NONE', #341, #216, #72 ) ;
#190 = CALENDAR_DATE ( 2022, 8, 7 ) ;
#191 = EDGE_CURVE ( 'NONE', #49, #96, #40, .T. ) ;
#192 = CALENDAR_DATE ( 2022, 8, 7 ) ;
#193 = CARTESIAN_POINT ( 'NONE',  ( 0.000000000000000000, 0.000000000000000000, 0.000000000000000000 ) ) ;
#194 = APPROVAL_STATUS ( 'not_yet_approved' ) ;
#195 = ORIENTED_EDGE ( 'NONE', *, *, #293, .F. ) ;
#196 = PRODUCT_DEFINITION ( 'NEZNÁMÝ', '', #235, #170 ) ;
#197 = APPROVAL_STATUS ( 'not_yet_approved' ) ;
#198 = CALENDAR_DATE ( 2022, 8, 7 ) ;
#199 = FACE_OUTER_BOUND ( 'NONE', #360, .T. ) ;
#200 = CARTESIAN_POINT ( 'NONE',  ( -8.000000000000000000, 0.000000000000000000, 82.00000000000000000 ) ) ;
#201 = CC_DESIGN_APPROVAL ( #124, ( #196 ) ) ;
#202 =( GEOMETRIC_REPRESENTATION_CONTEXT ( 3 ) GLOBAL_UNCERTAINTY_ASSIGNED_CONTEXT ( ( #23 ) ) GLOBAL_UNIT_ASSIGNED_CONTEXT ( ( #328, #60, #97 ) ) REPRESENTATION_CONTEXT ( 'NONE', 'WORKASPACE' ) );
#203 = DIRECTION ( 'NONE',  ( 0.000000000000000000, 0.000000000000000000, -1.000000000000000000 ) ) ;
#204 = FACE_BOUND ( 'NONE', #61, .T. ) ;
#205 = DIRECTION ( 'NONE',  ( 1.000000000000000000, 0.000000000000000000, 0.000000000000000000 ) ) ;
#206 = AXIS2_PLACEMENT_3D ( 'NONE', #27, #317, #178 ) ;
#207 = CARTESIAN_POINT ( 'NONE',  ( 0.000000000000000000, 0.000000000000000000, 82.00000000000000000 ) ) ;
#208 = LINE ( 'NONE', #212, #379 ) ;
#209 = ORIENTED_EDGE ( 'NONE', *, *, #75, .F. ) ;
#210 = CARTESIAN_POINT ( 'NONE',  ( 0.000000000000000000, 0.000000000000000000, 7.000000000000000000 ) ) ;
#211 = ORIENTED_EDGE ( 'NONE', *, *, #232, .T. ) ;
#212 = CARTESIAN_POINT ( 'NONE',  ( -8.000000000000000000, 0.000000000000000000, 82.00000000000000000 ) ) ;
#213 = VERTEX_POINT ( 'NONE', #380 ) ;
#214 = ORIENTED_EDGE ( 'NONE', *, *, #227, .F. ) ;
#215 = APPROVAL_ROLE ( '' ) ;
#216 = DIRECTION ( 'NONE',  ( 0.000000000000000000, 0.000000000000000000, 1.000000000000000000 ) ) ;
#217 = VECTOR ( 'NONE', #35, 1000.000000000000000 ) ;
#218 = VERTEX_POINT ( 'NONE', #350 ) ;
#219 = COORDINATED_UNIVERSAL_TIME_OFFSET ( 1, 0, .AHEAD. ) ;
#220 = DIRECTION ( 'NONE',  ( 1.000000000000000000, 0.000000000000000000, 0.000000000000000000 ) ) ;
#221 = EDGE_LOOP ( 'NONE', ( #139, #357 ) ) ;
#222 = PERSON_AND_ORGANIZATION_ROLE ( 'creator' ) ;
#223 = VECTOR ( 'NONE', #344, 1000.000000000000000 ) ;
#224 = DATE_AND_TIME ( #132, #33 ) ;
#225 = CARTESIAN_POINT ( 'NONE',  ( 6.000000000000000888, 7.347880794884120722E-16, 0.000000000000000000 ) ) ;
#226 = DIRECTION ( 'NONE',  ( -0.000000000000000000, -0.000000000000000000, -1.000000000000000000 ) ) ;
#227 = EDGE_CURVE ( 'NONE', #69, #309, #86, .T. ) ;
#228 = CYLINDRICAL_SURFACE ( 'NONE', #3, 6.000000000000000888 ) ;
#229 = ORGANIZATION ( 'NEURÈENÝ', 'NEURÈENÝ', '' ) ;
#230 = CARTESIAN_POINT ( 'NONE',  ( -11.00000000000000000, 0.000000000000000000, 7.000000000000000000 ) ) ;
#231 = DIRECTION ( 'NONE',  ( -1.000000000000000000, 0.000000000000000000, 0.000000000000000000 ) ) ;
#232 = EDGE_CURVE ( 'NONE', #44, #114, #298, .T. ) ;
#233 = DIRECTION ( 'NONE',  ( -0.000000000000000000, -0.000000000000000000, -1.000000000000000000 ) ) ;
#234 = CIRCLE ( 'NONE', #206, 8.699999999999999289 ) ;
#235 = PRODUCT_DEFINITION_FORMATION_WITH_SPECIFIED_SOURCE ( 'LIBOVOLNÝ', '', #36, .NOT_KNOWN. ) ;
#236 = FACE_OUTER_BOUND ( 'NONE', #93, .T. ) ;
#237 = ADVANCED_FACE ( 'NONE', ( #204, #90 ), #291, .T. ) ;
#238 = CARTESIAN_POINT ( 'NONE',  ( 0.000000000000000000, 0.000000000000000000, 0.000000000000000000 ) ) ;
#239 = EDGE_LOOP ( 'NONE', ( #253, #104 ) ) ;
#240 = VERTEX_POINT ( 'NONE', #376 ) ;
#241 = AXIS2_PLACEMENT_3D ( 'NONE', #258, #233, #179 ) ;
#242 = DIRECTION ( 'NONE',  ( -1.000000000000000000, 0.000000000000000000, 0.000000000000000000 ) ) ;
#243 = CC_DESIGN_APPROVAL ( #272, ( #28 ) ) ;
#244 = ORIENTED_EDGE ( 'NONE', *, *, #56, .F. ) ;
#245 = PLANE ( 'NONE',  #13 ) ;
#246 = SECURITY_CLASSIFICATION_LEVEL ( 'unclassified' ) ;
#247 = AXIS2_PLACEMENT_3D ( 'NONE', #174, #264, #348 ) ;
#248 = FACE_OUTER_BOUND ( 'NONE', #326, .T. ) ;
#249 = APPROVAL_PERSON_ORGANIZATION ( #140, #175, #50 ) ;
#250 = MECHANICAL_CONTEXT ( 'NONE', #277, 'mechanical' ) ;
#251 = ADVANCED_FACE ( 'NONE', ( #116 ), #228, .F. ) ;
#252 = DIRECTION ( 'NONE',  ( 1.000000000000000000, 0.000000000000000000, 0.000000000000000000 ) ) ;
#253 = ORIENTED_EDGE ( 'NONE', *, *, #338, .T. ) ;
#254 = DATE_AND_TIME ( #190, #129 ) ;
#255 = VERTEX_POINT ( 'NONE', #54 ) ;
#256 = AXIS2_PLACEMENT_3D ( 'NONE', #266, #89, #51 ) ;
#257 = PERSON ( 'NEURÈENÝ', 'NEURÈENÝ', 'NEURÈENÝ', ('NEURÈENÝ'), ('NEURÈENÝ'), ('NEURÈENÝ') ) ;
#258 = CARTESIAN_POINT ( 'NONE',  ( 0.000000000000000000, 0.000000000000000000, 0.000000000000000000 ) ) ;
#259 = EDGE_CURVE ( 'NONE', #49, #255, #58, .T. ) ;
#260 = DIRECTION ( 'NONE',  ( 1.000000000000000000, 0.000000000000000000, -0.000000000000000000 ) ) ;
#261 = DIRECTION ( 'NONE',  ( 1.000000000000000000, 0.000000000000000000, 0.000000000000000000 ) ) ;
#262 = VECTOR ( 'NONE', #87, 1000.000000000000000 ) ;
#263 = AXIS2_PLACEMENT_3D ( 'NONE', #127, #66, #130 ) ;
#264 = DIRECTION ( 'NONE',  ( 0.000000000000000000, 0.000000000000000000, 1.000000000000000000 ) ) ;
#265 = EDGE_CURVE ( 'NONE', #96, #218, #366, .T. ) ;
#266 = CARTESIAN_POINT ( 'NONE',  ( 0.000000000000000000, 0.000000000000000000, 82.00000000000000000 ) ) ;
#267 = CARTESIAN_POINT ( 'NONE',  ( -8.699999999999999289, 1.065442715258197248E-15, 7.699999999999998401 ) ) ;
#268 = CIRCLE ( 'NONE', #189, 8.000000000000000000 ) ;
#269 = CIRCLE ( 'NONE', #147, 11.00000000000000000 ) ;
#270 = FACE_BOUND ( 'NONE', #221, .T. ) ;
#271 = ORIENTED_EDGE ( 'NONE', *, *, #5, .T. ) ;
#272 = APPROVAL ( #45, 'NEURÈENÝ' ) ;
#273 = CARTESIAN_POINT ( 'NONE',  ( 0.000000000000000000, 0.000000000000000000, 0.000000000000000000 ) ) ;
#274 = ORIENTED_EDGE ( 'NONE', *, *, #227, .T. ) ;
#275 = DIRECTION ( 'NONE',  ( -0.000000000000000000, -0.000000000000000000, -1.000000000000000000 ) ) ;
#276 = EDGE_LOOP ( 'NONE', ( #131, #331, #98, #160 ) ) ;
#277 = APPLICATION_CONTEXT ( 'configuration controlled 3d designs of mechanical parts and assemblies' ) ;
#278 = DIRECTION ( 'NONE',  ( 0.000000000000000000, 0.000000000000000000, 1.000000000000000000 ) ) ;
#279 = ORIENTED_EDGE ( 'NONE', *, *, #151, .F. ) ;
#280 = PERSON_AND_ORGANIZATION_ROLE ( 'design_owner' ) ;
#281 = APPROVAL_PERSON_ORGANIZATION ( #361, #272, #215 ) ;
#282 = APPLICATION_PROTOCOL_DEFINITION ( 'international standard', 'config_control_design', 1994, #372 ) ;
#283 = AXIS2_PLACEMENT_3D ( 'NONE', #141, #20, #337 ) ;
#284 = CC_DESIGN_APPROVAL ( #175, ( #235 ) ) ;
#285 = CYLINDRICAL_SURFACE ( 'NONE', #256, 8.000000000000000000 ) ;
#286 = CC_DESIGN_PERSON_AND_ORGANIZATION_ASSIGNMENT ( #162, #222, ( #196 ) ) ;
#287 = CARTESIAN_POINT ( 'NONE',  ( 0.000000000000000000, 0.000000000000000000, 0.000000000000000000 ) ) ;
#288 = AXIS2_PLACEMENT_3D ( 'NONE', #345, #59, #231 ) ;
#289 = AXIS2_PLACEMENT_3D ( 'NONE', #273, #278, #319 ) ;
#290 = CYLINDRICAL_SURFACE ( 'NONE', #288, 11.00000000000000000 ) ;
#291 = PLANE ( 'NONE',  #22 ) ;
#292 = CARTESIAN_POINT ( 'NONE',  ( 0.000000000000000000, 0.000000000000000000, 7.000000000000000000 ) ) ;
#293 = EDGE_CURVE ( 'NONE', #44, #49, #297, .T. ) ;
#294 = DIRECTION ( 'NONE',  ( 1.224646799147353207E-16, 1.000000000000000000, -0.000000000000000000 ) ) ;
#295 = APPLICATION_PROTOCOL_DEFINITION ( 'international standard', 'config_control_design', 1994, #277 ) ;
#296 = ADVANCED_FACE ( 'NONE', ( #64 ), #37, .T. ) ;
#297 = LINE ( 'NONE', #62, #217 ) ;
#298 = CIRCLE ( 'NONE', #70, 8.000000000000000000 ) ;
#299 = SHAPE_DEFINITION_REPRESENTATION ( #358, #83 ) ;
#300 = DIRECTION ( 'NONE',  ( 0.000000000000000000, 0.000000000000000000, 1.000000000000000000 ) ) ;
#301 = ADVANCED_FACE ( 'NONE', ( #270, #121 ), #158, .T. ) ;
#302 = VERTEX_POINT ( 'NONE', #38 ) ;
#303 = PERSON_AND_ORGANIZATION_ROLE ( 'design_supplier' ) ;
#304 = DIRECTION ( 'NONE',  ( 1.000000000000000000, 0.000000000000000000, 0.000000000000000000 ) ) ;
#305 = PERSON_AND_ORGANIZATION_ROLE ( 'classification_officer' ) ;
#306 = ORIENTED_EDGE ( 'NONE', *, *, #118, .F. ) ;
#307 = DATE_TIME_ROLE ( 'creation_date' ) ;
#308 = CC_DESIGN_PERSON_AND_ORGANIZATION_ASSIGNMENT ( #166, #81, ( #235 ) ) ;
#309 = VERTEX_POINT ( 'NONE', #181 ) ;
#310 = FACE_OUTER_BOUND ( 'NONE', #276, .T. ) ;
#311 = VECTOR ( 'NONE', #226, 1000.000000000000000 ) ;
#312 = CIRCLE ( 'NONE', #241, 6.000000000000000888 ) ;
#313 = AXIS2_PLACEMENT_3D ( 'NONE', #238, #352, #365 ) ;
#314 = LINE ( 'NONE', #85, #311 ) ;
#315 = ADVANCED_FACE ( 'NONE', ( #159, #150 ), #245, .F. ) ;
#316 = DIRECTION ( 'NONE',  ( -1.000000000000000000, 0.000000000000000000, 0.000000000000000000 ) ) ;
#317 = DIRECTION ( 'NONE',  ( -0.000000000000000000, -0.000000000000000000, -1.000000000000000000 ) ) ;
#318 = CC_DESIGN_SECURITY_CLASSIFICATION ( #28, ( #235 ) ) ;
#319 = DIRECTION ( 'NONE',  ( 1.000000000000000000, 0.000000000000000000, 0.000000000000000000 ) ) ;
#320 = EDGE_CURVE ( 'NONE', #114, #96, #208, .T. ) ;
#321 = ORIENTED_EDGE ( 'NONE', *, *, #371, .T. ) ;
#322 = MANIFOLD_SOLID_BREP ( 'Odebrat vysunutím3', #351 ) ;
#323 = ORIENTED_EDGE ( 'NONE', *, *, #259, .T. ) ;
#324 = VECTOR ( 'NONE', #26, 1000.000000000000000 ) ;
#325 = CYLINDRICAL_SURFACE ( 'NONE', #161, 8.000000000000000000 ) ;
#326 = EDGE_LOOP ( 'NONE', ( #15, #42, #274, #209 ) ) ;
#327 = ADVANCED_FACE ( 'NONE', ( #236 ), #325, .T. ) ;
#328 =( LENGTH_UNIT ( ) NAMED_UNIT ( * ) SI_UNIT ( .MILLI., .METRE. ) );
#329 = ORIENTED_EDGE ( 'NONE', *, *, #165, .F. ) ;
#330 = DIRECTION ( 'NONE',  ( 1.000000000000000000, 0.000000000000000000, 0.000000000000000000 ) ) ;
#331 = ORIENTED_EDGE ( 'NONE', *, *, #151, .T. ) ;
#332 = TOROIDAL_SURFACE ( 'NONE', #356, 8.699999999999999289, 0.6999999999999999556 ) ;
#333 = COORDINATED_UNIVERSAL_TIME_OFFSET ( 1, 0, .AHEAD. ) ;
#334 = AXIS2_PLACEMENT_3D ( 'NONE', #292, #94, #353 ) ;
#335 = ORIENTED_EDGE ( 'NONE', *, *, #363, .F. ) ;
#336 = DATE_AND_TIME ( #198, #137 ) ;
#337 = DIRECTION ( 'NONE',  ( -1.000000000000000000, 0.000000000000000000, 0.000000000000000000 ) ) ;
#338 = EDGE_CURVE ( 'NONE', #16, #213, #269, .T. ) ;
#339 = ORIENTED_EDGE ( 'NONE', *, *, #157, .F. ) ;
#340 = DIRECTION ( 'NONE',  ( 1.000000000000000000, 0.000000000000000000, 0.000000000000000000 ) ) ;
#341 = CARTESIAN_POINT ( 'NONE',  ( 0.000000000000000000, 0.000000000000000000, 82.00000000000000000 ) ) ;
#342 = PRODUCT_RELATED_PRODUCT_CATEGORY ( 'detail', '', ( #36 ) ) ;
#343 = CALENDAR_DATE ( 2022, 8, 7 ) ;
#344 = DIRECTION ( 'NONE',  ( 0.000000000000000000, 0.000000000000000000, -1.000000000000000000 ) ) ;
#345 = CARTESIAN_POINT ( 'NONE',  ( 0.000000000000000000, 0.000000000000000000, 7.000000000000000000 ) ) ;
#346 = CARTESIAN_POINT ( 'NONE',  ( 0.000000000000000000, 0.000000000000000000, 82.00000000000000000 ) ) ;
#347 = AXIS2_PLACEMENT_3D ( 'NONE', #21, #300, #252 ) ;
#348 = DIRECTION ( 'NONE',  ( 1.000000000000000000, 0.000000000000000000, 0.000000000000000000 ) ) ;
#349 = DIRECTION ( 'NONE',  ( 0.000000000000000000, 0.000000000000000000, 1.000000000000000000 ) ) ;
#350 = CARTESIAN_POINT ( 'NONE',  ( -8.699999999999999289, 1.065442715258197248E-15, 6.999999999999999112 ) ) ;
#351 = CLOSED_SHELL ( 'NONE', ( #53, #47, #327, #84, #296, #301, #315, #180, #237, #30, #251 ) ) ;
#352 = DIRECTION ( 'NONE',  ( 0.000000000000000000, 0.000000000000000000, 1.000000000000000000 ) ) ;
#353 = DIRECTION ( 'NONE',  ( 1.000000000000000000, 0.000000000000000000, -0.000000000000000000 ) ) ;
#354 = ORIENTED_EDGE ( 'NONE', *, *, #75, .T. ) ;
#355 = CC_DESIGN_PERSON_AND_ORGANIZATION_ASSIGNMENT ( #79, #280, ( #36 ) ) ;
#356 = AXIS2_PLACEMENT_3D ( 'NONE', #82, #111, #368 ) ;
#357 = ORIENTED_EDGE ( 'NONE', *, *, #157, .T. ) ;
#358 = PRODUCT_DEFINITION_SHAPE ( 'NONE', 'NONE',  #196 ) ;
#359 = CARTESIAN_POINT ( 'NONE',  ( 0.000000000000000000, 0.000000000000000000, 82.00000000000000000 ) ) ;
#360 = EDGE_LOOP ( 'NONE', ( #108, #188, #323, #339 ) ) ;
#361 = PERSON_AND_ORGANIZATION ( #257, #229 ) ;
#362 = EDGE_LOOP ( 'NONE', ( #126, #214 ) ) ;
#363 = EDGE_CURVE ( 'NONE', #240, #186, #52, .T. ) ;
#364 = APPROVAL_PERSON_ORGANIZATION ( #171, #124, #102 ) ;
#365 = DIRECTION ( 'NONE',  ( 1.000000000000000000, 0.000000000000000000, 0.000000000000000000 ) ) ;
#366 = CIRCLE ( 'NONE', #78, 0.6999999999999992895 ) ;
#367 = EDGE_LOOP ( 'NONE', ( #335, #48 ) ) ;
#368 = DIRECTION ( 'NONE',  ( 1.000000000000000000, 0.000000000000000000, 0.000000000000000000 ) ) ;
#369 = ORIENTED_EDGE ( 'NONE', *, *, #107, .T. ) ;
#370 = DIRECTION ( 'NONE',  ( 0.000000000000000000, 0.000000000000000000, 1.000000000000000000 ) ) ;
#371 = EDGE_CURVE ( 'NONE', #163, #302, #99, .T. ) ;
#372 = APPLICATION_CONTEXT ( 'configuration controlled 3d designs of mechanical parts and assemblies' ) ;
#373 = COORDINATED_UNIVERSAL_TIME_OFFSET ( 1, 0, .AHEAD. ) ;
#374 = AXIS2_PLACEMENT_3D ( 'NONE', #115, #31, #149 ) ;
#375 = DIRECTION ( 'NONE',  ( 0.000000000000000000, 0.000000000000000000, 1.000000000000000000 ) ) ;
#376 = CARTESIAN_POINT ( 'NONE',  ( -11.00000000000000000, 0.000000000000000000, 0.000000000000000000 ) ) ;
#377 = CARTESIAN_POINT ( 'NONE',  ( 0.000000000000000000, 0.000000000000000000, 7.699999999999998401 ) ) ;
#378 = CIRCLE ( 'NONE', #32, 8.000000000000000000 ) ;
#379 = VECTOR ( 'NONE', #183, 1000.000000000000000 ) ;
#380 = CARTESIAN_POINT ( 'NONE',  ( 11.00000000000000000, 1.347111479062088405E-15, 7.000000000000000000 ) ) ;
#381 = CARTESIAN_POINT ( 'NONE',  ( 11.00000000000000000, 1.347111479062088405E-15, 0.000000000000000000 ) ) ;
ENDSEC;
END-ISO-10303-21;
