ISO-10303-21;
HEADER;
FILE_DESCRIPTION (( 'STEP AP203' ),
    '1' );
FILE_NAME ('8b02.STEP',
    '2022-07-08T14:42:50',
    ( '' ),
    ( '' ),
    'SwSTEP 2.0',
    'SolidWorks 2019',
    '' );
FILE_SCHEMA (( 'CONFIG_CONTROL_DESIGN' ));
ENDSEC;

DATA;
#1 = EDGE_CURVE ( 'NONE', #40, #83, #192, .T. ) ;
#2 = VERTEX_POINT ( 'NONE', #328 ) ;
#3 = LOCAL_TIME ( 16, 42, 50.00000000000000000, #38 ) ;
#4 = PRODUCT ( '8b02', '8b02', '', ( #265 ) ) ;
#5 = VERTEX_POINT ( 'NONE', #27 ) ;
#6 = EDGE_CURVE ( 'NONE', #264, #81, #177, .T. ) ;
#7 = FACE_BOUND ( 'NONE', #357, .T. ) ;
#8 = VERTEX_POINT ( 'NONE', #175 ) ;
#9 = LINE ( 'NONE', #11, #211 ) ;
#10 = CIRCLE ( 'NONE', #110, 0.5000000000000004441 ) ;
#11 = CARTESIAN_POINT ( 'NONE',  ( 3.250000000000000444, 3.980102097228898231E-16, 182.0000000000000000 ) ) ;
#12 = APPROVAL_STATUS ( 'not_yet_approved' ) ;
#13 = DIRECTION ( 'NONE',  ( 1.000000000000000000, 0.000000000000000000, 0.000000000000000000 ) ) ;
#14 = CARTESIAN_POINT ( 'NONE',  ( 0.000000000000000000, 0.000000000000000000, 7.000000000000000000 ) ) ;
#15 = ORIENTED_EDGE ( 'NONE', *, *, #219, .F. ) ;
#16 = DIRECTION ( 'NONE',  ( 0.000000000000000000, 0.000000000000000000, 1.000000000000000000 ) ) ;
#17 = ORIENTED_EDGE ( 'NONE', *, *, #287, .F. ) ;
#18 = EDGE_CURVE ( 'NONE', #5, #2, #93, .T. ) ;
#19 = CALENDAR_DATE ( 2022, 8, 7 ) ;
#20 = CYLINDRICAL_SURFACE ( 'NONE', #378, 3.250000000000000444 ) ;
#21 = ORIENTED_EDGE ( 'NONE', *, *, #171, .T. ) ;
#22 = ORIENTED_EDGE ( 'NONE', *, *, #160, .F. ) ;
#23 = AXIS2_PLACEMENT_3D ( 'NONE', #98, #361, #218 ) ;
#24 = EDGE_CURVE ( 'NONE', #5, #83, #232, .T. ) ;
#25 = DIRECTION ( 'NONE',  ( 1.000000000000000000, 0.000000000000000000, 0.000000000000000000 ) ) ;
#26 = DIRECTION ( 'NONE',  ( -1.000000000000000000, 1.224646799147351482E-16, 0.000000000000000000 ) ) ;
#27 = CARTESIAN_POINT ( 'NONE',  ( 10.00000000000000000, 1.224646799147353256E-15, 7.000000000000000000 ) ) ;
#28 = PRODUCT_DEFINITION_FORMATION_WITH_SPECIFIED_SOURCE ( 'LIBOVOLNÝ', '', #4, .NOT_KNOWN. ) ;
#29 = CARTESIAN_POINT ( 'NONE',  ( 6.000000000000000888, 7.347880794884120722E-16, 182.0000000000000000 ) ) ;
#30 = DIRECTION ( 'NONE',  ( -0.000000000000000000, -0.000000000000000000, -1.000000000000000000 ) ) ;
#31 = APPROVAL ( #226, 'NEURÈENÝ' ) ;
#32 = DIRECTION ( 'NONE',  ( -0.000000000000000000, -0.000000000000000000, -1.000000000000000000 ) ) ;
#33 = EDGE_CURVE ( 'NONE', #286, #8, #10, .T. ) ;
#34 = AXIS2_PLACEMENT_3D ( 'NONE', #342, #189, #313 ) ;
#35 = DIRECTION ( 'NONE',  ( 1.000000000000000000, 0.000000000000000000, -0.000000000000000000 ) ) ;
#36 =( NAMED_UNIT ( * ) PLANE_ANGLE_UNIT ( ) SI_UNIT ( $, .RADIAN. ) );
#37 = CIRCLE ( 'NONE', #58, 3.250000000000000444 ) ;
#38 = COORDINATED_UNIVERSAL_TIME_OFFSET ( 1, 0, .AHEAD. ) ;
#39 = DIRECTION ( 'NONE',  ( -0.000000000000000000, -0.000000000000000000, -1.000000000000000000 ) ) ;
#40 = VERTEX_POINT ( 'NONE', #178 ) ;
#41 = ORIENTED_EDGE ( 'NONE', *, *, #271, .T. ) ;
#42 = CALENDAR_DATE ( 2022, 8, 7 ) ;
#43 = PLANE ( 'NONE',  #123 ) ;
#44 = CC_DESIGN_DATE_AND_TIME_ASSIGNMENT ( #373, #363, ( #80 ) ) ;
#45 = ORIENTED_EDGE ( 'NONE', *, *, #338, .T. ) ;
#46 = PERSON_AND_ORGANIZATION ( #132, #104 ) ;
#47 = DIRECTION ( 'NONE',  ( -1.000000000000000000, 0.000000000000000000, 0.000000000000000000 ) ) ;
#48 = EDGE_LOOP ( 'NONE', ( #250, #247, #350, #185 ) ) ;
#49 = EDGE_CURVE ( 'NONE', #196, #73, #301, .T. ) ;
#50 = ORIENTED_EDGE ( 'NONE', *, *, #287, .T. ) ;
#51 = CARTESIAN_POINT ( 'NONE',  ( 10.00000000000000000, 1.224646799147353256E-15, 0.000000000000000000 ) ) ;
#52 = CIRCLE ( 'NONE', #356, 3.250000000000000444 ) ;
#53 = APPROVAL_STATUS ( 'not_yet_approved' ) ;
#54 = PLANE ( 'NONE',  #67 ) ;
#55 = CARTESIAN_POINT ( 'NONE',  ( 6.000000000000000888, 7.347880794884120722E-16, 7.500000000000007105 ) ) ;
#56 = EDGE_CURVE ( 'NONE', #146, #81, #294, .T. ) ;
#57 = DIRECTION ( 'NONE',  ( 0.000000000000000000, 0.000000000000000000, 1.000000000000000000 ) ) ;
#58 = AXIS2_PLACEMENT_3D ( 'NONE', #224, #344, #69 ) ;
#59 = EDGE_CURVE ( 'NONE', #70, #196, #327, .T. ) ;
#60 = DIRECTION ( 'NONE',  ( 0.000000000000000000, 0.000000000000000000, 1.000000000000000000 ) ) ;
#61 = CARTESIAN_POINT ( 'NONE',  ( 0.000000000000000000, 0.000000000000000000, 7.000000000000000000 ) ) ;
#62 = ORIENTED_EDGE ( 'NONE', *, *, #6, .F. ) ;
#63 = CARTESIAN_POINT ( 'NONE',  ( 0.000000000000000000, 0.000000000000000000, 182.0000000000000000 ) ) ;
#64 = EDGE_LOOP ( 'NONE', ( #41, #155 ) ) ;
#65 = LOCAL_TIME ( 16, 42, 50.00000000000000000, #263 ) ;
#66 = FACE_OUTER_BOUND ( 'NONE', #372, .T. ) ;
#67 = AXIS2_PLACEMENT_3D ( 'NONE', #305, #60, #35 ) ;
#68 = PERSON_AND_ORGANIZATION_ROLE ( 'classification_officer' ) ;
#69 = DIRECTION ( 'NONE',  ( 1.000000000000000000, 0.000000000000000000, 0.000000000000000000 ) ) ;
#70 = VERTEX_POINT ( 'NONE', #148 ) ;
#71 = LOCAL_TIME ( 16, 42, 50.00000000000000000, #190 ) ;
#72 = DIRECTION ( 'NONE',  ( 0.000000000000000000, 0.000000000000000000, -1.000000000000000000 ) ) ;
#73 = VERTEX_POINT ( 'NONE', #55 ) ;
#74 = EDGE_CURVE ( 'NONE', #8, #187, #207, .T. ) ;
#75 = DIRECTION ( 'NONE',  ( 1.000000000000000000, 0.000000000000000000, 0.000000000000000000 ) ) ;
#76 = ORIENTED_EDGE ( 'NONE', *, *, #338, .F. ) ;
#77 = AXIS2_PLACEMENT_3D ( 'NONE', #379, #57, #173 ) ;
#78 = PERSON_AND_ORGANIZATION_ROLE ( 'design_supplier' ) ;
#79 = CARTESIAN_POINT ( 'NONE',  ( 0.000000000000000000, 0.000000000000000000, 182.0000000000000000 ) ) ;
#80 = SECURITY_CLASSIFICATION ( '', '', #311 ) ;
#81 = VERTEX_POINT ( 'NONE', #290 ) ;
#82 = DIRECTION ( 'NONE',  ( -0.000000000000000000, -0.000000000000000000, -1.000000000000000000 ) ) ;
#83 = VERTEX_POINT ( 'NONE', #51 ) ;
#84 = VECTOR ( 'NONE', #347, 1000.000000000000000 ) ;
#85 = CARTESIAN_POINT ( 'NONE',  ( 0.000000000000000000, 0.000000000000000000, 182.0000000000000000 ) ) ;
#86 = PRODUCT_RELATED_PRODUCT_CATEGORY ( 'detail', '', ( #4 ) ) ;
#87 = DIRECTION ( 'NONE',  ( 0.000000000000000000, 0.000000000000000000, -1.000000000000000000 ) ) ;
#88 = ORIENTED_EDGE ( 'NONE', *, *, #157, .F. ) ;
#89 = CARTESIAN_POINT ( 'NONE',  ( -3.250000000000000444, 0.000000000000000000, 182.0000000000000000 ) ) ;
#90 = CIRCLE ( 'NONE', #186, 6.000000000000000888 ) ;
#91 = DIRECTION ( 'NONE',  ( -0.000000000000000000, -0.000000000000000000, -1.000000000000000000 ) ) ;
#92 = ORIENTED_EDGE ( 'NONE', *, *, #59, .F. ) ;
#93 = CIRCLE ( 'NONE', #77, 10.00000000000000000 ) ;
#94 = ORIENTED_EDGE ( 'NONE', *, *, #219, .T. ) ;
#95 = DIRECTION ( 'NONE',  ( 0.000000000000000000, -1.000000000000000000, 0.000000000000000000 ) ) ;
#96 = AXIS2_PLACEMENT_3D ( 'NONE', #134, #16, #248 ) ;
#97 = CC_DESIGN_PERSON_AND_ORGANIZATION_ASSIGNMENT ( #194, #68, ( #80 ) ) ;
#98 = CARTESIAN_POINT ( 'NONE',  ( 0.000000000000000000, 0.000000000000000000, 7.500000000000007105 ) ) ;
#99 = CARTESIAN_POINT ( 'NONE',  ( -6.000000000000000888, 0.000000000000000000, 7.500000000000007105 ) ) ;
#100 = ORIENTED_EDGE ( 'NONE', *, *, #298, .F. ) ;
#101 = CALENDAR_DATE ( 2022, 8, 7 ) ;
#102 = DIRECTION ( 'NONE',  ( -1.000000000000000000, 0.000000000000000000, 0.000000000000000000 ) ) ;
#103 = ORIENTED_EDGE ( 'NONE', *, *, #1, .F. ) ;
#104 = ORGANIZATION ( 'NEURÈENÝ', 'NEURÈENÝ', '' ) ;
#105 = PERSON_AND_ORGANIZATION_ROLE ( 'creator' ) ;
#106 = DIRECTION ( 'NONE',  ( 0.000000000000000000, 0.000000000000000000, 1.000000000000000000 ) ) ;
#107 = EDGE_LOOP ( 'NONE', ( #337, #198 ) ) ;
#108 = PERSON_AND_ORGANIZATION_ROLE ( 'creator' ) ;
#109 = ORIENTED_EDGE ( 'NONE', *, *, #1, .T. ) ;
#110 = AXIS2_PLACEMENT_3D ( 'NONE', #381, #234, #26 ) ;
#111 = FACE_OUTER_BOUND ( 'NONE', #162, .T. ) ;
#112 = ORIENTED_EDGE ( 'NONE', *, *, #49, .T. ) ;
#113 = APPLICATION_PROTOCOL_DEFINITION ( 'international standard', 'config_control_design', 1994, #272 ) ;
#114 = CARTESIAN_POINT ( 'NONE',  ( 0.000000000000000000, 0.000000000000000000, 7.000000000000000000 ) ) ;
#115 = PERSON_AND_ORGANIZATION ( #132, #104 ) ;
#116 = ADVANCED_FACE ( 'NONE', ( #353, #204 ), #54, .T. ) ;
#117 = CLOSED_SHELL ( 'NONE', ( #279, #325, #202, #210, #174, #312, #188, #135, #116, #199, #295 ) ) ;
#118 = CC_DESIGN_PERSON_AND_ORGANIZATION_ASSIGNMENT ( #221, #78, ( #28 ) ) ;
#119 = DIRECTION ( 'NONE',  ( -0.000000000000000000, -0.000000000000000000, -1.000000000000000000 ) ) ;
#120 = FACE_OUTER_BOUND ( 'NONE', #314, .T. ) ;
#121 = CIRCLE ( 'NONE', #376, 6.500000000000000888 ) ;
#122 = CYLINDRICAL_SURFACE ( 'NONE', #129, 6.000000000000000888 ) ;
#123 = AXIS2_PLACEMENT_3D ( 'NONE', #161, #280, #164 ) ;
#124 = CARTESIAN_POINT ( 'NONE',  ( 0.000000000000000000, 0.000000000000000000, 7.000000000000000000 ) ) ;
#125 = EDGE_LOOP ( 'NONE', ( #88, #275, #288, #359 ) ) ;
#126 = CARTESIAN_POINT ( 'NONE',  ( 0.000000000000000000, 0.000000000000000000, 0.000000000000000000 ) ) ;
#127 = FACE_OUTER_BOUND ( 'NONE', #258, .T. ) ;
#128 = APPROVAL_PERSON_ORGANIZATION ( #167, #201, #368 ) ;
#129 = AXIS2_PLACEMENT_3D ( 'NONE', #63, #181, #364 ) ;
#130 = CALENDAR_DATE ( 2022, 8, 7 ) ;
#131 = EDGE_LOOP ( 'NONE', ( #15, #228 ) ) ;
#132 = PERSON ( 'NEURÈENÝ', 'NEURÈENÝ', 'NEURÈENÝ', ('NEURÈENÝ'), ('NEURÈENÝ'), ('NEURÈENÝ') ) ;
#133 = COORDINATED_UNIVERSAL_TIME_OFFSET ( 1, 0, .AHEAD. ) ;
#134 = CARTESIAN_POINT ( 'NONE',  ( 0.000000000000000000, 0.000000000000000000, 7.500000000000007105 ) ) ;
#135 = ADVANCED_FACE ( 'NONE', ( #303 ), #244, .T. ) ;
#136 = AXIS2_PLACEMENT_3D ( 'NONE', #323, #208, #292 ) ;
#137 = CARTESIAN_POINT ( 'NONE',  ( 3.250000000000000444, 3.980102097228898231E-16, 0.000000000000000000 ) ) ;
#138 = EDGE_LOOP ( 'NONE', ( #94, #144, #321, #297 ) ) ;
#139 = CARTESIAN_POINT ( 'NONE',  ( 0.000000000000000000, 0.000000000000000000, 182.0000000000000000 ) ) ;
#140 = FACE_OUTER_BOUND ( 'NONE', #125, .T. ) ;
#141 = ORIENTED_EDGE ( 'NONE', *, *, #74, .F. ) ;
#142 = CARTESIAN_POINT ( 'NONE',  ( 0.000000000000000000, 0.000000000000000000, 0.000000000000000000 ) ) ;
#143 = CIRCLE ( 'NONE', #154, 6.000000000000000888 ) ;
#144 = ORIENTED_EDGE ( 'NONE', *, *, #157, .T. ) ;
#145 = APPROVAL_ROLE ( '' ) ;
#146 = VERTEX_POINT ( 'NONE', #89 ) ;
#147 = EDGE_CURVE ( 'NONE', #187, #8, #121, .T. ) ;
#148 = CARTESIAN_POINT ( 'NONE',  ( -6.000000000000000888, 0.000000000000000000, 182.0000000000000000 ) ) ;
#149 = CIRCLE ( 'NONE', #371, 3.250000000000000444 ) ;
#150 = DIRECTION ( 'NONE',  ( -0.000000000000000000, -0.000000000000000000, -1.000000000000000000 ) ) ;
#151 = CARTESIAN_POINT ( 'NONE',  ( 0.000000000000000000, 0.000000000000000000, 7.500000000000007105 ) ) ;
#152 = CYLINDRICAL_SURFACE ( 'NONE', #320, 10.00000000000000000 ) ;
#153 = DIRECTION ( 'NONE',  ( -1.000000000000000000, 0.000000000000000000, 0.000000000000000000 ) ) ;
#154 = AXIS2_PLACEMENT_3D ( 'NONE', #151, #237, #239 ) ;
#155 = ORIENTED_EDGE ( 'NONE', *, *, #18, .T. ) ;
#156 = DIRECTION ( 'NONE',  ( 1.000000000000000000, 0.000000000000000000, 0.000000000000000000 ) ) ;
#157 = EDGE_CURVE ( 'NONE', #231, #264, #9, .T. ) ;
#158 = PERSON_AND_ORGANIZATION ( #132, #104 ) ;
#159 = AXIS2_PLACEMENT_3D ( 'NONE', #61, #32, #153 ) ;
#160 = EDGE_CURVE ( 'NONE', #196, #70, #90, .T. ) ;
#161 = CARTESIAN_POINT ( 'NONE',  ( 0.000000000000000000, 0.000000000000000000, 7.000000000000000000 ) ) ;
#162 = EDGE_LOOP ( 'NONE', ( #76, #362, #225, #242 ) ) ;
#163 = DATE_AND_TIME ( #293, #65 ) ;
#164 = DIRECTION ( 'NONE',  ( 1.000000000000000000, 0.000000000000000000, -0.000000000000000000 ) ) ;
#165 = DIRECTION ( 'NONE',  ( 1.000000000000000000, 0.000000000000000000, 0.000000000000000000 ) ) ;
#166 = AXIS2_PLACEMENT_3D ( 'NONE', #230, #374, #13 ) ;
#167 = PERSON_AND_ORGANIZATION ( #132, #104 ) ;
#168 = CARTESIAN_POINT ( 'NONE',  ( 3.250000000000000444, 3.980102097228898231E-16, 182.0000000000000000 ) ) ;
#169 = EDGE_LOOP ( 'NONE', ( #172, #92, #50, #45 ) ) ;
#170 = CC_DESIGN_PERSON_AND_ORGANIZATION_ASSIGNMENT ( #46, #105, ( #28 ) ) ;
#171 = EDGE_CURVE ( 'NONE', #73, #187, #300, .T. ) ;
#172 = ORIENTED_EDGE ( 'NONE', *, *, #49, .F. ) ;
#173 = DIRECTION ( 'NONE',  ( 1.000000000000000000, 0.000000000000000000, 0.000000000000000000 ) ) ;
#174 = ADVANCED_FACE ( 'NONE', ( #127 ), #152, .T. ) ;
#175 = CARTESIAN_POINT ( 'NONE',  ( -6.500000000000000888, 7.960204194457796463E-16, 7.000000000000002665 ) ) ;
#176 = DIRECTION ( 'NONE',  ( 0.000000000000000000, 0.000000000000000000, 1.000000000000000000 ) ) ;
#177 = CIRCLE ( 'NONE', #249, 3.250000000000000444 ) ;
#178 = CARTESIAN_POINT ( 'NONE',  ( -10.00000000000000000, 0.000000000000000000, 0.000000000000000000 ) ) ;
#179 = DIRECTION ( 'NONE',  ( 0.000000000000000000, 0.000000000000000000, -1.000000000000000000 ) ) ;
#180 = PRODUCT_DEFINITION ( 'NEZNÁMÝ', '', #28, #245 ) ;
#181 = DIRECTION ( 'NONE',  ( -0.000000000000000000, -0.000000000000000000, -1.000000000000000000 ) ) ;
#182 = ORIENTED_EDGE ( 'NONE', *, *, #354, .T. ) ;
#183 = CARTESIAN_POINT ( 'NONE',  ( 6.500000000000000888, 0.000000000000000000, 7.500000000000007105 ) ) ;
#184 = DIRECTION ( 'NONE',  ( -0.000000000000000000, -0.000000000000000000, -1.000000000000000000 ) ) ;
#185 = ORIENTED_EDGE ( 'NONE', *, *, #354, .F. ) ;
#186 = AXIS2_PLACEMENT_3D ( 'NONE', #274, #276, #156 ) ;
#187 = VERTEX_POINT ( 'NONE', #270 ) ;
#188 = ADVANCED_FACE ( 'NONE', ( #7, #331 ), #243, .F. ) ;
#189 = DIRECTION ( 'NONE',  ( 0.000000000000000000, 0.000000000000000000, 1.000000000000000000 ) ) ;
#190 = COORDINATED_UNIVERSAL_TIME_OFFSET ( 1, 0, .AHEAD. ) ;
#191 = LINE ( 'NONE', #319, #260 ) ;
#192 = CIRCLE ( 'NONE', #136, 10.00000000000000000 ) ;
#193 = UNCERTAINTY_MEASURE_WITH_UNIT (LENGTH_MEASURE( 1.000000000000000082E-05 ), #251, 'distance_accuracy_value', 'NONE');
#194 = PERSON_AND_ORGANIZATION ( #132, #104 ) ;
#195 = DIRECTION ( 'NONE',  ( 1.000000000000000000, 0.000000000000000000, 0.000000000000000000 ) ) ;
#196 = VERTEX_POINT ( 'NONE', #29 ) ;
#197 = MANIFOLD_SOLID_BREP ( 'Odebrat vysunutím3', #117 ) ;
#198 = ORIENTED_EDGE ( 'NONE', *, *, #160, .T. ) ;
#199 = ADVANCED_FACE ( 'NONE', ( #66 ), #223, .F. ) ;
#200 = DIRECTION ( 'NONE',  ( 1.000000000000000000, 0.000000000000000000, 0.000000000000000000 ) ) ;
#201 = APPROVAL ( #12, 'NEURÈENÝ' ) ;
#202 = ADVANCED_FACE ( 'NONE', ( #120 ), #122, .T. ) ;
#203 = AXIS2_PLACEMENT_3D ( 'NONE', #126, #333, #214 ) ;
#204 = FACE_OUTER_BOUND ( 'NONE', #107, .T. ) ;
#205 =( NAMED_UNIT ( * ) SI_UNIT ( $, .STERADIAN. ) SOLID_ANGLE_UNIT ( ) );
#206 = DIRECTION ( 'NONE',  ( 1.000000000000000000, 0.000000000000000000, 0.000000000000000000 ) ) ;
#207 = CIRCLE ( 'NONE', #259, 6.500000000000000888 ) ;
#208 = DIRECTION ( 'NONE',  ( 0.000000000000000000, 0.000000000000000000, 1.000000000000000000 ) ) ;
#209 = EDGE_CURVE ( 'NONE', #73, #286, #143, .T. ) ;
#210 = ADVANCED_FACE ( 'NONE', ( #268 ), #330, .T. ) ;
#211 = VECTOR ( 'NONE', #329, 1000.000000000000000 ) ;
#212 = CIRCLE ( 'NONE', #96, 6.000000000000000888 ) ;
#213 = CARTESIAN_POINT ( 'NONE',  ( 0.000000000000000000, 0.000000000000000000, 7.000000000000000000 ) ) ;
#214 = DIRECTION ( 'NONE',  ( 1.000000000000000000, 0.000000000000000000, -0.000000000000000000 ) ) ;
#215 = DIRECTION ( 'NONE',  ( 1.000000000000000000, 0.000000000000000000, 0.000000000000000000 ) ) ;
#216 = CC_DESIGN_APPROVAL ( #201, ( #80 ) ) ;
#217 = EDGE_LOOP ( 'NONE', ( #365, #256 ) ) ;
#218 = DIRECTION ( 'NONE',  ( 1.000000000000000000, 0.000000000000000000, 0.000000000000000000 ) ) ;
#219 = EDGE_CURVE ( 'NONE', #146, #231, #149, .T. ) ;
#220 = APPROVAL_DATE_TIME ( #346, #31 ) ;
#221 = PERSON_AND_ORGANIZATION ( #132, #104 ) ;
#222 = FACE_BOUND ( 'NONE', #217, .T. ) ;
#223 = TOROIDAL_SURFACE ( 'NONE', #23, 6.500000000000000888, 0.5000000000000000000 ) ;
#224 = CARTESIAN_POINT ( 'NONE',  ( 0.000000000000000000, 0.000000000000000000, 182.0000000000000000 ) ) ;
#225 = ORIENTED_EDGE ( 'NONE', *, *, #147, .F. ) ;
#226 = APPROVAL_STATUS ( 'not_yet_approved' ) ;
#227 = CARTESIAN_POINT ( 'NONE',  ( -10.00000000000000000, 0.000000000000000000, 7.000000000000000000 ) ) ;
#228 = ORIENTED_EDGE ( 'NONE', *, *, #253, .F. ) ;
#229 = VECTOR ( 'NONE', #119, 1000.000000000000000 ) ;
#230 = CARTESIAN_POINT ( 'NONE',  ( 0.000000000000000000, 0.000000000000000000, 7.500000000000007105 ) ) ;
#231 = VERTEX_POINT ( 'NONE', #168 ) ;
#232 = LINE ( 'NONE', #322, #229 ) ;
#233 = APPROVAL_PERSON_ORGANIZATION ( #115, #380, #145 ) ;
#234 = DIRECTION ( 'NONE',  ( 1.224646799147353207E-16, 1.000000000000000000, -0.000000000000000000 ) ) ;
#235 = CC_DESIGN_PERSON_AND_ORGANIZATION_ASSIGNMENT ( #351, #324, ( #4 ) ) ;
#236 = AXIS2_PLACEMENT_3D ( 'NONE', #85, #176, #206 ) ;
#237 = DIRECTION ( 'NONE',  ( 0.000000000000000000, 0.000000000000000000, 1.000000000000000000 ) ) ;
#238 = CC_DESIGN_APPROVAL ( #380, ( #180 ) ) ;
#239 = DIRECTION ( 'NONE',  ( 1.000000000000000000, 0.000000000000000000, 0.000000000000000000 ) ) ;
#240 = PRODUCT_DEFINITION_SHAPE ( 'NONE', 'NONE',  #180 ) ;
#241 = CC_DESIGN_PERSON_AND_ORGANIZATION_ASSIGNMENT ( #283, #108, ( #180 ) ) ;
#242 = ORIENTED_EDGE ( 'NONE', *, *, #171, .F. ) ;
#243 = PLANE ( 'NONE',  #203 ) ;
#244 = CYLINDRICAL_SURFACE ( 'NONE', #335, 6.000000000000000888 ) ;
#245 = DESIGN_CONTEXT ( 'detailed design', #369, 'design' ) ;
#246 = APPROVAL_PERSON_ORGANIZATION ( #158, #31, #366 ) ;
#247 = ORIENTED_EDGE ( 'NONE', *, *, #24, .T. ) ;
#248 = DIRECTION ( 'NONE',  ( 1.000000000000000000, 0.000000000000000000, 0.000000000000000000 ) ) ;
#249 = AXIS2_PLACEMENT_3D ( 'NONE', #262, #82, #266 ) ;
#250 = ORIENTED_EDGE ( 'NONE', *, *, #18, .F. ) ;
#251 =( LENGTH_UNIT ( ) NAMED_UNIT ( * ) SI_UNIT ( .MILLI., .METRE. ) );
#252 = ORIENTED_EDGE ( 'NONE', *, *, #209, .T. ) ;
#253 = EDGE_CURVE ( 'NONE', #231, #146, #37, .T. ) ;
#254 = APPROVAL_DATE_TIME ( #163, #380 ) ;
#255 = LINE ( 'NONE', #227, #84 ) ;
#256 = ORIENTED_EDGE ( 'NONE', *, *, #74, .T. ) ;
#257 = CYLINDRICAL_SURFACE ( 'NONE', #360, 3.250000000000000444 ) ;
#258 = EDGE_LOOP ( 'NONE', ( #345, #348, #182, #109 ) ) ;
#259 = AXIS2_PLACEMENT_3D ( 'NONE', #114, #150, #200 ) ;
#260 = VECTOR ( 'NONE', #39, 1000.000000000000000 ) ;
#261 = APPLICATION_PROTOCOL_DEFINITION ( 'international standard', 'config_control_design', 1994, #369 ) ;
#262 = CARTESIAN_POINT ( 'NONE',  ( 0.000000000000000000, 0.000000000000000000, 0.000000000000000000 ) ) ;
#263 = COORDINATED_UNIVERSAL_TIME_OFFSET ( 1, 0, .AHEAD. ) ;
#264 = VERTEX_POINT ( 'NONE', #137 ) ;
#265 = MECHANICAL_CONTEXT ( 'NONE', #272, 'mechanical' ) ;
#266 = DIRECTION ( 'NONE',  ( 1.000000000000000000, 0.000000000000000000, 0.000000000000000000 ) ) ;
#267 = CC_DESIGN_SECURITY_CLASSIFICATION ( #80, ( #28 ) ) ;
#268 = FACE_OUTER_BOUND ( 'NONE', #48, .T. ) ;
#269 = CC_DESIGN_DATE_AND_TIME_ASSIGNMENT ( #370, #315, ( #180 ) ) ;
#270 = CARTESIAN_POINT ( 'NONE',  ( 6.500000000000000888, 0.000000000000000000, 7.000000000000002665 ) ) ;
#271 = EDGE_CURVE ( 'NONE', #2, #5, #277, .T. ) ;
#272 = APPLICATION_CONTEXT ( 'configuration controlled 3d designs of mechanical parts and assemblies' ) ;
#273 = CIRCLE ( 'NONE', #34, 10.00000000000000000 ) ;
#274 = CARTESIAN_POINT ( 'NONE',  ( 0.000000000000000000, 0.000000000000000000, 182.0000000000000000 ) ) ;
#275 = ORIENTED_EDGE ( 'NONE', *, *, #253, .T. ) ;
#276 = DIRECTION ( 'NONE',  ( 0.000000000000000000, 0.000000000000000000, 1.000000000000000000 ) ) ;
#277 = CIRCLE ( 'NONE', #332, 10.00000000000000000 ) ;
#278 = FACE_OUTER_BOUND ( 'NONE', #138, .T. ) ;
#279 = ADVANCED_FACE ( 'NONE', ( #278 ), #20, .F. ) ;
#280 = DIRECTION ( 'NONE',  ( 0.000000000000000000, 0.000000000000000000, 1.000000000000000000 ) ) ;
#281 = EDGE_LOOP ( 'NONE', ( #103, #310 ) ) ;
#282 = COORDINATED_UNIVERSAL_TIME_OFFSET ( 1, 0, .AHEAD. ) ;
#283 = PERSON_AND_ORGANIZATION ( #132, #104 ) ;
#284 = DIRECTION ( 'NONE',  ( -0.000000000000000000, -0.000000000000000000, -1.000000000000000000 ) ) ;
#285 = AXIS2_PLACEMENT_3D ( 'NONE', #183, #95, #179 ) ;
#286 = VERTEX_POINT ( 'NONE', #99 ) ;
#287 = EDGE_CURVE ( 'NONE', #70, #286, #191, .T. ) ;
#288 = ORIENTED_EDGE ( 'NONE', *, *, #56, .T. ) ;
#289 = ADVANCED_BREP_SHAPE_REPRESENTATION ( '8b02', ( #197, #308 ), #304 ) ;
#290 = CARTESIAN_POINT ( 'NONE',  ( -3.250000000000000444, 0.000000000000000000, 0.000000000000000000 ) ) ;
#291 = CC_DESIGN_APPROVAL ( #31, ( #28 ) ) ;
#292 = DIRECTION ( 'NONE',  ( 1.000000000000000000, 0.000000000000000000, 0.000000000000000000 ) ) ;
#293 = CALENDAR_DATE ( 2022, 8, 7 ) ;
#294 = LINE ( 'NONE', #326, #302 ) ;
#295 = ADVANCED_FACE ( 'NONE', ( #140 ), #257, .F. ) ;
#296 = VECTOR ( 'NONE', #355, 1000.000000000000000 ) ;
#297 = ORIENTED_EDGE ( 'NONE', *, *, #56, .F. ) ;
#298 = EDGE_CURVE ( 'NONE', #81, #264, #52, .T. ) ;
#299 = TOROIDAL_SURFACE ( 'NONE', #166, 6.500000000000000888, 0.5000000000000000000 ) ;
#300 = CIRCLE ( 'NONE', #285, 0.5000000000000004441 ) ;
#301 = LINE ( 'NONE', #352, #296 ) ;
#302 = VECTOR ( 'NONE', #87, 1000.000000000000000 ) ;
#303 = FACE_OUTER_BOUND ( 'NONE', #169, .T. ) ;
#304 =( GEOMETRIC_REPRESENTATION_CONTEXT ( 3 ) GLOBAL_UNCERTAINTY_ASSIGNED_CONTEXT ( ( #193 ) ) GLOBAL_UNIT_ASSIGNED_CONTEXT ( ( #251, #36, #205 ) ) REPRESENTATION_CONTEXT ( 'NONE', 'WORKASPACE' ) );
#305 = CARTESIAN_POINT ( 'NONE',  ( 0.000000000000000000, 0.000000000000000000, 182.0000000000000000 ) ) ;
#306 = DIRECTION ( 'NONE',  ( -1.000000000000000000, 0.000000000000000000, 0.000000000000000000 ) ) ;
#307 = ORIENTED_EDGE ( 'NONE', *, *, #33, .F. ) ;
#308 = AXIS2_PLACEMENT_3D ( 'NONE', #142, #377, #25 ) ;
#309 = DIRECTION ( 'NONE',  ( 0.000000000000000000, 0.000000000000000000, 1.000000000000000000 ) ) ;
#310 = ORIENTED_EDGE ( 'NONE', *, *, #339, .F. ) ;
#311 = SECURITY_CLASSIFICATION_LEVEL ( 'unclassified' ) ;
#312 = ADVANCED_FACE ( 'NONE', ( #222, #375 ), #43, .T. ) ;
#313 = DIRECTION ( 'NONE',  ( 1.000000000000000000, 0.000000000000000000, 0.000000000000000000 ) ) ;
#314 = EDGE_LOOP ( 'NONE', ( #22, #112, #252, #17 ) ) ;
#315 = DATE_TIME_ROLE ( 'creation_date' ) ;
#316 = CARTESIAN_POINT ( 'NONE',  ( 0.000000000000000000, 0.000000000000000000, 0.000000000000000000 ) ) ;
#317 = ORIENTED_EDGE ( 'NONE', *, *, #209, .F. ) ;
#318 = DATE_AND_TIME ( #42, #349 ) ;
#319 = CARTESIAN_POINT ( 'NONE',  ( -6.000000000000000888, 0.000000000000000000, 182.0000000000000000 ) ) ;
#320 = AXIS2_PLACEMENT_3D ( 'NONE', #124, #184, #306 ) ;
#321 = ORIENTED_EDGE ( 'NONE', *, *, #6, .T. ) ;
#322 = CARTESIAN_POINT ( 'NONE',  ( 10.00000000000000000, 1.224646799147353256E-15, 7.000000000000000000 ) ) ;
#323 = CARTESIAN_POINT ( 'NONE',  ( 0.000000000000000000, 0.000000000000000000, 0.000000000000000000 ) ) ;
#324 = PERSON_AND_ORGANIZATION_ROLE ( 'design_owner' ) ;
#325 = ADVANCED_FACE ( 'NONE', ( #111 ), #299, .F. ) ;
#326 = CARTESIAN_POINT ( 'NONE',  ( -3.250000000000000444, 0.000000000000000000, 182.0000000000000000 ) ) ;
#327 = CIRCLE ( 'NONE', #236, 6.000000000000000888 ) ;
#328 = CARTESIAN_POINT ( 'NONE',  ( -10.00000000000000000, 0.000000000000000000, 7.000000000000000000 ) ) ;
#329 = DIRECTION ( 'NONE',  ( 0.000000000000000000, 0.000000000000000000, -1.000000000000000000 ) ) ;
#330 = CYLINDRICAL_SURFACE ( 'NONE', #159, 10.00000000000000000 ) ;
#331 = FACE_OUTER_BOUND ( 'NONE', #281, .T. ) ;
#332 = AXIS2_PLACEMENT_3D ( 'NONE', #14, #106, #75 ) ;
#333 = DIRECTION ( 'NONE',  ( 0.000000000000000000, 0.000000000000000000, 1.000000000000000000 ) ) ;
#334 = DIRECTION ( 'NONE',  ( -1.000000000000000000, 0.000000000000000000, 0.000000000000000000 ) ) ;
#335 = AXIS2_PLACEMENT_3D ( 'NONE', #358, #91, #334 ) ;
#336 = CARTESIAN_POINT ( 'NONE',  ( 0.000000000000000000, 0.000000000000000000, 182.0000000000000000 ) ) ;
#337 = ORIENTED_EDGE ( 'NONE', *, *, #59, .T. ) ;
#338 = EDGE_CURVE ( 'NONE', #286, #73, #212, .T. ) ;
#339 = EDGE_CURVE ( 'NONE', #83, #40, #273, .T. ) ;
#340 = APPROVAL_DATE_TIME ( #318, #201 ) ;
#341 = LOCAL_TIME ( 16, 42, 50.00000000000000000, #282 ) ;
#342 = CARTESIAN_POINT ( 'NONE',  ( 0.000000000000000000, 0.000000000000000000, 0.000000000000000000 ) ) ;
#343 = SHAPE_DEFINITION_REPRESENTATION ( #240, #289 ) ;
#344 = DIRECTION ( 'NONE',  ( 0.000000000000000000, 0.000000000000000000, 1.000000000000000000 ) ) ;
#345 = ORIENTED_EDGE ( 'NONE', *, *, #24, .F. ) ;
#346 = DATE_AND_TIME ( #130, #341 ) ;
#347 = DIRECTION ( 'NONE',  ( -0.000000000000000000, -0.000000000000000000, -1.000000000000000000 ) ) ;
#348 = ORIENTED_EDGE ( 'NONE', *, *, #271, .F. ) ;
#349 = LOCAL_TIME ( 16, 42, 50.00000000000000000, #133 ) ;
#350 = ORIENTED_EDGE ( 'NONE', *, *, #339, .T. ) ;
#351 = PERSON_AND_ORGANIZATION ( #132, #104 ) ;
#352 = CARTESIAN_POINT ( 'NONE',  ( 6.000000000000000888, 7.347880794884120722E-16, 182.0000000000000000 ) ) ;
#353 = FACE_BOUND ( 'NONE', #131, .T. ) ;
#354 = EDGE_CURVE ( 'NONE', #2, #40, #255, .T. ) ;
#355 = DIRECTION ( 'NONE',  ( -0.000000000000000000, -0.000000000000000000, -1.000000000000000000 ) ) ;
#356 = AXIS2_PLACEMENT_3D ( 'NONE', #316, #284, #165 ) ;
#357 = EDGE_LOOP ( 'NONE', ( #100, #62 ) ) ;
#358 = CARTESIAN_POINT ( 'NONE',  ( 0.000000000000000000, 0.000000000000000000, 182.0000000000000000 ) ) ;
#359 = ORIENTED_EDGE ( 'NONE', *, *, #298, .T. ) ;
#360 = AXIS2_PLACEMENT_3D ( 'NONE', #139, #367, #102 ) ;
#361 = DIRECTION ( 'NONE',  ( 0.000000000000000000, 0.000000000000000000, 1.000000000000000000 ) ) ;
#362 = ORIENTED_EDGE ( 'NONE', *, *, #33, .T. ) ;
#363 = DATE_TIME_ROLE ( 'classification_date' ) ;
#364 = DIRECTION ( 'NONE',  ( -1.000000000000000000, 0.000000000000000000, 0.000000000000000000 ) ) ;
#365 = ORIENTED_EDGE ( 'NONE', *, *, #147, .T. ) ;
#366 = APPROVAL_ROLE ( '' ) ;
#367 = DIRECTION ( 'NONE',  ( 0.000000000000000000, 0.000000000000000000, -1.000000000000000000 ) ) ;
#368 = APPROVAL_ROLE ( '' ) ;
#369 = APPLICATION_CONTEXT ( 'configuration controlled 3d designs of mechanical parts and assemblies' ) ;
#370 = DATE_AND_TIME ( #101, #71 ) ;
#371 = AXIS2_PLACEMENT_3D ( 'NONE', #79, #309, #195 ) ;
#372 = EDGE_LOOP ( 'NONE', ( #307, #317, #21, #141 ) ) ;
#373 = DATE_AND_TIME ( #19, #3 ) ;
#374 = DIRECTION ( 'NONE',  ( 0.000000000000000000, 0.000000000000000000, 1.000000000000000000 ) ) ;
#375 = FACE_OUTER_BOUND ( 'NONE', #64, .T. ) ;
#376 = AXIS2_PLACEMENT_3D ( 'NONE', #213, #30, #215 ) ;
#377 = DIRECTION ( 'NONE',  ( 0.000000000000000000, 0.000000000000000000, 1.000000000000000000 ) ) ;
#378 = AXIS2_PLACEMENT_3D ( 'NONE', #336, #72, #47 ) ;
#379 = CARTESIAN_POINT ( 'NONE',  ( 0.000000000000000000, 0.000000000000000000, 7.000000000000000000 ) ) ;
#380 = APPROVAL ( #53, 'NEURÈENÝ' ) ;
#381 = CARTESIAN_POINT ( 'NONE',  ( -6.500000000000000888, 7.960204194457796463E-16, 7.500000000000007105 ) ) ;
ENDSEC;
END-ISO-10303-21;
