ISO-10303-21;
HEADER;
FILE_DESCRIPTION (( 'STEP AP203' ),
    '1' );
FILE_NAME ('5d48.STEP',
    '2022-07-08T14:38:35',
    ( '' ),
    ( '' ),
    'SwSTEP 2.0',
    'SolidWorks 2019',
    '' );
FILE_SCHEMA (( 'CONFIG_CONTROL_DESIGN' ));
ENDSEC;

DATA;
#1 = AXIS2_PLACEMENT_3D ( 'NONE', #236, #352, #302 ) ;
#2 = FACE_BOUND ( 'NONE', #28, .T. ) ;
#3 = DIRECTION ( 'NONE',  ( 0.000000000000000000, 0.000000000000000000, 1.000000000000000000 ) ) ;
#4 = CALENDAR_DATE ( 2022, 8, 7 ) ;
#5 = AXIS2_PLACEMENT_3D ( 'NONE', #159, #219, #280 ) ;
#6 = DIRECTION ( 'NONE',  ( -1.000000000000000000, 0.000000000000000000, 0.000000000000000000 ) ) ;
#7 = EDGE_CURVE ( 'NONE', #106, #381, #50, .T. ) ;
#8 = DATE_TIME_ROLE ( 'classification_date' ) ;
#9 = CARTESIAN_POINT ( 'NONE',  ( 0.000000000000000000, 0.000000000000000000, 232.0000000000000000 ) ) ;
#10 = DIRECTION ( 'NONE',  ( 1.000000000000000000, 0.000000000000000000, 0.000000000000000000 ) ) ;
#11 = CARTESIAN_POINT ( 'NONE',  ( -6.000000000000000888, 0.000000000000000000, 232.0000000000000000 ) ) ;
#12 = CIRCLE ( 'NONE', #111, 10.00000000000000000 ) ;
#13 = CARTESIAN_POINT ( 'NONE',  ( 6.000000000000000888, 7.347880794884120722E-16, 7.700000000000012612 ) ) ;
#14 = CARTESIAN_POINT ( 'NONE',  ( 0.000000000000000000, 0.000000000000000000, 0.000000000000000000 ) ) ;
#15 = AXIS2_PLACEMENT_3D ( 'NONE', #267, #3, #125 ) ;
#16 = DIRECTION ( 'NONE',  ( 0.000000000000000000, 0.000000000000000000, 1.000000000000000000 ) ) ;
#17 = CARTESIAN_POINT ( 'NONE',  ( 0.000000000000000000, 0.000000000000000000, 0.000000000000000000 ) ) ;
#18 = FACE_OUTER_BOUND ( 'NONE', #165, .T. ) ;
#19 = ADVANCED_FACE ( 'NONE', ( #121 ), #232, .T. ) ;
#20 = DIRECTION ( 'NONE',  ( 1.000000000000000000, 0.000000000000000000, 0.000000000000000000 ) ) ;
#21 = AXIS2_PLACEMENT_3D ( 'NONE', #75, #16, #248 ) ;
#22 = EDGE_LOOP ( 'NONE', ( #247, #343, #144, #198 ) ) ;
#23 = CARTESIAN_POINT ( 'NONE',  ( 4.000000000000000000, 4.898587196589411843E-16, 0.000000000000000000 ) ) ;
#24 = ORIENTED_EDGE ( 'NONE', *, *, #210, .F. ) ;
#25 = COORDINATED_UNIVERSAL_TIME_OFFSET ( 1, 0, .AHEAD. ) ;
#26 = ORIENTED_EDGE ( 'NONE', *, *, #268, .T. ) ;
#27 = ADVANCED_FACE ( 'NONE', ( #18 ), #259, .T. ) ;
#28 = EDGE_LOOP ( 'NONE', ( #200, #83 ) ) ;
#29 = FACE_OUTER_BOUND ( 'NONE', #116, .T. ) ;
#30 = COORDINATED_UNIVERSAL_TIME_OFFSET ( 1, 0, .AHEAD. ) ;
#31 = CARTESIAN_POINT ( 'NONE',  ( 10.00000000000000000, 1.224646799147353256E-15, 7.000000000000000000 ) ) ;
#32 = PRODUCT_DEFINITION_SHAPE ( 'NONE', 'NONE',  #294 ) ;
#33 = ADVANCED_FACE ( 'NONE', ( #355 ), #94, .F. ) ;
#34 = CARTESIAN_POINT ( 'NONE',  ( 6.700000000000001066, 0.000000000000000000, 7.700000000000012612 ) ) ;
#35 = CARTESIAN_POINT ( 'NONE',  ( 10.00000000000000000, 1.224646799147353256E-15, 7.000000000000000000 ) ) ;
#36 = DIRECTION ( 'NONE',  ( 0.000000000000000000, 0.000000000000000000, -1.000000000000000000 ) ) ;
#37 = CARTESIAN_POINT ( 'NONE',  ( -10.00000000000000000, 0.000000000000000000, 7.000000000000000000 ) ) ;
#38 = AXIS2_PLACEMENT_3D ( 'NONE', #214, #36, #133 ) ;
#39 = ORIENTED_EDGE ( 'NONE', *, *, #357, .T. ) ;
#40 = APPROVAL_PERSON_ORGANIZATION ( #194, #118, #85 ) ;
#41 = FACE_OUTER_BOUND ( 'NONE', #54, .T. ) ;
#42 = DIRECTION ( 'NONE',  ( 0.000000000000000000, 0.000000000000000000, 1.000000000000000000 ) ) ;
#43 = ORIENTED_EDGE ( 'NONE', *, *, #363, .F. ) ;
#44 = DIRECTION ( 'NONE',  ( -0.000000000000000000, -0.000000000000000000, -1.000000000000000000 ) ) ;
#45 = APPLICATION_CONTEXT ( 'configuration controlled 3d designs of mechanical parts and assemblies' ) ;
#46 = LOCAL_TIME ( 16, 38, 35.00000000000000000, #153 ) ;
#47 = CIRCLE ( 'NONE', #272, 0.7000000000000000666 ) ;
#48 = ADVANCED_BREP_SHAPE_REPRESENTATION ( '5d48', ( #74, #260 ), #315 ) ;
#49 = EDGE_CURVE ( 'NONE', #365, #213, #47, .T. ) ;
#50 = LINE ( 'NONE', #57, #296 ) ;
#51 = ORIENTED_EDGE ( 'NONE', *, *, #268, .F. ) ;
#52 = APPROVAL_DATE_TIME ( #289, #118 ) ;
#53 = VECTOR ( 'NONE', #188, 1000.000000000000000 ) ;
#54 = EDGE_LOOP ( 'NONE', ( #195, #138, #169, #339 ) ) ;
#55 = CLOSED_SHELL ( 'NONE', ( #33, #334, #76, #69, #19, #189, #176, #27, #264, #109, #243 ) ) ;
#56 = CARTESIAN_POINT ( 'NONE',  ( 0.000000000000000000, 0.000000000000000000, 0.000000000000000000 ) ) ;
#57 = CARTESIAN_POINT ( 'NONE',  ( 4.000000000000000000, 4.898587196589411843E-16, 232.0000000000000000 ) ) ;
#58 = APPROVAL_DATE_TIME ( #102, #220 ) ;
#59 = ORIENTED_EDGE ( 'NONE', *, *, #49, .T. ) ;
#60 = DIRECTION ( 'NONE',  ( -0.000000000000000000, -0.000000000000000000, -1.000000000000000000 ) ) ;
#61 = VECTOR ( 'NONE', #182, 1000.000000000000000 ) ;
#62 = CALENDAR_DATE ( 2022, 8, 7 ) ;
#63 = CC_DESIGN_PERSON_AND_ORGANIZATION_ASSIGNMENT ( #197, #191, ( #294 ) ) ;
#64 = DIRECTION ( 'NONE',  ( -1.000000000000000000, 0.000000000000000000, 0.000000000000000000 ) ) ;
#65 = APPROVAL_ROLE ( '' ) ;
#66 = CARTESIAN_POINT ( 'NONE',  ( 0.000000000000000000, 0.000000000000000000, 0.000000000000000000 ) ) ;
#67 = PERSON_AND_ORGANIZATION_ROLE ( 'classification_officer' ) ;
#68 = DIRECTION ( 'NONE',  ( -0.000000000000000000, -0.000000000000000000, -1.000000000000000000 ) ) ;
#69 = ADVANCED_FACE ( 'NONE', ( #98 ), #154, .T. ) ;
#70 = DIRECTION ( 'NONE',  ( 0.000000000000000000, 0.000000000000000000, 1.000000000000000000 ) ) ;
#71 = DIRECTION ( 'NONE',  ( -0.000000000000000000, -0.000000000000000000, -1.000000000000000000 ) ) ;
#72 = ORIENTED_EDGE ( 'NONE', *, *, #170, .F. ) ;
#73 = CYLINDRICAL_SURFACE ( 'NONE', #38, 4.000000000000000000 ) ;
#74 = MANIFOLD_SOLID_BREP ( 'Odebrat vysunutím3', #55 ) ;
#75 = CARTESIAN_POINT ( 'NONE',  ( 0.000000000000000000, 0.000000000000000000, 232.0000000000000000 ) ) ;
#76 = ADVANCED_FACE ( 'NONE', ( #129 ), #179, .T. ) ;
#77 = VERTEX_POINT ( 'NONE', #35 ) ;
#78 = CARTESIAN_POINT ( 'NONE',  ( 0.000000000000000000, 0.000000000000000000, 7.000000000000000000 ) ) ;
#79 = DIRECTION ( 'NONE',  ( -0.000000000000000000, -0.000000000000000000, -1.000000000000000000 ) ) ;
#80 = ORIENTED_EDGE ( 'NONE', *, *, #279, .F. ) ;
#81 = AXIS2_PLACEMENT_3D ( 'NONE', #113, #246, #183 ) ;
#82 = DIRECTION ( 'NONE',  ( 0.000000000000000000, 0.000000000000000000, 1.000000000000000000 ) ) ;
#83 = ORIENTED_EDGE ( 'NONE', *, *, #363, .T. ) ;
#84 = ORIENTED_EDGE ( 'NONE', *, *, #322, .F. ) ;
#85 = APPROVAL_ROLE ( '' ) ;
#86 = ORIENTED_EDGE ( 'NONE', *, *, #370, .T. ) ;
#87 = APPLICATION_PROTOCOL_DEFINITION ( 'international standard', 'config_control_design', 1994, #108 ) ;
#88 = TOROIDAL_SURFACE ( 'NONE', #185, 6.700000000000001066, 0.6999999999999999556 ) ;
#89 = VERTEX_POINT ( 'NONE', #241 ) ;
#90 = EDGE_CURVE ( 'NONE', #77, #261, #298, .T. ) ;
#91 = APPLICATION_PROTOCOL_DEFINITION ( 'international standard', 'config_control_design', 1994, #45 ) ;
#92 = DIRECTION ( 'NONE',  ( -0.000000000000000000, -0.000000000000000000, -1.000000000000000000 ) ) ;
#93 = CALENDAR_DATE ( 2022, 8, 7 ) ;
#94 = CYLINDRICAL_SURFACE ( 'NONE', #211, 4.000000000000000000 ) ;
#95 = AXIS2_PLACEMENT_3D ( 'NONE', #173, #70, #10 ) ;
#96 = EDGE_CURVE ( 'NONE', #168, #145, #100, .T. ) ;
#97 = APPROVAL_ROLE ( '' ) ;
#98 = FACE_OUTER_BOUND ( 'NONE', #368, .T. ) ;
#99 = AXIS2_PLACEMENT_3D ( 'NONE', #306, #156, #275 ) ;
#100 = CIRCLE ( 'NONE', #240, 6.000000000000000888 ) ;
#101 = DIRECTION ( 'NONE',  ( -1.000000000000000000, 1.224646799147353454E-16, 0.000000000000000000 ) ) ;
#102 = DATE_AND_TIME ( #93, #151 ) ;
#103 = DIRECTION ( 'NONE',  ( 0.000000000000000000, 0.000000000000000000, 1.000000000000000000 ) ) ;
#104 = CARTESIAN_POINT ( 'NONE',  ( -6.000000000000000888, 0.000000000000000000, 232.0000000000000000 ) ) ;
#105 = CARTESIAN_POINT ( 'NONE',  ( 10.00000000000000000, 1.224646799147353256E-15, 0.000000000000000000 ) ) ;
#106 = VERTEX_POINT ( 'NONE', #235 ) ;
#107 = DIRECTION ( 'NONE',  ( 1.000000000000000000, 0.000000000000000000, 0.000000000000000000 ) ) ;
#108 = APPLICATION_CONTEXT ( 'configuration controlled 3d designs of mechanical parts and assemblies' ) ;
#109 = ADVANCED_FACE ( 'NONE', ( #326 ), #234, .F. ) ;
#110 = CARTESIAN_POINT ( 'NONE',  ( 6.700000000000001066, 0.000000000000000000, 7.000000000000006217 ) ) ;
#111 = AXIS2_PLACEMENT_3D ( 'NONE', #17, #82, #345 ) ;
#112 = ORIENTED_EDGE ( 'NONE', *, *, #303, .T. ) ;
#113 = CARTESIAN_POINT ( 'NONE',  ( 0.000000000000000000, 0.000000000000000000, 7.700000000000012612 ) ) ;
#114 = DATE_TIME_ROLE ( 'creation_date' ) ;
#115 = ORIENTED_EDGE ( 'NONE', *, *, #146, .T. ) ;
#116 = EDGE_LOOP ( 'NONE', ( #86, #333 ) ) ;
#117 = EDGE_LOOP ( 'NONE', ( #317, #39, #292, #252 ) ) ;
#118 = APPROVAL ( #283, 'NEURÈENÝ' ) ;
#119 = COORDINATED_UNIVERSAL_TIME_OFFSET ( 1, 0, .AHEAD. ) ;
#120 = ORIENTED_EDGE ( 'NONE', *, *, #205, .T. ) ;
#121 = FACE_OUTER_BOUND ( 'NONE', #22, .T. ) ;
#122 = PERSON_AND_ORGANIZATION ( #274, #360 ) ;
#123 = DIRECTION ( 'NONE',  ( 0.000000000000000000, 0.000000000000000000, -1.000000000000000000 ) ) ;
#124 = PERSON_AND_ORGANIZATION_ROLE ( 'creator' ) ;
#125 = DIRECTION ( 'NONE',  ( 1.000000000000000000, 0.000000000000000000, -0.000000000000000000 ) ) ;
#126 = AXIS2_PLACEMENT_3D ( 'NONE', #66, #147, #266 ) ;
#127 = DIRECTION ( 'NONE',  ( 0.000000000000000000, 0.000000000000000000, 1.000000000000000000 ) ) ;
#128 = CC_DESIGN_APPROVAL ( #220, ( #287 ) ) ;
#129 = FACE_OUTER_BOUND ( 'NONE', #117, .T. ) ;
#130 = LINE ( 'NONE', #242, #161 ) ;
#131 = AXIS2_PLACEMENT_3D ( 'NONE', #278, #341, #187 ) ;
#132 = FACE_OUTER_BOUND ( 'NONE', #222, .T. ) ;
#133 = DIRECTION ( 'NONE',  ( -1.000000000000000000, 0.000000000000000000, 0.000000000000000000 ) ) ;
#134 = CC_DESIGN_PERSON_AND_ORGANIZATION_ASSIGNMENT ( #171, #124, ( #309 ) ) ;
#135 = DIRECTION ( 'NONE',  ( 0.000000000000000000, 0.000000000000000000, 1.000000000000000000 ) ) ;
#136 = LINE ( 'NONE', #251, #202 ) ;
#137 = CARTESIAN_POINT ( 'NONE',  ( -6.700000000000001066, 8.205133554287267548E-16, 7.000000000000006217 ) ) ;
#138 = ORIENTED_EDGE ( 'NONE', *, *, #170, .T. ) ;
#139 = MECHANICAL_CONTEXT ( 'NONE', #108, 'mechanical' ) ;
#140 = APPROVAL_PERSON_ORGANIZATION ( #316, #314, #97 ) ;
#141 =( LENGTH_UNIT ( ) NAMED_UNIT ( * ) SI_UNIT ( .MILLI., .METRE. ) );
#142 = VERTEX_POINT ( 'NONE', #273 ) ;
#143 = CC_DESIGN_PERSON_AND_ORGANIZATION_ASSIGNMENT ( #327, #354, ( #309 ) ) ;
#144 = ORIENTED_EDGE ( 'NONE', *, *, #224, .T. ) ;
#145 = VERTEX_POINT ( 'NONE', #104 ) ;
#146 = EDGE_CURVE ( 'NONE', #89, #336, #332, .T. ) ;
#147 = DIRECTION ( 'NONE',  ( 0.000000000000000000, 0.000000000000000000, 1.000000000000000000 ) ) ;
#148 = PLANE ( 'NONE',  #15 ) ;
#149 = CARTESIAN_POINT ( 'NONE',  ( 6.000000000000000888, 7.347880794884120722E-16, 232.0000000000000000 ) ) ;
#150 = DIRECTION ( 'NONE',  ( -1.000000000000000000, 0.000000000000000000, 0.000000000000000000 ) ) ;
#151 = LOCAL_TIME ( 16, 38, 35.00000000000000000, #30 ) ;
#152 = EDGE_CURVE ( 'NONE', #145, #168, #286, .T. ) ;
#153 = COORDINATED_UNIVERSAL_TIME_OFFSET ( 1, 0, .AHEAD. ) ;
#154 = CYLINDRICAL_SURFACE ( 'NONE', #362, 10.00000000000000000 ) ;
#155 = DIRECTION ( 'NONE',  ( 0.000000000000000000, 0.000000000000000000, 1.000000000000000000 ) ) ;
#156 = DIRECTION ( 'NONE',  ( -0.000000000000000000, -0.000000000000000000, -1.000000000000000000 ) ) ;
#157 = EDGE_CURVE ( 'NONE', #223, #226, #130, .T. ) ;
#158 = CIRCLE ( 'NONE', #209, 10.00000000000000000 ) ;
#159 = CARTESIAN_POINT ( 'NONE',  ( 0.000000000000000000, 0.000000000000000000, 7.700000000000012612 ) ) ;
#160 = CARTESIAN_POINT ( 'NONE',  ( 0.000000000000000000, 0.000000000000000000, 0.000000000000000000 ) ) ;
#161 = VECTOR ( 'NONE', #175, 1000.000000000000000 ) ;
#162 = DATE_AND_TIME ( #258, #276 ) ;
#163 = PERSON_AND_ORGANIZATION ( #274, #360 ) ;
#164 = CARTESIAN_POINT ( 'NONE',  ( 0.000000000000000000, 0.000000000000000000, 7.000000000000000000 ) ) ;
#165 = EDGE_LOOP ( 'NONE', ( #215, #348, #321, #192 ) ) ;
#166 = CIRCLE ( 'NONE', #5, 6.000000000000000888 ) ;
#167 = PRODUCT_RELATED_PRODUCT_CATEGORY ( 'detail', '', ( #305 ) ) ;
#168 = VERTEX_POINT ( 'NONE', #149 ) ;
#169 = ORIENTED_EDGE ( 'NONE', *, *, #157, .T. ) ;
#170 = EDGE_CURVE ( 'NONE', #106, #223, #372, .T. ) ;
#171 = PERSON_AND_ORGANIZATION ( #274, #360 ) ;
#172 = EDGE_LOOP ( 'NONE', ( #324, #373, #59, #43 ) ) ;
#173 = CARTESIAN_POINT ( 'NONE',  ( 0.000000000000000000, 0.000000000000000000, 232.0000000000000000 ) ) ;
#174 = CARTESIAN_POINT ( 'NONE',  ( 0.000000000000000000, 0.000000000000000000, 7.000000000000000000 ) ) ;
#175 = DIRECTION ( 'NONE',  ( 0.000000000000000000, 0.000000000000000000, -1.000000000000000000 ) ) ;
#176 = ADVANCED_FACE ( 'NONE', ( #206, #181 ), #295, .F. ) ;
#177 = AXIS2_PLACEMENT_3D ( 'NONE', #304, #359, #239 ) ;
#178 = DATE_AND_TIME ( #4, #46 ) ;
#179 = CYLINDRICAL_SURFACE ( 'NONE', #1, 6.000000000000000888 ) ;
#180 = AXIS2_PLACEMENT_3D ( 'NONE', #78, #71, #190 ) ;
#181 = FACE_OUTER_BOUND ( 'NONE', #249, .T. ) ;
#182 = DIRECTION ( 'NONE',  ( -0.000000000000000000, -0.000000000000000000, -1.000000000000000000 ) ) ;
#183 = DIRECTION ( 'NONE',  ( 1.000000000000000000, 0.000000000000000000, 0.000000000000000000 ) ) ;
#184 = ORIENTED_EDGE ( 'NONE', *, *, #205, .F. ) ;
#185 = AXIS2_PLACEMENT_3D ( 'NONE', #367, #155, #364 ) ;
#186 = AXIS2_PLACEMENT_3D ( 'NONE', #9, #299, #150 ) ;
#187 = DIRECTION ( 'NONE',  ( 1.000000000000000000, 0.000000000000000000, -0.000000000000000000 ) ) ;
#188 = DIRECTION ( 'NONE',  ( -0.000000000000000000, -0.000000000000000000, -1.000000000000000000 ) ) ;
#189 = ADVANCED_FACE ( 'NONE', ( #2, #29 ), #148, .T. ) ;
#190 = DIRECTION ( 'NONE',  ( 1.000000000000000000, 0.000000000000000000, 0.000000000000000000 ) ) ;
#191 = PERSON_AND_ORGANIZATION_ROLE ( 'creator' ) ;
#192 = ORIENTED_EDGE ( 'NONE', *, *, #250, .T. ) ;
#193 = CC_DESIGN_DATE_AND_TIME_ASSIGNMENT ( #162, #114, ( #294 ) ) ;
#194 = PERSON_AND_ORGANIZATION ( #274, #360 ) ;
#195 = ORIENTED_EDGE ( 'NONE', *, *, #7, .F. ) ;
#196 = ORIENTED_EDGE ( 'NONE', *, *, #380, .F. ) ;
#197 = PERSON_AND_ORGANIZATION ( #274, #360 ) ;
#198 = ORIENTED_EDGE ( 'NONE', *, *, #380, .T. ) ;
#199 = DATE_AND_TIME ( #62, #307 ) ;
#200 = ORIENTED_EDGE ( 'NONE', *, *, #279, .T. ) ;
#201 = DIRECTION ( 'NONE',  ( 0.000000000000000000, 0.000000000000000000, -1.000000000000000000 ) ) ;
#202 = VECTOR ( 'NONE', #217, 1000.000000000000000 ) ;
#203 = CIRCLE ( 'NONE', #300, 10.00000000000000000 ) ;
#204 = CARTESIAN_POINT ( 'NONE',  ( 0.000000000000000000, 0.000000000000000000, 232.0000000000000000 ) ) ;
#205 = EDGE_CURVE ( 'NONE', #381, #226, #291, .T. ) ;
#206 = FACE_BOUND ( 'NONE', #376, .T. ) ;
#207 = DIRECTION ( 'NONE',  ( 1.000000000000000000, 0.000000000000000000, 0.000000000000000000 ) ) ;
#208 = DIRECTION ( 'NONE',  ( 1.224646799147353207E-16, 1.000000000000000000, -0.000000000000000000 ) ) ;
#209 = AXIS2_PLACEMENT_3D ( 'NONE', #366, #42, #313 ) ;
#210 = EDGE_CURVE ( 'NONE', #226, #381, #244, .T. ) ;
#211 = AXIS2_PLACEMENT_3D ( 'NONE', #204, #201, #64 ) ;
#212 = CARTESIAN_POINT ( 'NONE',  ( -4.000000000000000000, 0.000000000000000000, 232.0000000000000000 ) ) ;
#213 = VERTEX_POINT ( 'NONE', #110 ) ;
#214 = CARTESIAN_POINT ( 'NONE',  ( 0.000000000000000000, 0.000000000000000000, 232.0000000000000000 ) ) ;
#215 = ORIENTED_EDGE ( 'NONE', *, *, #357, .F. ) ;
#216 = CIRCLE ( 'NONE', #81, 6.000000000000000888 ) ;
#217 = DIRECTION ( 'NONE',  ( -0.000000000000000000, -0.000000000000000000, -1.000000000000000000 ) ) ;
#218 = CIRCLE ( 'NONE', #21, 4.000000000000000000 ) ;
#219 = DIRECTION ( 'NONE',  ( 0.000000000000000000, 0.000000000000000000, 1.000000000000000000 ) ) ;
#220 = APPROVAL ( #351, 'NEURÈENÝ' ) ;
#221 = FACE_OUTER_BOUND ( 'NONE', #342, .T. ) ;
#222 = EDGE_LOOP ( 'NONE', ( #346, #115, #80, #256 ) ) ;
#223 = VERTEX_POINT ( 'NONE', #212 ) ;
#224 = EDGE_CURVE ( 'NONE', #350, #142, #136, .T. ) ;
#225 = APPROVAL_STATUS ( 'not_yet_approved' ) ;
#226 = VERTEX_POINT ( 'NONE', #338 ) ;
#227 = CARTESIAN_POINT ( 'NONE',  ( 0.000000000000000000, 0.000000000000000000, 7.000000000000000000 ) ) ;
#228 = ORIENTED_EDGE ( 'NONE', *, *, #157, .F. ) ;
#229 = DIRECTION ( 'NONE',  ( 0.000000000000000000, 0.000000000000000000, 1.000000000000000000 ) ) ;
#230 = ORIENTED_EDGE ( 'NONE', *, *, #303, .F. ) ;
#231 = AXIS2_PLACEMENT_3D ( 'NONE', #160, #44, #107 ) ;
#232 = CYLINDRICAL_SURFACE ( 'NONE', #330, 10.00000000000000000 ) ;
#233 = CC_DESIGN_DATE_AND_TIME_ASSIGNMENT ( #178, #8, ( #287 ) ) ;
#234 = TOROIDAL_SURFACE ( 'NONE', #282, 6.700000000000001066, 0.6999999999999999556 ) ;
#235 = CARTESIAN_POINT ( 'NONE',  ( 4.000000000000000000, 4.898587196589411843E-16, 232.0000000000000000 ) ) ;
#236 = CARTESIAN_POINT ( 'NONE',  ( 0.000000000000000000, 0.000000000000000000, 232.0000000000000000 ) ) ;
#237 = EDGE_CURVE ( 'NONE', #365, #89, #166, .T. ) ;
#238 = LOCAL_TIME ( 16, 38, 35.00000000000000000, #119 ) ;
#239 = DIRECTION ( 'NONE',  ( 1.000000000000000000, 0.000000000000000000, 0.000000000000000000 ) ) ;
#240 = AXIS2_PLACEMENT_3D ( 'NONE', #358, #103, #207 ) ;
#241 = CARTESIAN_POINT ( 'NONE',  ( -6.000000000000000888, 0.000000000000000000, 7.700000000000012612 ) ) ;
#242 = CARTESIAN_POINT ( 'NONE',  ( -4.000000000000000000, 0.000000000000000000, 232.0000000000000000 ) ) ;
#243 = ADVANCED_FACE ( 'NONE', ( #41 ), #73, .F. ) ;
#244 = CIRCLE ( 'NONE', #379, 4.000000000000000000 ) ;
#245 = LINE ( 'NONE', #331, #61 ) ;
#246 = DIRECTION ( 'NONE',  ( 0.000000000000000000, 0.000000000000000000, 1.000000000000000000 ) ) ;
#247 = ORIENTED_EDGE ( 'NONE', *, *, #90, .F. ) ;
#248 = DIRECTION ( 'NONE',  ( 1.000000000000000000, 0.000000000000000000, 0.000000000000000000 ) ) ;
#249 = EDGE_LOOP ( 'NONE', ( #196, #51 ) ) ;
#250 = EDGE_CURVE ( 'NONE', #89, #365, #216, .T. ) ;
#251 = CARTESIAN_POINT ( 'NONE',  ( -10.00000000000000000, 0.000000000000000000, 7.000000000000000000 ) ) ;
#252 = ORIENTED_EDGE ( 'NONE', *, *, #310, .F. ) ;
#253 = CC_DESIGN_APPROVAL ( #118, ( #294 ) ) ;
#254 = DESIGN_CONTEXT ( 'detailed design', #45, 'design' ) ;
#255 = EDGE_LOOP ( 'NONE', ( #112, #263, #120, #228 ) ) ;
#256 = ORIENTED_EDGE ( 'NONE', *, *, #49, .F. ) ;
#257 = CIRCLE ( 'NONE', #319, 10.00000000000000000 ) ;
#258 = CALENDAR_DATE ( 2022, 8, 7 ) ;
#259 = CYLINDRICAL_SURFACE ( 'NONE', #186, 6.000000000000000888 ) ;
#260 = AXIS2_PLACEMENT_3D ( 'NONE', #56, #229, #371 ) ;
#261 = VERTEX_POINT ( 'NONE', #105 ) ;
#262 =( NAMED_UNIT ( * ) PLANE_ANGLE_UNIT ( ) SI_UNIT ( $, .RADIAN. ) );
#263 = ORIENTED_EDGE ( 'NONE', *, *, #7, .T. ) ;
#264 = ADVANCED_FACE ( 'NONE', ( #361, #221 ), #308, .T. ) ;
#265 = DIRECTION ( 'NONE',  ( 0.000000000000000000, 0.000000000000000000, -1.000000000000000000 ) ) ;
#266 = DIRECTION ( 'NONE',  ( 1.000000000000000000, 0.000000000000000000, -0.000000000000000000 ) ) ;
#267 = CARTESIAN_POINT ( 'NONE',  ( 0.000000000000000000, 0.000000000000000000, 7.000000000000000000 ) ) ;
#268 = EDGE_CURVE ( 'NONE', #261, #142, #257, .T. ) ;
#269 = CARTESIAN_POINT ( 'NONE',  ( 0.000000000000000000, 0.000000000000000000, 7.700000000000012612 ) ) ;
#270 = CIRCLE ( 'NONE', #180, 6.700000000000001066 ) ;
#271 = DIRECTION ( 'NONE',  ( 0.000000000000000000, -1.000000000000000000, 0.000000000000000000 ) ) ;
#272 = AXIS2_PLACEMENT_3D ( 'NONE', #34, #271, #123 ) ;
#273 = CARTESIAN_POINT ( 'NONE',  ( -10.00000000000000000, 0.000000000000000000, 0.000000000000000000 ) ) ;
#274 = PERSON ( 'NEURÈENÝ', 'NEURÈENÝ', 'NEURÈENÝ', ('NEURÈENÝ'), ('NEURÈENÝ'), ('NEURÈENÝ') ) ;
#275 = DIRECTION ( 'NONE',  ( 1.000000000000000000, 0.000000000000000000, 0.000000000000000000 ) ) ;
#276 = LOCAL_TIME ( 16, 38, 35.00000000000000000, #25 ) ;
#277 = VECTOR ( 'NONE', #60, 1000.000000000000000 ) ;
#278 = CARTESIAN_POINT ( 'NONE',  ( 0.000000000000000000, 0.000000000000000000, 232.0000000000000000 ) ) ;
#279 = EDGE_CURVE ( 'NONE', #213, #336, #270, .T. ) ;
#280 = DIRECTION ( 'NONE',  ( 1.000000000000000000, 0.000000000000000000, 0.000000000000000000 ) ) ;
#281 = CARTESIAN_POINT ( 'NONE',  ( 0.000000000000000000, 0.000000000000000000, 0.000000000000000000 ) ) ;
#282 = AXIS2_PLACEMENT_3D ( 'NONE', #269, #127, #328 ) ;
#283 = APPROVAL_STATUS ( 'not_yet_approved' ) ;
#284 = CALENDAR_DATE ( 2022, 8, 7 ) ;
#285 = DIRECTION ( 'NONE',  ( -1.000000000000000000, 0.000000000000000000, 0.000000000000000000 ) ) ;
#286 = CIRCLE ( 'NONE', #95, 6.000000000000000888 ) ;
#287 = SECURITY_CLASSIFICATION ( '', '', #297 ) ;
#288 = ORIENTED_EDGE ( 'NONE', *, *, #152, .T. ) ;
#289 = DATE_AND_TIME ( #284, #238 ) ;
#290 = EDGE_LOOP ( 'NONE', ( #230, #72 ) ) ;
#291 = CIRCLE ( 'NONE', #231, 4.000000000000000000 ) ;
#292 = ORIENTED_EDGE ( 'NONE', *, *, #237, .T. ) ;
#293 = APPROVAL_DATE_TIME ( #199, #314 ) ;
#294 = PRODUCT_DEFINITION ( 'NEZNÁMÝ', '', #309, #254 ) ;
#295 = PLANE ( 'NONE',  #126 ) ;
#296 = VECTOR ( 'NONE', #265, 1000.000000000000000 ) ;
#297 = SECURITY_CLASSIFICATION_LEVEL ( 'unclassified' ) ;
#298 = LINE ( 'NONE', #31, #277 ) ;
#299 = DIRECTION ( 'NONE',  ( -0.000000000000000000, -0.000000000000000000, -1.000000000000000000 ) ) ;
#300 = AXIS2_PLACEMENT_3D ( 'NONE', #227, #347, #20 ) ;
#301 = SHAPE_DEFINITION_REPRESENTATION ( #32, #48 ) ;
#302 = DIRECTION ( 'NONE',  ( -1.000000000000000000, 0.000000000000000000, 0.000000000000000000 ) ) ;
#303 = EDGE_CURVE ( 'NONE', #223, #106, #218, .T. ) ;
#304 = CARTESIAN_POINT ( 'NONE',  ( 0.000000000000000000, 0.000000000000000000, 232.0000000000000000 ) ) ;
#305 = PRODUCT ( '5d48', '5d48', '', ( #139 ) ) ;
#306 = CARTESIAN_POINT ( 'NONE',  ( 0.000000000000000000, 0.000000000000000000, 7.000000000000000000 ) ) ;
#307 = LOCAL_TIME ( 16, 38, 35.00000000000000000, #356 ) ;
#308 = PLANE ( 'NONE',  #131 ) ;
#309 = PRODUCT_DEFINITION_FORMATION_WITH_SPECIFIED_SOURCE ( 'LIBOVOLNÝ', '', #305, .NOT_KNOWN. ) ;
#310 = EDGE_CURVE ( 'NONE', #145, #89, #312, .T. ) ;
#311 = ORIENTED_EDGE ( 'NONE', *, *, #96, .T. ) ;
#312 = LINE ( 'NONE', #11, #53 ) ;
#313 = DIRECTION ( 'NONE',  ( 1.000000000000000000, 0.000000000000000000, 0.000000000000000000 ) ) ;
#314 = APPROVAL ( #225, 'NEURÈENÝ' ) ;
#315 =( GEOMETRIC_REPRESENTATION_CONTEXT ( 3 ) GLOBAL_UNCERTAINTY_ASSIGNED_CONTEXT ( ( #340 ) ) GLOBAL_UNIT_ASSIGNED_CONTEXT ( ( #141, #262, #377 ) ) REPRESENTATION_CONTEXT ( 'NONE', 'WORKASPACE' ) );
#316 = PERSON_AND_ORGANIZATION ( #274, #360 ) ;
#317 = ORIENTED_EDGE ( 'NONE', *, *, #96, .F. ) ;
#318 = ORIENTED_EDGE ( 'NONE', *, *, #224, .F. ) ;
#319 = AXIS2_PLACEMENT_3D ( 'NONE', #281, #135, #335 ) ;
#320 = PERSON_AND_ORGANIZATION_ROLE ( 'design_owner' ) ;
#321 = ORIENTED_EDGE ( 'NONE', *, *, #310, .T. ) ;
#322 = EDGE_CURVE ( 'NONE', #77, #350, #158, .T. ) ;
#323 = APPROVAL_PERSON_ORGANIZATION ( #122, #220, #65 ) ;
#324 = ORIENTED_EDGE ( 'NONE', *, *, #146, .F. ) ;
#325 = PERSON_AND_ORGANIZATION ( #274, #360 ) ;
#326 = FACE_OUTER_BOUND ( 'NONE', #172, .T. ) ;
#327 = PERSON_AND_ORGANIZATION ( #274, #360 ) ;
#328 = DIRECTION ( 'NONE',  ( 1.000000000000000000, 0.000000000000000000, 0.000000000000000000 ) ) ;
#329 = CARTESIAN_POINT ( 'NONE',  ( -6.700000000000001066, 8.205133554287267548E-16, 7.700000000000012612 ) ) ;
#330 = AXIS2_PLACEMENT_3D ( 'NONE', #164, #92, #285 ) ;
#331 = CARTESIAN_POINT ( 'NONE',  ( 6.000000000000000888, 7.347880794884120722E-16, 232.0000000000000000 ) ) ;
#332 = CIRCLE ( 'NONE', #337, 0.7000000000000000666 ) ;
#333 = ORIENTED_EDGE ( 'NONE', *, *, #322, .T. ) ;
#334 = ADVANCED_FACE ( 'NONE', ( #132 ), #88, .F. ) ;
#335 = DIRECTION ( 'NONE',  ( 1.000000000000000000, 0.000000000000000000, 0.000000000000000000 ) ) ;
#336 = VERTEX_POINT ( 'NONE', #137 ) ;
#337 = AXIS2_PLACEMENT_3D ( 'NONE', #329, #208, #101 ) ;
#338 = CARTESIAN_POINT ( 'NONE',  ( -4.000000000000000000, 0.000000000000000000, 0.000000000000000000 ) ) ;
#339 = ORIENTED_EDGE ( 'NONE', *, *, #210, .T. ) ;
#340 = UNCERTAINTY_MEASURE_WITH_UNIT (LENGTH_MEASURE( 1.000000000000000082E-05 ), #141, 'distance_accuracy_value', 'NONE');
#341 = DIRECTION ( 'NONE',  ( 0.000000000000000000, 0.000000000000000000, 1.000000000000000000 ) ) ;
#342 = EDGE_LOOP ( 'NONE', ( #288, #311 ) ) ;
#343 = ORIENTED_EDGE ( 'NONE', *, *, #370, .F. ) ;
#344 = CC_DESIGN_PERSON_AND_ORGANIZATION_ASSIGNMENT ( #163, #320, ( #305 ) ) ;
#345 = DIRECTION ( 'NONE',  ( 1.000000000000000000, 0.000000000000000000, 0.000000000000000000 ) ) ;
#346 = ORIENTED_EDGE ( 'NONE', *, *, #250, .F. ) ;
#347 = DIRECTION ( 'NONE',  ( 0.000000000000000000, 0.000000000000000000, 1.000000000000000000 ) ) ;
#348 = ORIENTED_EDGE ( 'NONE', *, *, #152, .F. ) ;
#349 = CC_DESIGN_SECURITY_CLASSIFICATION ( #287, ( #309 ) ) ;
#350 = VERTEX_POINT ( 'NONE', #37 ) ;
#351 = APPROVAL_STATUS ( 'not_yet_approved' ) ;
#352 = DIRECTION ( 'NONE',  ( -0.000000000000000000, -0.000000000000000000, -1.000000000000000000 ) ) ;
#353 = CC_DESIGN_APPROVAL ( #314, ( #309 ) ) ;
#354 = PERSON_AND_ORGANIZATION_ROLE ( 'design_supplier' ) ;
#355 = FACE_OUTER_BOUND ( 'NONE', #255, .T. ) ;
#356 = COORDINATED_UNIVERSAL_TIME_OFFSET ( 1, 0, .AHEAD. ) ;
#357 = EDGE_CURVE ( 'NONE', #168, #365, #245, .T. ) ;
#358 = CARTESIAN_POINT ( 'NONE',  ( 0.000000000000000000, 0.000000000000000000, 232.0000000000000000 ) ) ;
#359 = DIRECTION ( 'NONE',  ( 0.000000000000000000, 0.000000000000000000, 1.000000000000000000 ) ) ;
#360 = ORGANIZATION ( 'NEURÈENÝ', 'NEURÈENÝ', '' ) ;
#361 = FACE_BOUND ( 'NONE', #290, .T. ) ;
#362 = AXIS2_PLACEMENT_3D ( 'NONE', #174, #68, #6 ) ;
#363 = EDGE_CURVE ( 'NONE', #336, #213, #374, .T. ) ;
#364 = DIRECTION ( 'NONE',  ( 1.000000000000000000, 0.000000000000000000, 0.000000000000000000 ) ) ;
#365 = VERTEX_POINT ( 'NONE', #13 ) ;
#366 = CARTESIAN_POINT ( 'NONE',  ( 0.000000000000000000, 0.000000000000000000, 7.000000000000000000 ) ) ;
#367 = CARTESIAN_POINT ( 'NONE',  ( 0.000000000000000000, 0.000000000000000000, 7.700000000000012612 ) ) ;
#368 = EDGE_LOOP ( 'NONE', ( #84, #378, #26, #318 ) ) ;
#369 = DIRECTION ( 'NONE',  ( 1.000000000000000000, 0.000000000000000000, 0.000000000000000000 ) ) ;
#370 = EDGE_CURVE ( 'NONE', #350, #77, #203, .T. ) ;
#371 = DIRECTION ( 'NONE',  ( 1.000000000000000000, 0.000000000000000000, 0.000000000000000000 ) ) ;
#372 = CIRCLE ( 'NONE', #177, 4.000000000000000000 ) ;
#373 = ORIENTED_EDGE ( 'NONE', *, *, #237, .F. ) ;
#374 = CIRCLE ( 'NONE', #99, 6.700000000000001066 ) ;
#375 = CC_DESIGN_PERSON_AND_ORGANIZATION_ASSIGNMENT ( #325, #67, ( #287 ) ) ;
#376 = EDGE_LOOP ( 'NONE', ( #24, #184 ) ) ;
#377 =( NAMED_UNIT ( * ) SI_UNIT ( $, .STERADIAN. ) SOLID_ANGLE_UNIT ( ) );
#378 = ORIENTED_EDGE ( 'NONE', *, *, #90, .T. ) ;
#379 = AXIS2_PLACEMENT_3D ( 'NONE', #14, #79, #369 ) ;
#380 = EDGE_CURVE ( 'NONE', #142, #261, #12, .T. ) ;
#381 = VERTEX_POINT ( 'NONE', #23 ) ;
ENDSEC;
END-ISO-10303-21;
