ISO-10303-21;
HEADER;
FILE_DESCRIPTION (( 'STEP AP203' ),
    '1' );
FILE_NAME ('b43b.STEP',
    '2022-07-08T14:23:55',
    ( '' ),
    ( '' ),
    'SwSTEP 2.0',
    'SolidWorks 2019',
    '' );
FILE_SCHEMA (( 'CONFIG_CONTROL_DESIGN' ));
ENDSEC;

DATA;
#1 = AXIS2_PLACEMENT_3D ( 'NONE', #209, #150, #245 ) ;
#2 = VERTEX_POINT ( 'NONE', #226 ) ;
#3 = PERSON_AND_ORGANIZATION_ROLE ( 'design_supplier' ) ;
#4 = APPROVAL_STATUS ( 'not_yet_approved' ) ;
#5 = EDGE_CURVE ( 'NONE', #248, #280, #134, .T. ) ;
#6 = CARTESIAN_POINT ( 'NONE',  ( -11.00000000000000000, 0.000000000000000000, 7.000000000000000000 ) ) ;
#7 = CARTESIAN_POINT ( 'NONE',  ( 0.000000000000000000, 0.000000000000000000, 0.000000000000000000 ) ) ;
#8 = CARTESIAN_POINT ( 'NONE',  ( 0.000000000000000000, 0.000000000000000000, 7.700000000000012612 ) ) ;
#9 = DIRECTION ( 'NONE',  ( 0.000000000000000000, 0.000000000000000000, 1.000000000000000000 ) ) ;
#10 = ORIENTED_EDGE ( 'NONE', *, *, #320, .F. ) ;
#11 = PERSON_AND_ORGANIZATION ( #101, #256 ) ;
#12 = ORIENTED_EDGE ( 'NONE', *, *, #131, .F. ) ;
#13 = ORIENTED_EDGE ( 'NONE', *, *, #20, .T. ) ;
#14 = SECURITY_CLASSIFICATION ( '', '', #249 ) ;
#15 = ADVANCED_FACE ( 'NONE', ( #200 ), #345, .T. ) ;
#16 = ORIENTED_EDGE ( 'NONE', *, *, #98, .F. ) ;
#17 = CYLINDRICAL_SURFACE ( 'NONE', #310, 11.00000000000000000 ) ;
#18 = AXIS2_PLACEMENT_3D ( 'NONE', #205, #159, #303 ) ;
#19 = CARTESIAN_POINT ( 'NONE',  ( 0.000000000000000000, 0.000000000000000000, 0.000000000000000000 ) ) ;
#20 = EDGE_CURVE ( 'NONE', #155, #279, #199, .T. ) ;
#21 = FACE_OUTER_BOUND ( 'NONE', #188, .T. ) ;
#22 =( LENGTH_UNIT ( ) NAMED_UNIT ( * ) SI_UNIT ( .MILLI., .METRE. ) );
#23 = DESIGN_CONTEXT ( 'detailed design', #24, 'design' ) ;
#24 = APPLICATION_CONTEXT ( 'configuration controlled 3d designs of mechanical parts and assemblies' ) ;
#25 = CARTESIAN_POINT ( 'NONE',  ( -7.700000000000001066, 9.429780353434621002E-16, 7.700000000000012612 ) ) ;
#26 = CC_DESIGN_APPROVAL ( #31, ( #14 ) ) ;
#27 = DIRECTION ( 'NONE',  ( -0.000000000000000000, -0.000000000000000000, -1.000000000000000000 ) ) ;
#28 = DIRECTION ( 'NONE',  ( 1.000000000000000000, 0.000000000000000000, 0.000000000000000000 ) ) ;
#29 = ORIENTED_EDGE ( 'NONE', *, *, #5, .F. ) ;
#30 = COORDINATED_UNIVERSAL_TIME_OFFSET ( 1, 0, .AHEAD. ) ;
#31 = APPROVAL ( #370, 'NEURÈENÝ' ) ;
#32 = ORIENTED_EDGE ( 'NONE', *, *, #295, .F. ) ;
#33 = PERSON_AND_ORGANIZATION_ROLE ( 'design_owner' ) ;
#34 = MECHANICAL_CONTEXT ( 'NONE', #327, 'mechanical' ) ;
#35 = PRODUCT_DEFINITION_FORMATION_WITH_SPECIFIED_SOURCE ( 'LIBOVOLNÝ', '', #138, .NOT_KNOWN. ) ;
#36 = CARTESIAN_POINT ( 'NONE',  ( 7.700000000000001066, 0.000000000000000000, 7.700000000000012612 ) ) ;
#37 = DATE_AND_TIME ( #306, #352 ) ;
#38 = ORIENTED_EDGE ( 'NONE', *, *, #230, .F. ) ;
#39 = CARTESIAN_POINT ( 'NONE',  ( 0.000000000000000000, 0.000000000000000000, 7.000000000000000000 ) ) ;
#40 = ORIENTED_EDGE ( 'NONE', *, *, #68, .T. ) ;
#41 = AXIS2_PLACEMENT_3D ( 'NONE', #170, #237, #74 ) ;
#42 = DIRECTION ( 'NONE',  ( -0.000000000000000000, -0.000000000000000000, -1.000000000000000000 ) ) ;
#43 = CIRCLE ( 'NONE', #110, 5.000000000000000000 ) ;
#44 = EDGE_LOOP ( 'NONE', ( #149, #338 ) ) ;
#45 = CARTESIAN_POINT ( 'NONE',  ( 5.000000000000000000, 6.123233995736766282E-16, 0.000000000000000000 ) ) ;
#46 = DIRECTION ( 'NONE',  ( 1.000000000000000000, 0.000000000000000000, 0.000000000000000000 ) ) ;
#47 = EDGE_CURVE ( 'NONE', #72, #155, #109, .T. ) ;
#48 = CC_DESIGN_PERSON_AND_ORGANIZATION_ASSIGNMENT ( #89, #171, ( #14 ) ) ;
#49 = LOCAL_TIME ( 16, 23, 55.00000000000000000, #341 ) ;
#50 = CARTESIAN_POINT ( 'NONE',  ( -11.00000000000000000, 0.000000000000000000, 7.000000000000000000 ) ) ;
#51 = EDGE_CURVE ( 'NONE', #250, #279, #75, .T. ) ;
#52 = DIRECTION ( 'NONE',  ( -1.000000000000000000, 1.224646799147351975E-16, 0.000000000000000000 ) ) ;
#53 = CC_DESIGN_PERSON_AND_ORGANIZATION_ASSIGNMENT ( #272, #3, ( #35 ) ) ;
#54 = DIRECTION ( 'NONE',  ( 1.000000000000000000, 0.000000000000000000, 0.000000000000000000 ) ) ;
#55 = AXIS2_PLACEMENT_3D ( 'NONE', #228, #9, #196 ) ;
#56 = CC_DESIGN_SECURITY_CLASSIFICATION ( #14, ( #35 ) ) ;
#57 = CARTESIAN_POINT ( 'NONE',  ( 0.000000000000000000, 0.000000000000000000, 182.0000000000000000 ) ) ;
#58 = EDGE_LOOP ( 'NONE', ( #229, #40, #202, #88 ) ) ;
#59 = DATE_AND_TIME ( #326, #77 ) ;
#60 = VERTEX_POINT ( 'NONE', #45 ) ;
#61 = APPLICATION_PROTOCOL_DEFINITION ( 'international standard', 'config_control_design', 1994, #24 ) ;
#62 = DIRECTION ( 'NONE',  ( 0.000000000000000000, 0.000000000000000000, 1.000000000000000000 ) ) ;
#63 = DIRECTION ( 'NONE',  ( 0.000000000000000000, 0.000000000000000000, 1.000000000000000000 ) ) ;
#64 = ORIENTED_EDGE ( 'NONE', *, *, #51, .T. ) ;
#65 = CARTESIAN_POINT ( 'NONE',  ( 0.000000000000000000, 0.000000000000000000, 7.000000000000000000 ) ) ;
#66 = EDGE_LOOP ( 'NONE', ( #304, #340, #301, #97 ) ) ;
#67 = PRODUCT_RELATED_PRODUCT_CATEGORY ( 'detail', '', ( #138 ) ) ;
#68 = EDGE_CURVE ( 'NONE', #84, #72, #243, .T. ) ;
#69 = ORIENTED_EDGE ( 'NONE', *, *, #206, .T. ) ;
#70 = EDGE_LOOP ( 'NONE', ( #221, #213, #126, #342 ) ) ;
#71 = VECTOR ( 'NONE', #214, 1000.000000000000000 ) ;
#72 = VERTEX_POINT ( 'NONE', #208 ) ;
#73 = DATE_TIME_ROLE ( 'classification_date' ) ;
#74 = DIRECTION ( 'NONE',  ( 1.000000000000000000, 0.000000000000000000, 0.000000000000000000 ) ) ;
#75 = CIRCLE ( 'NONE', #130, 0.7000000000000000666 ) ;
#76 = FACE_BOUND ( 'NONE', #166, .T. ) ;
#77 = LOCAL_TIME ( 16, 23, 55.00000000000000000, #85 ) ;
#78 = DIRECTION ( 'NONE',  ( 0.000000000000000000, 0.000000000000000000, 1.000000000000000000 ) ) ;
#79 = DIRECTION ( 'NONE',  ( 0.000000000000000000, 0.000000000000000000, -1.000000000000000000 ) ) ;
#80 = LINE ( 'NONE', #321, #71 ) ;
#81 = TOROIDAL_SURFACE ( 'NONE', #241, 7.700000000000001066, 0.6999999999999999556 ) ;
#82 = AXIS2_PLACEMENT_3D ( 'NONE', #154, #121, #220 ) ;
#83 = ADVANCED_BREP_SHAPE_REPRESENTATION ( 'b43b', ( #324, #104 ), #233 ) ;
#84 = VERTEX_POINT ( 'NONE', #292 ) ;
#85 = COORDINATED_UNIVERSAL_TIME_OFFSET ( 1, 0, .AHEAD. ) ;
#86 = CIRCLE ( 'NONE', #82, 11.00000000000000000 ) ;
#87 = CARTESIAN_POINT ( 'NONE',  ( 0.000000000000000000, 0.000000000000000000, 0.000000000000000000 ) ) ;
#88 = ORIENTED_EDGE ( 'NONE', *, *, #252, .F. ) ;
#89 = PERSON_AND_ORGANIZATION ( #101, #256 ) ;
#90 = AXIS2_PLACEMENT_3D ( 'NONE', #240, #78, #116 ) ;
#91 = CC_DESIGN_PERSON_AND_ORGANIZATION_ASSIGNMENT ( #362, #298, ( #113 ) ) ;
#92 = PERSON_AND_ORGANIZATION ( #101, #256 ) ;
#93 = VERTEX_POINT ( 'NONE', #315 ) ;
#94 = FACE_OUTER_BOUND ( 'NONE', #66, .T. ) ;
#95 = CIRCLE ( 'NONE', #318, 5.000000000000000000 ) ;
#96 = CC_DESIGN_APPROVAL ( #112, ( #35 ) ) ;
#97 = ORIENTED_EDGE ( 'NONE', *, *, #98, .T. ) ;
#98 = EDGE_CURVE ( 'NONE', #250, #72, #165, .T. ) ;
#99 = DIRECTION ( 'NONE',  ( -0.000000000000000000, -0.000000000000000000, -1.000000000000000000 ) ) ;
#100 = CIRCLE ( 'NONE', #41, 7.000000000000000888 ) ;
#101 = PERSON ( 'NEURÈENÝ', 'NEURÈENÝ', 'NEURÈENÝ', ('NEURÈENÝ'), ('NEURÈENÝ'), ('NEURÈENÝ') ) ;
#102 = APPROVAL_DATE_TIME ( #135, #31 ) ;
#103 = CARTESIAN_POINT ( 'NONE',  ( 0.000000000000000000, 0.000000000000000000, 7.000000000000000000 ) ) ;
#104 = AXIS2_PLACEMENT_3D ( 'NONE', #7, #296, #183 ) ;
#105 = FACE_OUTER_BOUND ( 'NONE', #44, .T. ) ;
#106 = DIRECTION ( 'NONE',  ( 0.000000000000000000, 0.000000000000000000, 1.000000000000000000 ) ) ;
#107 = CARTESIAN_POINT ( 'NONE',  ( 0.000000000000000000, 0.000000000000000000, 182.0000000000000000 ) ) ;
#108 = CARTESIAN_POINT ( 'NONE',  ( 0.000000000000000000, 0.000000000000000000, 7.700000000000012612 ) ) ;
#109 = CIRCLE ( 'NONE', #224, 0.7000000000000000666 ) ;
#110 = AXIS2_PLACEMENT_3D ( 'NONE', #19, #307, #46 ) ;
#111 = DIRECTION ( 'NONE',  ( 0.000000000000000000, 0.000000000000000000, 1.000000000000000000 ) ) ;
#112 = APPROVAL ( #4, 'NEURÈENÝ' ) ;
#113 = PRODUCT_DEFINITION ( 'NEZNÁMÝ', '', #35, #23 ) ;
#114 = CARTESIAN_POINT ( 'NONE',  ( -7.700000000000001066, 9.429780353434621002E-16, 7.000000000000006217 ) ) ;
#115 = DIRECTION ( 'NONE',  ( 1.000000000000000000, 0.000000000000000000, 0.000000000000000000 ) ) ;
#116 = DIRECTION ( 'NONE',  ( 1.000000000000000000, 0.000000000000000000, 0.000000000000000000 ) ) ;
#117 = EDGE_CURVE ( 'NONE', #84, #255, #100, .T. ) ;
#118 = CIRCLE ( 'NONE', #351, 11.00000000000000000 ) ;
#119 = ORIENTED_EDGE ( 'NONE', *, *, #47, .F. ) ;
#120 = APPROVAL_DATE_TIME ( #37, #112 ) ;
#121 = DIRECTION ( 'NONE',  ( 0.000000000000000000, 0.000000000000000000, 1.000000000000000000 ) ) ;
#122 = ADVANCED_FACE ( 'NONE', ( #349 ), #17, .T. ) ;
#123 = CIRCLE ( 'NONE', #343, 11.00000000000000000 ) ;
#124 = AXIS2_PLACEMENT_3D ( 'NONE', #103, #167, #234 ) ;
#125 = FACE_OUTER_BOUND ( 'NONE', #361, .T. ) ;
#126 = ORIENTED_EDGE ( 'NONE', *, *, #131, .T. ) ;
#127 = CIRCLE ( 'NONE', #179, 5.000000000000000000 ) ;
#128 = APPLICATION_PROTOCOL_DEFINITION ( 'international standard', 'config_control_design', 1994, #327 ) ;
#129 = ORIENTED_EDGE ( 'NONE', *, *, #20, .F. ) ;
#130 = AXIS2_PLACEMENT_3D ( 'NONE', #25, #373, #52 ) ;
#131 = EDGE_CURVE ( 'NONE', #280, #2, #123, .T. ) ;
#132 = ORIENTED_EDGE ( 'NONE', *, *, #288, .F. ) ;
#133 = CIRCLE ( 'NONE', #1, 7.000000000000000888 ) ;
#134 = LINE ( 'NONE', #197, #335 ) ;
#135 = DATE_AND_TIME ( #140, #227 ) ;
#136 = ORIENTED_EDGE ( 'NONE', *, *, #230, .T. ) ;
#137 = COORDINATED_UNIVERSAL_TIME_OFFSET ( 1, 0, .AHEAD. ) ;
#138 = PRODUCT ( 'b43b', 'b43b', '', ( #34 ) ) ;
#139 = ORIENTED_EDGE ( 'NONE', *, *, #344, .T. ) ;
#140 = CALENDAR_DATE ( 2022, 8, 7 ) ;
#141 = DIRECTION ( 'NONE',  ( -0.000000000000000000, -0.000000000000000000, -1.000000000000000000 ) ) ;
#142 = CARTESIAN_POINT ( 'NONE',  ( -7.000000000000000888, 0.000000000000000000, 7.700000000000012612 ) ) ;
#143 = FACE_OUTER_BOUND ( 'NONE', #368, .T. ) ;
#144 = CARTESIAN_POINT ( 'NONE',  ( 0.000000000000000000, 0.000000000000000000, 182.0000000000000000 ) ) ;
#145 = AXIS2_PLACEMENT_3D ( 'NONE', #57, #111, #293 ) ;
#146 = FACE_BOUND ( 'NONE', #195, .T. ) ;
#147 = UNCERTAINTY_MEASURE_WITH_UNIT (LENGTH_MEASURE( 1.000000000000000082E-05 ), #22, 'distance_accuracy_value', 'NONE');
#148 = PLANE ( 'NONE',  #269 ) ;
#149 = ORIENTED_EDGE ( 'NONE', *, *, #161, .T. ) ;
#150 = DIRECTION ( 'NONE',  ( 0.000000000000000000, 0.000000000000000000, 1.000000000000000000 ) ) ;
#151 = VERTEX_POINT ( 'NONE', #356 ) ;
#152 =( NAMED_UNIT ( * ) SI_UNIT ( $, .STERADIAN. ) SOLID_ANGLE_UNIT ( ) );
#153 = VECTOR ( 'NONE', #323, 1000.000000000000000 ) ;
#154 = CARTESIAN_POINT ( 'NONE',  ( 0.000000000000000000, 0.000000000000000000, 7.000000000000000000 ) ) ;
#155 = VERTEX_POINT ( 'NONE', #211 ) ;
#156 = PERSON_AND_ORGANIZATION ( #101, #256 ) ;
#157 = DIRECTION ( 'NONE',  ( 1.000000000000000000, 0.000000000000000000, 0.000000000000000000 ) ) ;
#158 = CC_DESIGN_APPROVAL ( #247, ( #113 ) ) ;
#159 = DIRECTION ( 'NONE',  ( 0.000000000000000000, 0.000000000000000000, -1.000000000000000000 ) ) ;
#160 = ORIENTED_EDGE ( 'NONE', *, *, #295, .T. ) ;
#161 = EDGE_CURVE ( 'NONE', #168, #248, #86, .T. ) ;
#162 = CC_DESIGN_PERSON_AND_ORGANIZATION_ASSIGNMENT ( #11, #328, ( #35 ) ) ;
#163 = EDGE_LOOP ( 'NONE', ( #330, #325 ) ) ;
#164 = DIRECTION ( 'NONE',  ( 1.000000000000000000, 0.000000000000000000, 0.000000000000000000 ) ) ;
#165 = CIRCLE ( 'NONE', #216, 7.000000000000000888 ) ;
#166 = EDGE_LOOP ( 'NONE', ( #13, #160 ) ) ;
#167 = DIRECTION ( 'NONE',  ( -0.000000000000000000, -0.000000000000000000, -1.000000000000000000 ) ) ;
#168 = VERTEX_POINT ( 'NONE', #6 ) ;
#169 = APPROVAL_ROLE ( '' ) ;
#170 = CARTESIAN_POINT ( 'NONE',  ( 0.000000000000000000, 0.000000000000000000, 182.0000000000000000 ) ) ;
#171 = PERSON_AND_ORGANIZATION_ROLE ( 'classification_officer' ) ;
#172 = CIRCLE ( 'NONE', #145, 5.000000000000000000 ) ;
#173 = DIRECTION ( 'NONE',  ( 0.000000000000000000, -1.000000000000000000, 0.000000000000000000 ) ) ;
#174 = DIRECTION ( 'NONE',  ( 1.000000000000000000, 0.000000000000000000, -0.000000000000000000 ) ) ;
#175 = CC_DESIGN_DATE_AND_TIME_ASSIGNMENT ( #182, #253, ( #113 ) ) ;
#176 = ADVANCED_FACE ( 'NONE', ( #125 ), #81, .F. ) ;
#177 = CARTESIAN_POINT ( 'NONE',  ( 0.000000000000000000, 0.000000000000000000, 0.000000000000000000 ) ) ;
#178 = DIRECTION ( 'NONE',  ( -0.000000000000000000, -0.000000000000000000, -1.000000000000000000 ) ) ;
#179 = AXIS2_PLACEMENT_3D ( 'NONE', #355, #265, #357 ) ;
#180 = DIRECTION ( 'NONE',  ( -0.000000000000000000, -0.000000000000000000, -1.000000000000000000 ) ) ;
#181 = APPROVAL_PERSON_ORGANIZATION ( #198, #31, #169 ) ;
#182 = DATE_AND_TIME ( #365, #372 ) ;
#183 = DIRECTION ( 'NONE',  ( 1.000000000000000000, 0.000000000000000000, 0.000000000000000000 ) ) ;
#184 = TOROIDAL_SURFACE ( 'NONE', #90, 7.700000000000001066, 0.6999999999999999556 ) ;
#185 = EDGE_CURVE ( 'NONE', #255, #84, #305, .T. ) ;
#186 = ADVANCED_FACE ( 'NONE', ( #194 ), #347, .T. ) ;
#187 = EDGE_LOOP ( 'NONE', ( #201, #359, #259, #136 ) ) ;
#188 = EDGE_LOOP ( 'NONE', ( #367, #10, #281, #32 ) ) ;
#189 = APPROVAL_DATE_TIME ( #59, #247 ) ;
#190 = DIRECTION ( 'NONE',  ( -0.000000000000000000, -0.000000000000000000, -1.000000000000000000 ) ) ;
#191 = APPROVAL_ROLE ( '' ) ;
#192 = ADVANCED_FACE ( 'NONE', ( #94 ), #346, .T. ) ;
#193 = AXIS2_PLACEMENT_3D ( 'NONE', #65, #261, #157 ) ;
#194 = FACE_OUTER_BOUND ( 'NONE', #70, .T. ) ;
#195 = EDGE_LOOP ( 'NONE', ( #309, #218 ) ) ;
#196 = DIRECTION ( 'NONE',  ( 1.000000000000000000, 0.000000000000000000, -0.000000000000000000 ) ) ;
#197 = CARTESIAN_POINT ( 'NONE',  ( 11.00000000000000000, 1.347111479062088405E-15, 7.000000000000000000 ) ) ;
#198 = PERSON_AND_ORGANIZATION ( #101, #256 ) ;
#199 = CIRCLE ( 'NONE', #124, 7.700000000000001066 ) ;
#200 = FACE_OUTER_BOUND ( 'NONE', #58, .T. ) ;
#201 = ORIENTED_EDGE ( 'NONE', *, *, #282, .F. ) ;
#202 = ORIENTED_EDGE ( 'NONE', *, *, #320, .T. ) ;
#203 = SHAPE_DEFINITION_REPRESENTATION ( #380, #83 ) ;
#204 = DIRECTION ( 'NONE',  ( -1.000000000000000000, 0.000000000000000000, 0.000000000000000000 ) ) ;
#205 = CARTESIAN_POINT ( 'NONE',  ( 0.000000000000000000, 0.000000000000000000, 182.0000000000000000 ) ) ;
#206 = EDGE_CURVE ( 'NONE', #2, #280, #118, .T. ) ;
#207 = ADVANCED_FACE ( 'NONE', ( #76, #105 ), #363, .T. ) ;
#208 = CARTESIAN_POINT ( 'NONE',  ( 7.000000000000000888, 8.572527594031474176E-16, 7.700000000000012612 ) ) ;
#209 = CARTESIAN_POINT ( 'NONE',  ( 0.000000000000000000, 0.000000000000000000, 7.700000000000012612 ) ) ;
#210 = DIRECTION ( 'NONE',  ( 0.000000000000000000, 0.000000000000000000, 1.000000000000000000 ) ) ;
#211 = CARTESIAN_POINT ( 'NONE',  ( 7.700000000000001066, 0.000000000000000000, 7.000000000000006217 ) ) ;
#212 = LINE ( 'NONE', #50, #153 ) ;
#213 = ORIENTED_EDGE ( 'NONE', *, *, #5, .T. ) ;
#214 = DIRECTION ( 'NONE',  ( 0.000000000000000000, 0.000000000000000000, -1.000000000000000000 ) ) ;
#215 = ADVANCED_FACE ( 'NONE', ( #316 ), #263, .F. ) ;
#216 = AXIS2_PLACEMENT_3D ( 'NONE', #108, #106, #115 ) ;
#217 = DIRECTION ( 'NONE',  ( 0.000000000000000000, 0.000000000000000000, 1.000000000000000000 ) ) ;
#218 = ORIENTED_EDGE ( 'NONE', *, *, #322, .F. ) ;
#219 = AXIS2_PLACEMENT_3D ( 'NONE', #381, #63, #317 ) ;
#220 = DIRECTION ( 'NONE',  ( 1.000000000000000000, 0.000000000000000000, 0.000000000000000000 ) ) ;
#221 = ORIENTED_EDGE ( 'NONE', *, *, #242, .F. ) ;
#222 = DIRECTION ( 'NONE',  ( 0.000000000000000000, 0.000000000000000000, -1.000000000000000000 ) ) ;
#223 =( NAMED_UNIT ( * ) PLANE_ANGLE_UNIT ( ) SI_UNIT ( $, .RADIAN. ) );
#224 = AXIS2_PLACEMENT_3D ( 'NONE', #36, #173, #286 ) ;
#225 = DIRECTION ( 'NONE',  ( -1.000000000000000000, 0.000000000000000000, 0.000000000000000000 ) ) ;
#226 = CARTESIAN_POINT ( 'NONE',  ( -11.00000000000000000, 0.000000000000000000, 0.000000000000000000 ) ) ;
#227 = LOCAL_TIME ( 16, 23, 55.00000000000000000, #137 ) ;
#228 = CARTESIAN_POINT ( 'NONE',  ( 0.000000000000000000, 0.000000000000000000, 7.000000000000000000 ) ) ;
#229 = ORIENTED_EDGE ( 'NONE', *, *, #117, .F. ) ;
#230 = EDGE_CURVE ( 'NONE', #151, #60, #43, .T. ) ;
#231 = ORIENTED_EDGE ( 'NONE', *, *, #206, .F. ) ;
#232 = ORIENTED_EDGE ( 'NONE', *, *, #302, .T. ) ;
#233 =( GEOMETRIC_REPRESENTATION_CONTEXT ( 3 ) GLOBAL_UNCERTAINTY_ASSIGNED_CONTEXT ( ( #147 ) ) GLOBAL_UNIT_ASSIGNED_CONTEXT ( ( #22, #223, #152 ) ) REPRESENTATION_CONTEXT ( 'NONE', 'WORKASPACE' ) );
#234 = DIRECTION ( 'NONE',  ( 1.000000000000000000, 0.000000000000000000, 0.000000000000000000 ) ) ;
#235 = DATE_AND_TIME ( #260, #49 ) ;
#236 = CARTESIAN_POINT ( 'NONE',  ( 11.00000000000000000, 1.347111479062088405E-15, 7.000000000000000000 ) ) ;
#237 = DIRECTION ( 'NONE',  ( 0.000000000000000000, 0.000000000000000000, 1.000000000000000000 ) ) ;
#238 = EDGE_CURVE ( 'NONE', #254, #151, #339, .T. ) ;
#239 = CARTESIAN_POINT ( 'NONE',  ( -7.000000000000000888, 0.000000000000000000, 182.0000000000000000 ) ) ;
#240 = CARTESIAN_POINT ( 'NONE',  ( 0.000000000000000000, 0.000000000000000000, 7.700000000000012612 ) ) ;
#241 = AXIS2_PLACEMENT_3D ( 'NONE', #8, #62, #275 ) ;
#242 = EDGE_CURVE ( 'NONE', #248, #168, #312, .T. ) ;
#243 = LINE ( 'NONE', #353, #348 ) ;
#244 = CYLINDRICAL_SURFACE ( 'NONE', #251, 5.000000000000000000 ) ;
#245 = DIRECTION ( 'NONE',  ( 1.000000000000000000, 0.000000000000000000, 0.000000000000000000 ) ) ;
#246 = AXIS2_PLACEMENT_3D ( 'NONE', #267, #180, #28 ) ;
#247 = APPROVAL ( #360, 'NEURÈENÝ' ) ;
#248 = VERTEX_POINT ( 'NONE', #236 ) ;
#249 = SECURITY_CLASSIFICATION_LEVEL ( 'unclassified' ) ;
#250 = VERTEX_POINT ( 'NONE', #142 ) ;
#251 = AXIS2_PLACEMENT_3D ( 'NONE', #289, #79, #294 ) ;
#252 = EDGE_CURVE ( 'NONE', #255, #250, #374, .T. ) ;
#253 = DATE_TIME_ROLE ( 'creation_date' ) ;
#254 = VERTEX_POINT ( 'NONE', #378 ) ;
#255 = VERTEX_POINT ( 'NONE', #319 ) ;
#256 = ORGANIZATION ( 'NEURÈENÝ', 'NEURÈENÝ', '' ) ;
#257 = EDGE_LOOP ( 'NONE', ( #232, #313, #277, #271 ) ) ;
#258 = CC_DESIGN_DATE_AND_TIME_ASSIGNMENT ( #235, #73, ( #14 ) ) ;
#259 = ORIENTED_EDGE ( 'NONE', *, *, #238, .T. ) ;
#260 = CALENDAR_DATE ( 2022, 8, 7 ) ;
#261 = DIRECTION ( 'NONE',  ( 0.000000000000000000, 0.000000000000000000, 1.000000000000000000 ) ) ;
#262 = AXIS2_PLACEMENT_3D ( 'NONE', #107, #278, #225 ) ;
#263 = CYLINDRICAL_SURFACE ( 'NONE', #18, 5.000000000000000000 ) ;
#264 = CARTESIAN_POINT ( 'NONE',  ( 0.000000000000000000, 0.000000000000000000, 0.000000000000000000 ) ) ;
#265 = DIRECTION ( 'NONE',  ( 0.000000000000000000, 0.000000000000000000, 1.000000000000000000 ) ) ;
#266 = CIRCLE ( 'NONE', #246, 7.700000000000001066 ) ;
#267 = CARTESIAN_POINT ( 'NONE',  ( 0.000000000000000000, 0.000000000000000000, 7.000000000000000000 ) ) ;
#268 = ADVANCED_FACE ( 'NONE', ( #146, #350 ), #148, .T. ) ;
#269 = AXIS2_PLACEMENT_3D ( 'NONE', #144, #354, #174 ) ;
#270 = ADVANCED_FACE ( 'NONE', ( #379, #143 ), #287, .F. ) ;
#271 = ORIENTED_EDGE ( 'NONE', *, *, #238, .F. ) ;
#272 = PERSON_AND_ORGANIZATION ( #101, #256 ) ;
#273 = CLOSED_SHELL ( 'NONE', ( #215, #176, #15, #186, #122, #207, #270, #192, #268, #299, #314 ) ) ;
#274 = APPROVAL_PERSON_ORGANIZATION ( #156, #247, #331 ) ;
#275 = DIRECTION ( 'NONE',  ( 1.000000000000000000, 0.000000000000000000, 0.000000000000000000 ) ) ;
#276 = CARTESIAN_POINT ( 'NONE',  ( -5.000000000000000000, 0.000000000000000000, 182.0000000000000000 ) ) ;
#277 = ORIENTED_EDGE ( 'NONE', *, *, #288, .T. ) ;
#278 = DIRECTION ( 'NONE',  ( -0.000000000000000000, -0.000000000000000000, -1.000000000000000000 ) ) ;
#279 = VERTEX_POINT ( 'NONE', #114 ) ;
#280 = VERTEX_POINT ( 'NONE', #376 ) ;
#281 = ORIENTED_EDGE ( 'NONE', *, *, #47, .T. ) ;
#282 = EDGE_CURVE ( 'NONE', #93, #60, #80, .T. ) ;
#283 = CARTESIAN_POINT ( 'NONE',  ( 0.000000000000000000, 0.000000000000000000, 7.000000000000000000 ) ) ;
#284 = CARTESIAN_POINT ( 'NONE',  ( 0.000000000000000000, 0.000000000000000000, 0.000000000000000000 ) ) ;
#285 = APPROVAL_PERSON_ORGANIZATION ( #92, #112, #191 ) ;
#286 = DIRECTION ( 'NONE',  ( 0.000000000000000000, 0.000000000000000000, -1.000000000000000000 ) ) ;
#287 = PLANE ( 'NONE',  #377 ) ;
#288 = EDGE_CURVE ( 'NONE', #60, #151, #95, .T. ) ;
#289 = CARTESIAN_POINT ( 'NONE',  ( 0.000000000000000000, 0.000000000000000000, 182.0000000000000000 ) ) ;
#290 = DIRECTION ( 'NONE',  ( 1.000000000000000000, 0.000000000000000000, -0.000000000000000000 ) ) ;
#291 = VECTOR ( 'NONE', #190, 1000.000000000000000 ) ;
#292 = CARTESIAN_POINT ( 'NONE',  ( 7.000000000000000888, 8.572527594031474176E-16, 182.0000000000000000 ) ) ;
#293 = DIRECTION ( 'NONE',  ( 1.000000000000000000, 0.000000000000000000, 0.000000000000000000 ) ) ;
#294 = DIRECTION ( 'NONE',  ( -1.000000000000000000, 0.000000000000000000, 0.000000000000000000 ) ) ;
#295 = EDGE_CURVE ( 'NONE', #279, #155, #266, .T. ) ;
#296 = DIRECTION ( 'NONE',  ( 0.000000000000000000, 0.000000000000000000, 1.000000000000000000 ) ) ;
#297 = AXIS2_PLACEMENT_3D ( 'NONE', #39, #334, #366 ) ;
#298 = PERSON_AND_ORGANIZATION_ROLE ( 'creator' ) ;
#299 = ADVANCED_FACE ( 'NONE', ( #21 ), #184, .F. ) ;
#300 = DIRECTION ( 'NONE',  ( 1.000000000000000000, 0.000000000000000000, 0.000000000000000000 ) ) ;
#301 = ORIENTED_EDGE ( 'NONE', *, *, #252, .T. ) ;
#302 = EDGE_CURVE ( 'NONE', #254, #93, #172, .T. ) ;
#303 = DIRECTION ( 'NONE',  ( -1.000000000000000000, 0.000000000000000000, 0.000000000000000000 ) ) ;
#304 = ORIENTED_EDGE ( 'NONE', *, *, #68, .F. ) ;
#305 = CIRCLE ( 'NONE', #219, 7.000000000000000888 ) ;
#306 = CALENDAR_DATE ( 2022, 8, 7 ) ;
#307 = DIRECTION ( 'NONE',  ( -0.000000000000000000, -0.000000000000000000, -1.000000000000000000 ) ) ;
#308 = EDGE_LOOP ( 'NONE', ( #29, #364, #139, #69 ) ) ;
#309 = ORIENTED_EDGE ( 'NONE', *, *, #302, .F. ) ;
#310 = AXIS2_PLACEMENT_3D ( 'NONE', #283, #141, #204 ) ;
#311 = CARTESIAN_POINT ( 'NONE',  ( 0.000000000000000000, 0.000000000000000000, 182.0000000000000000 ) ) ;
#312 = CIRCLE ( 'NONE', #193, 11.00000000000000000 ) ;
#313 = ORIENTED_EDGE ( 'NONE', *, *, #282, .T. ) ;
#314 = ADVANCED_FACE ( 'NONE', ( #358 ), #244, .F. ) ;
#315 = CARTESIAN_POINT ( 'NONE',  ( 5.000000000000000000, 6.123233995736766282E-16, 182.0000000000000000 ) ) ;
#316 = FACE_OUTER_BOUND ( 'NONE', #257, .T. ) ;
#317 = DIRECTION ( 'NONE',  ( 1.000000000000000000, 0.000000000000000000, 0.000000000000000000 ) ) ;
#318 = AXIS2_PLACEMENT_3D ( 'NONE', #177, #27, #54 ) ;
#319 = CARTESIAN_POINT ( 'NONE',  ( -7.000000000000000888, 0.000000000000000000, 182.0000000000000000 ) ) ;
#320 = EDGE_CURVE ( 'NONE', #72, #250, #133, .T. ) ;
#321 = CARTESIAN_POINT ( 'NONE',  ( 5.000000000000000000, 6.123233995736766282E-16, 182.0000000000000000 ) ) ;
#322 = EDGE_CURVE ( 'NONE', #93, #254, #127, .T. ) ;
#323 = DIRECTION ( 'NONE',  ( -0.000000000000000000, -0.000000000000000000, -1.000000000000000000 ) ) ;
#324 = MANIFOLD_SOLID_BREP ( 'Odebrat vysunutím3', #273 ) ;
#325 = ORIENTED_EDGE ( 'NONE', *, *, #117, .T. ) ;
#326 = CALENDAR_DATE ( 2022, 8, 7 ) ;
#327 = APPLICATION_CONTEXT ( 'configuration controlled 3d designs of mechanical parts and assemblies' ) ;
#328 = PERSON_AND_ORGANIZATION_ROLE ( 'creator' ) ;
#329 = VECTOR ( 'NONE', #222, 1000.000000000000000 ) ;
#330 = ORIENTED_EDGE ( 'NONE', *, *, #185, .T. ) ;
#331 = APPROVAL_ROLE ( '' ) ;
#332 = CC_DESIGN_PERSON_AND_ORGANIZATION_ASSIGNMENT ( #333, #33, ( #138 ) ) ;
#333 = PERSON_AND_ORGANIZATION ( #101, #256 ) ;
#334 = DIRECTION ( 'NONE',  ( -0.000000000000000000, -0.000000000000000000, -1.000000000000000000 ) ) ;
#335 = VECTOR ( 'NONE', #99, 1000.000000000000000 ) ;
#336 = COORDINATED_UNIVERSAL_TIME_OFFSET ( 1, 0, .AHEAD. ) ;
#337 = DIRECTION ( 'NONE',  ( 0.000000000000000000, 0.000000000000000000, 1.000000000000000000 ) ) ;
#338 = ORIENTED_EDGE ( 'NONE', *, *, #242, .T. ) ;
#339 = LINE ( 'NONE', #276, #329 ) ;
#340 = ORIENTED_EDGE ( 'NONE', *, *, #185, .F. ) ;
#341 = COORDINATED_UNIVERSAL_TIME_OFFSET ( 1, 0, .AHEAD. ) ;
#342 = ORIENTED_EDGE ( 'NONE', *, *, #344, .F. ) ;
#343 = AXIS2_PLACEMENT_3D ( 'NONE', #87, #217, #300 ) ;
#344 = EDGE_CURVE ( 'NONE', #168, #2, #212, .T. ) ;
#345 = CYLINDRICAL_SURFACE ( 'NONE', #375, 7.000000000000000888 ) ;
#346 = CYLINDRICAL_SURFACE ( 'NONE', #262, 7.000000000000000888 ) ;
#347 = CYLINDRICAL_SURFACE ( 'NONE', #297, 11.00000000000000000 ) ;
#348 = VECTOR ( 'NONE', #178, 1000.000000000000000 ) ;
#349 = FACE_OUTER_BOUND ( 'NONE', #308, .T. ) ;
#350 = FACE_OUTER_BOUND ( 'NONE', #163, .T. ) ;
#351 = AXIS2_PLACEMENT_3D ( 'NONE', #284, #337, #164 ) ;
#352 = LOCAL_TIME ( 16, 23, 55.00000000000000000, #30 ) ;
#353 = CARTESIAN_POINT ( 'NONE',  ( 7.000000000000000888, 8.572527594031474176E-16, 182.0000000000000000 ) ) ;
#354 = DIRECTION ( 'NONE',  ( 0.000000000000000000, 0.000000000000000000, 1.000000000000000000 ) ) ;
#355 = CARTESIAN_POINT ( 'NONE',  ( 0.000000000000000000, 0.000000000000000000, 182.0000000000000000 ) ) ;
#356 = CARTESIAN_POINT ( 'NONE',  ( -5.000000000000000000, 0.000000000000000000, 0.000000000000000000 ) ) ;
#357 = DIRECTION ( 'NONE',  ( 1.000000000000000000, 0.000000000000000000, 0.000000000000000000 ) ) ;
#358 = FACE_OUTER_BOUND ( 'NONE', #187, .T. ) ;
#359 = ORIENTED_EDGE ( 'NONE', *, *, #322, .T. ) ;
#360 = APPROVAL_STATUS ( 'not_yet_approved' ) ;
#361 = EDGE_LOOP ( 'NONE', ( #16, #64, #129, #119 ) ) ;
#362 = PERSON_AND_ORGANIZATION ( #101, #256 ) ;
#363 = PLANE ( 'NONE',  #55 ) ;
#364 = ORIENTED_EDGE ( 'NONE', *, *, #161, .F. ) ;
#365 = CALENDAR_DATE ( 2022, 8, 7 ) ;
#366 = DIRECTION ( 'NONE',  ( -1.000000000000000000, 0.000000000000000000, 0.000000000000000000 ) ) ;
#367 = ORIENTED_EDGE ( 'NONE', *, *, #51, .F. ) ;
#368 = EDGE_LOOP ( 'NONE', ( #231, #12 ) ) ;
#369 = EDGE_LOOP ( 'NONE', ( #38, #132 ) ) ;
#370 = APPROVAL_STATUS ( 'not_yet_approved' ) ;
#371 = DIRECTION ( 'NONE',  ( -1.000000000000000000, 0.000000000000000000, 0.000000000000000000 ) ) ;
#372 = LOCAL_TIME ( 16, 23, 55.00000000000000000, #336 ) ;
#373 = DIRECTION ( 'NONE',  ( 1.224646799147353207E-16, 1.000000000000000000, -0.000000000000000000 ) ) ;
#374 = LINE ( 'NONE', #239, #291 ) ;
#375 = AXIS2_PLACEMENT_3D ( 'NONE', #311, #42, #371 ) ;
#376 = CARTESIAN_POINT ( 'NONE',  ( 11.00000000000000000, 1.347111479062088405E-15, 0.000000000000000000 ) ) ;
#377 = AXIS2_PLACEMENT_3D ( 'NONE', #264, #210, #290 ) ;
#378 = CARTESIAN_POINT ( 'NONE',  ( -5.000000000000000000, 0.000000000000000000, 182.0000000000000000 ) ) ;
#379 = FACE_BOUND ( 'NONE', #369, .T. ) ;
#380 = PRODUCT_DEFINITION_SHAPE ( 'NONE', 'NONE',  #113 ) ;
#381 = CARTESIAN_POINT ( 'NONE',  ( 0.000000000000000000, 0.000000000000000000, 182.0000000000000000 ) ) ;
ENDSEC;
END-ISO-10303-21;
