ISO-10303-21;
HEADER;
FILE_DESCRIPTION (( 'STEP AP203' ),
    '1' );
FILE_NAME ('27b0.STEP',
    '2022-07-08T15:42:43',
    ( '' ),
    ( '' ),
    'SwSTEP 2.0',
    'SolidWorks 2019',
    '' );
FILE_SCHEMA (( 'CONFIG_CONTROL_DESIGN' ));
ENDSEC;

DATA;
#1 = CARTESIAN_POINT ( 'NONE',  ( 0.000000000000000000, 0.000000000000000000, 0.000000000000000000 ) ) ;
#2 = ORIENTED_EDGE ( 'NONE', *, *, #156, .T. ) ;
#3 = CARTESIAN_POINT ( 'NONE',  ( 0.000000000000000000, 0.000000000000000000, 0.000000000000000000 ) ) ;
#4 = VERTEX_POINT ( 'NONE', #6 ) ;
#5 = TOROIDAL_SURFACE ( 'NONE', #322, 2.799999999999999822, 0.2999999999999999889 ) ;
#6 = CARTESIAN_POINT ( 'NONE',  ( -5.000000000000000000, 0.000000000000000000, 0.000000000000000000 ) ) ;
#7 = PERSON_AND_ORGANIZATION_ROLE ( 'design_owner' ) ;
#8 = LINE ( 'NONE', #212, #254 ) ;
#9 = CARTESIAN_POINT ( 'NONE',  ( 0.000000000000000000, 0.000000000000000000, 3.299999999999997158 ) ) ;
#10 = DESIGN_CONTEXT ( 'detailed design', #380, 'design' ) ;
#11 = CARTESIAN_POINT ( 'NONE',  ( 1.600000000000000089, 1.959434878635765230E-16, 0.000000000000000000 ) ) ;
#12 = ORIENTED_EDGE ( 'NONE', *, *, #234, .F. ) ;
#13 = DIRECTION ( 'NONE',  ( 1.000000000000000000, 0.000000000000000000, 0.000000000000000000 ) ) ;
#14 = VECTOR ( 'NONE', #284, 1000.000000000000000 ) ;
#15 = PERSON_AND_ORGANIZATION ( #19, #158 ) ;
#16 = COORDINATED_UNIVERSAL_TIME_OFFSET ( 1, 0, .AHEAD. ) ;
#17 = VECTOR ( 'NONE', #204, 1000.000000000000000 ) ;
#18 = PERSON_AND_ORGANIZATION_ROLE ( 'creator' ) ;
#19 = PERSON ( 'NEURÈENÝ', 'NEURÈENÝ', 'NEURÈENÝ', ('NEURÈENÝ'), ('NEURÈENÝ'), ('NEURÈENÝ') ) ;
#20 = COORDINATED_UNIVERSAL_TIME_OFFSET ( 1, 0, .AHEAD. ) ;
#21 = ADVANCED_FACE ( 'NONE', ( #210 ), #317, .F. ) ;
#22 = CARTESIAN_POINT ( 'NONE',  ( 0.000000000000000000, 0.000000000000000000, 3.299999999999997158 ) ) ;
#23 = ORIENTED_EDGE ( 'NONE', *, *, #29, .T. ) ;
#24 = CYLINDRICAL_SURFACE ( 'NONE', #116, 5.000000000000000000 ) ;
#25 = VERTEX_POINT ( 'NONE', #231 ) ;
#26 = AXIS2_PLACEMENT_3D ( 'NONE', #267, #297, #371 ) ;
#27 = SECURITY_CLASSIFICATION ( '', '', #157 ) ;
#28 = LINE ( 'NONE', #87, #17 ) ;
#29 = EDGE_CURVE ( 'NONE', #237, #36, #123, .T. ) ;
#30 = ORIENTED_EDGE ( 'NONE', *, *, #120, .F. ) ;
#31 = CARTESIAN_POINT ( 'NONE',  ( 2.500000000000000000, 3.061616997868383141E-16, 163.0000000000000000 ) ) ;
#32 = LINE ( 'NONE', #142, #60 ) ;
#33 = ORIENTED_EDGE ( 'NONE', *, *, #316, .T. ) ;
#34 = ORIENTED_EDGE ( 'NONE', *, *, #88, .T. ) ;
#35 = DIRECTION ( 'NONE',  ( 0.000000000000000000, 0.000000000000000000, 1.000000000000000000 ) ) ;
#36 = VERTEX_POINT ( 'NONE', #57 ) ;
#37 = LOCAL_TIME ( 17, 42, 43.00000000000000000, #366 ) ;
#38 = ORIENTED_EDGE ( 'NONE', *, *, #29, .F. ) ;
#39 =( NAMED_UNIT ( * ) SI_UNIT ( $, .STERADIAN. ) SOLID_ANGLE_UNIT ( ) );
#40 = CC_DESIGN_PERSON_AND_ORGANIZATION_ASSIGNMENT ( #166, #299, ( #364 ) ) ;
#41 = AXIS2_PLACEMENT_3D ( 'NONE', #230, #174, #200 ) ;
#42 = CARTESIAN_POINT ( 'NONE',  ( 0.000000000000000000, 0.000000000000000000, 3.000000000000000000 ) ) ;
#43 = CALENDAR_DATE ( 2022, 8, 7 ) ;
#44 = CALENDAR_DATE ( 2022, 8, 7 ) ;
#45 = AXIS2_PLACEMENT_3D ( 'NONE', #181, #192, #245 ) ;
#46 = EDGE_CURVE ( 'NONE', #258, #92, #71, .T. ) ;
#47 = DIRECTION ( 'NONE',  ( 1.000000000000000000, 0.000000000000000000, 0.000000000000000000 ) ) ;
#48 = ORIENTED_EDGE ( 'NONE', *, *, #290, .F. ) ;
#49 = CARTESIAN_POINT ( 'NONE',  ( 0.000000000000000000, 0.000000000000000000, 163.0000000000000000 ) ) ;
#50 = PRODUCT_RELATED_PRODUCT_CATEGORY ( 'detail', '', ( #235 ) ) ;
#51 = VERTEX_POINT ( 'NONE', #286 ) ;
#52 = AXIS2_PLACEMENT_3D ( 'NONE', #342, #100, #221 ) ;
#53 = APPROVAL_PERSON_ORGANIZATION ( #334, #178, #162 ) ;
#54 = FACE_BOUND ( 'NONE', #77, .T. ) ;
#55 = EDGE_LOOP ( 'NONE', ( #303, #150, #300, #33 ) ) ;
#56 = CYLINDRICAL_SURFACE ( 'NONE', #41, 1.600000000000000089 ) ;
#57 = CARTESIAN_POINT ( 'NONE',  ( -5.000000000000000000, 0.000000000000000000, 3.000000000000000000 ) ) ;
#58 = FACE_OUTER_BOUND ( 'NONE', #203, .T. ) ;
#59 = DIRECTION ( 'NONE',  ( 1.000000000000000000, 0.000000000000000000, 0.000000000000000000 ) ) ;
#60 = VECTOR ( 'NONE', #168, 1000.000000000000000 ) ;
#61 = DIRECTION ( 'NONE',  ( 0.000000000000000000, 0.000000000000000000, 1.000000000000000000 ) ) ;
#62 = AXIS2_PLACEMENT_3D ( 'NONE', #326, #96, #324 ) ;
#63 = EDGE_LOOP ( 'NONE', ( #143, #23 ) ) ;
#64 = DIRECTION ( 'NONE',  ( 1.000000000000000000, 0.000000000000000000, 0.000000000000000000 ) ) ;
#65 = CARTESIAN_POINT ( 'NONE',  ( -1.600000000000000089, 0.000000000000000000, 0.000000000000000000 ) ) ;
#66 = DIRECTION ( 'NONE',  ( 1.000000000000000000, 0.000000000000000000, 0.000000000000000000 ) ) ;
#67 = DIRECTION ( 'NONE',  ( 0.000000000000000000, 0.000000000000000000, 1.000000000000000000 ) ) ;
#68 = DATE_AND_TIME ( #243, #145 ) ;
#69 = CARTESIAN_POINT ( 'NONE',  ( -5.000000000000000000, 0.000000000000000000, 3.000000000000000000 ) ) ;
#70 = CC_DESIGN_PERSON_AND_ORGANIZATION_ASSIGNMENT ( #153, #7, ( #235 ) ) ;
#71 = CIRCLE ( 'NONE', #218, 2.500000000000000000 ) ;
#72 = LOCAL_TIME ( 17, 42, 43.00000000000000000, #20 ) ;
#73 = MANIFOLD_SOLID_BREP ( 'Odebrat vysunutím3', #335 ) ;
#74 = ADVANCED_BREP_SHAPE_REPRESENTATION ( '27b0', ( #73, #278 ), #314 ) ;
#75 = PERSON_AND_ORGANIZATION ( #19, #158 ) ;
#76 = CC_DESIGN_PERSON_AND_ORGANIZATION_ASSIGNMENT ( #305, #131, ( #27 ) ) ;
#77 = EDGE_LOOP ( 'NONE', ( #151, #247 ) ) ;
#78 = PERSON_AND_ORGANIZATION_ROLE ( 'creator' ) ;
#79 = ORIENTED_EDGE ( 'NONE', *, *, #172, .T. ) ;
#80 = LINE ( 'NONE', #69, #233 ) ;
#81 = EDGE_CURVE ( 'NONE', #202, #113, #301, .T. ) ;
#82 = DIRECTION ( 'NONE',  ( 1.000000000000000000, 0.000000000000000000, -0.000000000000000000 ) ) ;
#83 = DIRECTION ( 'NONE',  ( 0.000000000000000000, 0.000000000000000000, 1.000000000000000000 ) ) ;
#84 = ORIENTED_EDGE ( 'NONE', *, *, #283, .F. ) ;
#85 = AXIS2_PLACEMENT_3D ( 'NONE', #236, #240, #91 ) ;
#86 = CARTESIAN_POINT ( 'NONE',  ( 0.000000000000000000, 0.000000000000000000, 3.000000000000000000 ) ) ;
#87 = CARTESIAN_POINT ( 'NONE',  ( 5.000000000000000000, 6.123233995736766282E-16, 3.000000000000000000 ) ) ;
#88 = EDGE_CURVE ( 'NONE', #312, #25, #378, .T. ) ;
#89 = DIRECTION ( 'NONE',  ( 0.000000000000000000, 0.000000000000000000, 1.000000000000000000 ) ) ;
#90 = DIRECTION ( 'NONE',  ( 0.000000000000000000, -1.000000000000000000, 0.000000000000000000 ) ) ;
#91 = DIRECTION ( 'NONE',  ( 1.000000000000000000, 0.000000000000000000, 0.000000000000000000 ) ) ;
#92 = VERTEX_POINT ( 'NONE', #365 ) ;
#93 = MECHANICAL_CONTEXT ( 'NONE', #99, 'mechanical' ) ;
#94 = EDGE_CURVE ( 'NONE', #258, #202, #8, .T. ) ;
#95 = CARTESIAN_POINT ( 'NONE',  ( 0.000000000000000000, 0.000000000000000000, 3.000000000000000000 ) ) ;
#96 = DIRECTION ( 'NONE',  ( -0.000000000000000000, -0.000000000000000000, -1.000000000000000000 ) ) ;
#97 = AXIS2_PLACEMENT_3D ( 'NONE', #323, #179, #288 ) ;
#98 = LOCAL_TIME ( 17, 42, 43.00000000000000000, #161 ) ;
#99 = APPLICATION_CONTEXT ( 'configuration controlled 3d designs of mechanical parts and assemblies' ) ;
#100 = DIRECTION ( 'NONE',  ( 0.000000000000000000, 0.000000000000000000, 1.000000000000000000 ) ) ;
#101 = CC_DESIGN_PERSON_AND_ORGANIZATION_ASSIGNMENT ( #75, #18, ( #364 ) ) ;
#102 = DATE_TIME_ROLE ( 'creation_date' ) ;
#103 = AXIS2_PLACEMENT_3D ( 'NONE', #147, #90, #207 ) ;
#104 = SHAPE_DEFINITION_REPRESENTATION ( #352, #74 ) ;
#105 = ADVANCED_FACE ( 'NONE', ( #339, #223 ), #106, .T. ) ;
#106 = PLANE ( 'NONE',  #52 ) ;
#107 = CARTESIAN_POINT ( 'NONE',  ( 0.000000000000000000, 0.000000000000000000, 163.0000000000000000 ) ) ;
#108 = CIRCLE ( 'NONE', #362, 1.600000000000000089 ) ;
#109 = APPROVAL ( #189, 'NEURÈENÝ' ) ;
#110 = ORIENTED_EDGE ( 'NONE', *, *, #187, .T. ) ;
#111 = EDGE_LOOP ( 'NONE', ( #140, #279, #132, #332 ) ) ;
#112 = FACE_OUTER_BOUND ( 'NONE', #55, .T. ) ;
#113 = VERTEX_POINT ( 'NONE', #185 ) ;
#114 = FACE_BOUND ( 'NONE', #190, .T. ) ;
#115 = EDGE_LOOP ( 'NONE', ( #381, #225, #372, #281 ) ) ;
#116 = AXIS2_PLACEMENT_3D ( 'NONE', #313, #274, #251 ) ;
#117 = DIRECTION ( 'NONE',  ( -1.000000000000000000, 0.000000000000000000, 0.000000000000000000 ) ) ;
#118 = DIRECTION ( 'NONE',  ( 1.000000000000000000, 0.000000000000000000, 0.000000000000000000 ) ) ;
#119 = EDGE_LOOP ( 'NONE', ( #256, #368 ) ) ;
#120 = EDGE_CURVE ( 'NONE', #92, #258, #348, .T. ) ;
#121 = ORIENTED_EDGE ( 'NONE', *, *, #257, .T. ) ;
#122 = ORIENTED_EDGE ( 'NONE', *, *, #316, .F. ) ;
#123 = CIRCLE ( 'NONE', #163, 5.000000000000000000 ) ;
#124 = CIRCLE ( 'NONE', #239, 2.500000000000000000 ) ;
#125 = APPROVAL ( #369, 'NEURÈENÝ' ) ;
#126 = CALENDAR_DATE ( 2022, 8, 7 ) ;
#127 = APPROVAL_DATE_TIME ( #186, #125 ) ;
#128 = CC_DESIGN_PERSON_AND_ORGANIZATION_ASSIGNMENT ( #129, #78, ( #201 ) ) ;
#129 = PERSON_AND_ORGANIZATION ( #19, #158 ) ;
#130 = AXIS2_PLACEMENT_3D ( 'NONE', #146, #83, #138 ) ;
#131 = PERSON_AND_ORGANIZATION_ROLE ( 'classification_officer' ) ;
#132 = ORIENTED_EDGE ( 'NONE', *, *, #338, .T. ) ;
#133 = DIRECTION ( 'NONE',  ( 1.000000000000000000, 0.000000000000000000, 0.000000000000000000 ) ) ;
#134 = EDGE_LOOP ( 'NONE', ( #376, #121, #110, #227 ) ) ;
#135 = CARTESIAN_POINT ( 'NONE',  ( 0.000000000000000000, 0.000000000000000000, 0.000000000000000000 ) ) ;
#136 = AXIS2_PLACEMENT_3D ( 'NONE', #42, #329, #273 ) ;
#137 = ADVANCED_FACE ( 'NONE', ( #307 ), #265, .T. ) ;
#138 = DIRECTION ( 'NONE',  ( 1.000000000000000000, 0.000000000000000000, 0.000000000000000000 ) ) ;
#139 = DIRECTION ( 'NONE',  ( 0.000000000000000000, 0.000000000000000000, 1.000000000000000000 ) ) ;
#140 = ORIENTED_EDGE ( 'NONE', *, *, #46, .F. ) ;
#141 = EDGE_CURVE ( 'NONE', #25, #113, #356, .T. ) ;
#142 = CARTESIAN_POINT ( 'NONE',  ( -1.600000000000000089, 0.000000000000000000, 163.0000000000000000 ) ) ;
#143 = ORIENTED_EDGE ( 'NONE', *, *, #290, .T. ) ;
#144 = CIRCLE ( 'NONE', #224, 2.500000000000000000 ) ;
#145 = LOCAL_TIME ( 17, 42, 43.00000000000000000, #215 ) ;
#146 = CARTESIAN_POINT ( 'NONE',  ( 0.000000000000000000, 0.000000000000000000, 3.299999999999997158 ) ) ;
#147 = CARTESIAN_POINT ( 'NONE',  ( 2.799999999999999822, 0.000000000000000000, 3.299999999999997158 ) ) ;
#148 = CARTESIAN_POINT ( 'NONE',  ( 0.000000000000000000, 0.000000000000000000, 3.299999999999997158 ) ) ;
#149 = EDGE_CURVE ( 'NONE', #268, #197, #304, .T. ) ;
#150 = ORIENTED_EDGE ( 'NONE', *, *, #344, .T. ) ;
#151 = ORIENTED_EDGE ( 'NONE', *, *, #361, .T. ) ;
#152 = AXIS2_PLACEMENT_3D ( 'NONE', #135, #170, #118 ) ;
#153 = PERSON_AND_ORGANIZATION ( #19, #158 ) ;
#154 = CARTESIAN_POINT ( 'NONE',  ( 0.000000000000000000, 0.000000000000000000, 0.000000000000000000 ) ) ;
#155 = DIRECTION ( 'NONE',  ( -0.000000000000000000, -0.000000000000000000, -1.000000000000000000 ) ) ;
#156 = EDGE_CURVE ( 'NONE', #312, #202, #144, .T. ) ;
#157 = SECURITY_CLASSIFICATION_LEVEL ( 'unclassified' ) ;
#158 = ORGANIZATION ( 'NEURÈENÝ', 'NEURÈENÝ', '' ) ;
#159 = CARTESIAN_POINT ( 'NONE',  ( 0.000000000000000000, 0.000000000000000000, 3.000000000000000000 ) ) ;
#160 = ADVANCED_FACE ( 'NONE', ( #246 ), #333, .T. ) ;
#161 = COORDINATED_UNIVERSAL_TIME_OFFSET ( 1, 0, .AHEAD. ) ;
#162 = APPROVAL_ROLE ( '' ) ;
#163 = AXIS2_PLACEMENT_3D ( 'NONE', #95, #211, #327 ) ;
#164 = APPROVAL_PERSON_ORGANIZATION ( #15, #125, #184 ) ;
#165 = EDGE_LOOP ( 'NONE', ( #84, #48, #79, #272 ) ) ;
#166 = PERSON_AND_ORGANIZATION ( #19, #158 ) ;
#167 = CC_DESIGN_DATE_AND_TIME_ASSIGNMENT ( #191, #102, ( #201 ) ) ;
#168 = DIRECTION ( 'NONE',  ( 0.000000000000000000, 0.000000000000000000, -1.000000000000000000 ) ) ;
#169 = ORIENTED_EDGE ( 'NONE', *, *, #187, .F. ) ;
#170 = DIRECTION ( 'NONE',  ( 0.000000000000000000, 0.000000000000000000, 1.000000000000000000 ) ) ;
#171 = ORIENTED_EDGE ( 'NONE', *, *, #361, .F. ) ;
#172 = EDGE_CURVE ( 'NONE', #36, #4, #80, .T. ) ;
#173 = VERTEX_POINT ( 'NONE', #11 ) ;
#174 = DIRECTION ( 'NONE',  ( 0.000000000000000000, 0.000000000000000000, -1.000000000000000000 ) ) ;
#175 = DIRECTION ( 'NONE',  ( 0.000000000000000000, 0.000000000000000000, -1.000000000000000000 ) ) ;
#176 = VECTOR ( 'NONE', #253, 1000.000000000000000 ) ;
#177 =( NAMED_UNIT ( * ) PLANE_ANGLE_UNIT ( ) SI_UNIT ( $, .RADIAN. ) );
#178 = APPROVAL ( #337, 'NEURÈENÝ' ) ;
#179 = DIRECTION ( 'NONE',  ( 1.224646799147353207E-16, 1.000000000000000000, -0.000000000000000000 ) ) ;
#180 = EDGE_LOOP ( 'NONE', ( #350, #30, #310, #2 ) ) ;
#181 = CARTESIAN_POINT ( 'NONE',  ( 0.000000000000000000, 0.000000000000000000, 163.0000000000000000 ) ) ;
#182 = DIRECTION ( 'NONE',  ( 1.000000000000000000, 0.000000000000000000, 0.000000000000000000 ) ) ;
#183 = DIRECTION ( 'NONE',  ( 1.000000000000000000, 0.000000000000000000, 0.000000000000000000 ) ) ;
#184 = APPROVAL_ROLE ( '' ) ;
#185 = CARTESIAN_POINT ( 'NONE',  ( 2.799999999999999822, 0.000000000000000000, 2.999999999999998668 ) ) ;
#186 = DATE_AND_TIME ( #126, #336 ) ;
#187 = EDGE_CURVE ( 'NONE', #173, #325, #108, .T. ) ;
#188 = DATE_TIME_ROLE ( 'classification_date' ) ;
#189 = APPROVAL_STATUS ( 'not_yet_approved' ) ;
#190 = EDGE_LOOP ( 'NONE', ( #122, #169 ) ) ;
#191 = DATE_AND_TIME ( #43, #37 ) ;
#192 = DIRECTION ( 'NONE',  ( 0.000000000000000000, 0.000000000000000000, 1.000000000000000000 ) ) ;
#193 = AXIS2_PLACEMENT_3D ( 'NONE', #1, #375, #228 ) ;
#194 = AXIS2_PLACEMENT_3D ( 'NONE', #318, #328, #13 ) ;
#195 = EDGE_CURVE ( 'NONE', #4, #51, #341, .T. ) ;
#196 = DIRECTION ( 'NONE',  ( -0.000000000000000000, -0.000000000000000000, -1.000000000000000000 ) ) ;
#197 = VERTEX_POINT ( 'NONE', #298 ) ;
#198 = FACE_OUTER_BOUND ( 'NONE', #63, .T. ) ;
#199 = ORIENTED_EDGE ( 'NONE', *, *, #344, .F. ) ;
#200 = DIRECTION ( 'NONE',  ( -1.000000000000000000, 0.000000000000000000, 0.000000000000000000 ) ) ;
#201 = PRODUCT_DEFINITION ( 'NEZNÁMÝ', '', #364, #10 ) ;
#202 = VERTEX_POINT ( 'NONE', #347 ) ;
#203 = EDGE_LOOP ( 'NONE', ( #252, #12 ) ) ;
#204 = DIRECTION ( 'NONE',  ( -0.000000000000000000, -0.000000000000000000, -1.000000000000000000 ) ) ;
#205 = CARTESIAN_POINT ( 'NONE',  ( 0.000000000000000000, 0.000000000000000000, 163.0000000000000000 ) ) ;
#206 = LINE ( 'NONE', #377, #176 ) ;
#207 = DIRECTION ( 'NONE',  ( 0.000000000000000000, 0.000000000000000000, -1.000000000000000000 ) ) ;
#208 = CC_DESIGN_SECURITY_CLASSIFICATION ( #27, ( #364 ) ) ;
#209 = ADVANCED_FACE ( 'NONE', ( #280 ), #321, .F. ) ;
#210 = FACE_OUTER_BOUND ( 'NONE', #134, .T. ) ;
#211 = DIRECTION ( 'NONE',  ( 0.000000000000000000, 0.000000000000000000, 1.000000000000000000 ) ) ;
#212 = CARTESIAN_POINT ( 'NONE',  ( 2.500000000000000000, 3.061616997868383141E-16, 163.0000000000000000 ) ) ;
#213 =( LENGTH_UNIT ( ) NAMED_UNIT ( * ) SI_UNIT ( .MILLI., .METRE. ) );
#214 = DIRECTION ( 'NONE',  ( 0.000000000000000000, 0.000000000000000000, 1.000000000000000000 ) ) ;
#215 = COORDINATED_UNIVERSAL_TIME_OFFSET ( 1, 0, .AHEAD. ) ;
#216 = DIRECTION ( 'NONE',  ( -0.000000000000000000, -0.000000000000000000, -1.000000000000000000 ) ) ;
#217 = ADVANCED_FACE ( 'NONE', ( #54, #198 ), #349, .T. ) ;
#218 = AXIS2_PLACEMENT_3D ( 'NONE', #319, #89, #59 ) ;
#219 = DATE_AND_TIME ( #220, #98 ) ;
#220 = CALENDAR_DATE ( 2022, 8, 7 ) ;
#221 = DIRECTION ( 'NONE',  ( 1.000000000000000000, 0.000000000000000000, -0.000000000000000000 ) ) ;
#222 = ADVANCED_FACE ( 'NONE', ( #353 ), #24, .T. ) ;
#223 = FACE_OUTER_BOUND ( 'NONE', #119, .T. ) ;
#224 = AXIS2_PLACEMENT_3D ( 'NONE', #22, #214, #133 ) ;
#225 = ORIENTED_EDGE ( 'NONE', *, *, #338, .F. ) ;
#226 = CARTESIAN_POINT ( 'NONE',  ( 1.600000000000000089, 1.959434878635765230E-16, 163.0000000000000000 ) ) ;
#227 = ORIENTED_EDGE ( 'NONE', *, *, #262, .F. ) ;
#228 = DIRECTION ( 'NONE',  ( 1.000000000000000000, 0.000000000000000000, -0.000000000000000000 ) ) ;
#229 = CIRCLE ( 'NONE', #85, 1.600000000000000089 ) ;
#230 = CARTESIAN_POINT ( 'NONE',  ( 0.000000000000000000, 0.000000000000000000, 163.0000000000000000 ) ) ;
#231 = CARTESIAN_POINT ( 'NONE',  ( -2.799999999999999822, 3.429011037612589276E-16, 2.999999999999998668 ) ) ;
#232 = ADVANCED_FACE ( 'NONE', ( #114, #58 ), #315, .F. ) ;
#233 = VECTOR ( 'NONE', #196, 1000.000000000000000 ) ;
#234 = EDGE_CURVE ( 'NONE', #51, #4, #276, .T. ) ;
#235 = PRODUCT ( '27b0', '27b0', '', ( #93 ) ) ;
#236 = CARTESIAN_POINT ( 'NONE',  ( 0.000000000000000000, 0.000000000000000000, 0.000000000000000000 ) ) ;
#237 = VERTEX_POINT ( 'NONE', #311 ) ;
#238 = AXIS2_PLACEMENT_3D ( 'NONE', #107, #363, #47 ) ;
#239 = AXIS2_PLACEMENT_3D ( 'NONE', #148, #259, #182 ) ;
#240 = DIRECTION ( 'NONE',  ( -0.000000000000000000, -0.000000000000000000, -1.000000000000000000 ) ) ;
#241 = PERSON_AND_ORGANIZATION ( #19, #158 ) ;
#242 = CIRCLE ( 'NONE', #194, 5.000000000000000000 ) ;
#243 = CALENDAR_DATE ( 2022, 8, 7 ) ;
#244 = ADVANCED_FACE ( 'NONE', ( #112 ), #56, .F. ) ;
#245 = DIRECTION ( 'NONE',  ( 1.000000000000000000, 0.000000000000000000, 0.000000000000000000 ) ) ;
#246 = FACE_OUTER_BOUND ( 'NONE', #111, .T. ) ;
#247 = ORIENTED_EDGE ( 'NONE', *, *, #141, .T. ) ;
#248 = AXIS2_PLACEMENT_3D ( 'NONE', #49, #277, #117 ) ;
#249 = EDGE_CURVE ( 'NONE', #92, #312, #206, .T. ) ;
#250 = ORIENTED_EDGE ( 'NONE', *, *, #149, .F. ) ;
#251 = DIRECTION ( 'NONE',  ( -1.000000000000000000, 0.000000000000000000, 0.000000000000000000 ) ) ;
#252 = ORIENTED_EDGE ( 'NONE', *, *, #195, .F. ) ;
#253 = DIRECTION ( 'NONE',  ( -0.000000000000000000, -0.000000000000000000, -1.000000000000000000 ) ) ;
#254 = VECTOR ( 'NONE', #264, 1000.000000000000000 ) ;
#255 = APPROVAL_PERSON_ORGANIZATION ( #241, #109, #302 ) ;
#256 = ORIENTED_EDGE ( 'NONE', *, *, #120, .T. ) ;
#257 = EDGE_CURVE ( 'NONE', #197, #173, #282, .T. ) ;
#258 = VERTEX_POINT ( 'NONE', #31 ) ;
#259 = DIRECTION ( 'NONE',  ( 0.000000000000000000, 0.000000000000000000, 1.000000000000000000 ) ) ;
#260 = AXIS2_PLACEMENT_3D ( 'NONE', #205, #175, #354 ) ;
#261 = CC_DESIGN_APPROVAL ( #109, ( #364 ) ) ;
#262 = EDGE_CURVE ( 'NONE', #268, #325, #32, .T. ) ;
#263 = CARTESIAN_POINT ( 'NONE',  ( -2.500000000000000000, 0.000000000000000000, 3.299999999999997158 ) ) ;
#264 = DIRECTION ( 'NONE',  ( -0.000000000000000000, -0.000000000000000000, -1.000000000000000000 ) ) ;
#265 = CYLINDRICAL_SURFACE ( 'NONE', #136, 5.000000000000000000 ) ;
#266 = ADVANCED_FACE ( 'NONE', ( #345 ), #379, .T. ) ;
#267 = CARTESIAN_POINT ( 'NONE',  ( 0.000000000000000000, 0.000000000000000000, 163.0000000000000000 ) ) ;
#268 = VERTEX_POINT ( 'NONE', #351 ) ;
#269 = APPLICATION_PROTOCOL_DEFINITION ( 'international standard', 'config_control_design', 1994, #380 ) ;
#270 = AXIS2_PLACEMENT_3D ( 'NONE', #86, #139, #82 ) ;
#271 = APPROVAL_DATE_TIME ( #370, #178 ) ;
#272 = ORIENTED_EDGE ( 'NONE', *, *, #195, .T. ) ;
#273 = DIRECTION ( 'NONE',  ( -1.000000000000000000, 0.000000000000000000, 0.000000000000000000 ) ) ;
#274 = DIRECTION ( 'NONE',  ( -0.000000000000000000, -0.000000000000000000, -1.000000000000000000 ) ) ;
#275 = EDGE_LOOP ( 'NONE', ( #250, #199 ) ) ;
#276 = CIRCLE ( 'NONE', #152, 5.000000000000000000 ) ;
#277 = DIRECTION ( 'NONE',  ( -0.000000000000000000, -0.000000000000000000, -1.000000000000000000 ) ) ;
#278 = AXIS2_PLACEMENT_3D ( 'NONE', #3, #35, #289 ) ;
#279 = ORIENTED_EDGE ( 'NONE', *, *, #94, .T. ) ;
#280 = FACE_OUTER_BOUND ( 'NONE', #291, .T. ) ;
#281 = ORIENTED_EDGE ( 'NONE', *, *, #141, .F. ) ;
#282 = LINE ( 'NONE', #226, #14 ) ;
#283 = EDGE_CURVE ( 'NONE', #237, #51, #28, .T. ) ;
#284 = DIRECTION ( 'NONE',  ( 0.000000000000000000, 0.000000000000000000, -1.000000000000000000 ) ) ;
#285 = CC_DESIGN_APPROVAL ( #178, ( #201 ) ) ;
#286 = CARTESIAN_POINT ( 'NONE',  ( 5.000000000000000000, 6.123233995736766282E-16, 0.000000000000000000 ) ) ;
#287 = DIRECTION ( 'NONE',  ( 0.000000000000000000, 0.000000000000000000, 1.000000000000000000 ) ) ;
#288 = DIRECTION ( 'NONE',  ( -1.000000000000000000, 1.224646799147353207E-16, 0.000000000000000000 ) ) ;
#289 = DIRECTION ( 'NONE',  ( 1.000000000000000000, 0.000000000000000000, 0.000000000000000000 ) ) ;
#290 = EDGE_CURVE ( 'NONE', #36, #237, #242, .T. ) ;
#291 = EDGE_LOOP ( 'NONE', ( #293, #34, #171, #346 ) ) ;
#292 = AXIS2_PLACEMENT_3D ( 'NONE', #154, #67, #183 ) ;
#293 = ORIENTED_EDGE ( 'NONE', *, *, #156, .F. ) ;
#294 = CIRCLE ( 'NONE', #62, 2.799999999999999822 ) ;
#295 = CARTESIAN_POINT ( 'NONE',  ( 0.000000000000000000, 0.000000000000000000, 163.0000000000000000 ) ) ;
#296 = UNCERTAINTY_MEASURE_WITH_UNIT (LENGTH_MEASURE( 1.000000000000000082E-05 ), #213, 'distance_accuracy_value', 'NONE');
#297 = DIRECTION ( 'NONE',  ( -0.000000000000000000, -0.000000000000000000, -1.000000000000000000 ) ) ;
#298 = CARTESIAN_POINT ( 'NONE',  ( 1.600000000000000089, 1.959434878635765230E-16, 163.0000000000000000 ) ) ;
#299 = PERSON_AND_ORGANIZATION_ROLE ( 'design_supplier' ) ;
#300 = ORIENTED_EDGE ( 'NONE', *, *, #262, .T. ) ;
#301 = CIRCLE ( 'NONE', #103, 0.2999999999999999334 ) ;
#302 = APPROVAL_ROLE ( '' ) ;
#303 = ORIENTED_EDGE ( 'NONE', *, *, #257, .F. ) ;
#304 = CIRCLE ( 'NONE', #238, 1.600000000000000089 ) ;
#305 = PERSON_AND_ORGANIZATION ( #19, #158 ) ;
#306 = CC_DESIGN_APPROVAL ( #125, ( #27 ) ) ;
#307 = FACE_OUTER_BOUND ( 'NONE', #165, .T. ) ;
#308 = ORIENTED_EDGE ( 'NONE', *, *, #283, .T. ) ;
#309 = CARTESIAN_POINT ( 'NONE',  ( 0.000000000000000000, 0.000000000000000000, 0.000000000000000000 ) ) ;
#310 = ORIENTED_EDGE ( 'NONE', *, *, #249, .T. ) ;
#311 = CARTESIAN_POINT ( 'NONE',  ( 5.000000000000000000, 6.123233995736766282E-16, 3.000000000000000000 ) ) ;
#312 = VERTEX_POINT ( 'NONE', #263 ) ;
#313 = CARTESIAN_POINT ( 'NONE',  ( 0.000000000000000000, 0.000000000000000000, 3.000000000000000000 ) ) ;
#314 =( GEOMETRIC_REPRESENTATION_CONTEXT ( 3 ) GLOBAL_UNCERTAINTY_ASSIGNED_CONTEXT ( ( #296 ) ) GLOBAL_UNIT_ASSIGNED_CONTEXT ( ( #213, #177, #39 ) ) REPRESENTATION_CONTEXT ( 'NONE', 'WORKASPACE' ) );
#315 = PLANE ( 'NONE',  #193 ) ;
#316 = EDGE_CURVE ( 'NONE', #325, #173, #229, .T. ) ;
#317 = CYLINDRICAL_SURFACE ( 'NONE', #260, 1.600000000000000089 ) ;
#318 = CARTESIAN_POINT ( 'NONE',  ( 0.000000000000000000, 0.000000000000000000, 3.000000000000000000 ) ) ;
#319 = CARTESIAN_POINT ( 'NONE',  ( 0.000000000000000000, 0.000000000000000000, 163.0000000000000000 ) ) ;
#320 = DIRECTION ( 'NONE',  ( 1.000000000000000000, 0.000000000000000000, 0.000000000000000000 ) ) ;
#321 = TOROIDAL_SURFACE ( 'NONE', #130, 2.799999999999999822, 0.2999999999999999889 ) ;
#322 = AXIS2_PLACEMENT_3D ( 'NONE', #9, #287, #320 ) ;
#323 = CARTESIAN_POINT ( 'NONE',  ( -2.799999999999999822, 3.429011037612588783E-16, 3.299999999999997158 ) ) ;
#324 = DIRECTION ( 'NONE',  ( 1.000000000000000000, 0.000000000000000000, 0.000000000000000000 ) ) ;
#325 = VERTEX_POINT ( 'NONE', #65 ) ;
#326 = CARTESIAN_POINT ( 'NONE',  ( 0.000000000000000000, 0.000000000000000000, 3.000000000000000000 ) ) ;
#327 = DIRECTION ( 'NONE',  ( 1.000000000000000000, 0.000000000000000000, 0.000000000000000000 ) ) ;
#328 = DIRECTION ( 'NONE',  ( 0.000000000000000000, 0.000000000000000000, 1.000000000000000000 ) ) ;
#329 = DIRECTION ( 'NONE',  ( -0.000000000000000000, -0.000000000000000000, -1.000000000000000000 ) ) ;
#330 = DIRECTION ( 'NONE',  ( 1.000000000000000000, 0.000000000000000000, 0.000000000000000000 ) ) ;
#331 = ADVANCED_FACE ( 'NONE', ( #360 ), #5, .F. ) ;
#332 = ORIENTED_EDGE ( 'NONE', *, *, #249, .F. ) ;
#333 = CYLINDRICAL_SURFACE ( 'NONE', #26, 2.500000000000000000 ) ;
#334 = PERSON_AND_ORGANIZATION ( #19, #158 ) ;
#335 = CLOSED_SHELL ( 'NONE', ( #21, #209, #160, #222, #137, #217, #232, #266, #105, #331, #244 ) ) ;
#336 = LOCAL_TIME ( 17, 42, 43.00000000000000000, #16 ) ;
#337 = APPROVAL_STATUS ( 'not_yet_approved' ) ;
#338 = EDGE_CURVE ( 'NONE', #202, #312, #124, .T. ) ;
#339 = FACE_BOUND ( 'NONE', #275, .T. ) ;
#340 = ORIENTED_EDGE ( 'NONE', *, *, #234, .T. ) ;
#341 = CIRCLE ( 'NONE', #292, 5.000000000000000000 ) ;
#342 = CARTESIAN_POINT ( 'NONE',  ( 0.000000000000000000, 0.000000000000000000, 163.0000000000000000 ) ) ;
#343 = EDGE_LOOP ( 'NONE', ( #38, #308, #340, #359 ) ) ;
#344 = EDGE_CURVE ( 'NONE', #197, #268, #357, .T. ) ;
#345 = FACE_OUTER_BOUND ( 'NONE', #180, .T. ) ;
#346 = ORIENTED_EDGE ( 'NONE', *, *, #81, .F. ) ;
#347 = CARTESIAN_POINT ( 'NONE',  ( 2.500000000000000000, 3.061616997868383141E-16, 3.299999999999997158 ) ) ;
#348 = CIRCLE ( 'NONE', #45, 2.500000000000000000 ) ;
#349 = PLANE ( 'NONE',  #270 ) ;
#350 = ORIENTED_EDGE ( 'NONE', *, *, #94, .F. ) ;
#351 = CARTESIAN_POINT ( 'NONE',  ( -1.600000000000000089, 0.000000000000000000, 163.0000000000000000 ) ) ;
#352 = PRODUCT_DEFINITION_SHAPE ( 'NONE', 'NONE',  #201 ) ;
#353 = FACE_OUTER_BOUND ( 'NONE', #343, .T. ) ;
#354 = DIRECTION ( 'NONE',  ( -1.000000000000000000, 0.000000000000000000, 0.000000000000000000 ) ) ;
#355 = CC_DESIGN_DATE_AND_TIME_ASSIGNMENT ( #68, #188, ( #27 ) ) ;
#356 = CIRCLE ( 'NONE', #373, 2.799999999999999822 ) ;
#357 = CIRCLE ( 'NONE', #374, 1.600000000000000089 ) ;
#358 = APPLICATION_PROTOCOL_DEFINITION ( 'international standard', 'config_control_design', 1994, #99 ) ;
#359 = ORIENTED_EDGE ( 'NONE', *, *, #172, .F. ) ;
#360 = FACE_OUTER_BOUND ( 'NONE', #115, .T. ) ;
#361 = EDGE_CURVE ( 'NONE', #113, #25, #294, .T. ) ;
#362 = AXIS2_PLACEMENT_3D ( 'NONE', #309, #155, #330 ) ;
#363 = DIRECTION ( 'NONE',  ( 0.000000000000000000, 0.000000000000000000, 1.000000000000000000 ) ) ;
#364 = PRODUCT_DEFINITION_FORMATION_WITH_SPECIFIED_SOURCE ( 'LIBOVOLNÝ', '', #235, .NOT_KNOWN. ) ;
#365 = CARTESIAN_POINT ( 'NONE',  ( -2.500000000000000000, 0.000000000000000000, 163.0000000000000000 ) ) ;
#366 = COORDINATED_UNIVERSAL_TIME_OFFSET ( 1, 0, .AHEAD. ) ;
#367 = APPROVAL_DATE_TIME ( #219, #109 ) ;
#368 = ORIENTED_EDGE ( 'NONE', *, *, #46, .T. ) ;
#369 = APPROVAL_STATUS ( 'not_yet_approved' ) ;
#370 = DATE_AND_TIME ( #44, #72 ) ;
#371 = DIRECTION ( 'NONE',  ( -1.000000000000000000, 0.000000000000000000, 0.000000000000000000 ) ) ;
#372 = ORIENTED_EDGE ( 'NONE', *, *, #81, .T. ) ;
#373 = AXIS2_PLACEMENT_3D ( 'NONE', #159, #216, #66 ) ;
#374 = AXIS2_PLACEMENT_3D ( 'NONE', #295, #61, #64 ) ;
#375 = DIRECTION ( 'NONE',  ( 0.000000000000000000, 0.000000000000000000, 1.000000000000000000 ) ) ;
#376 = ORIENTED_EDGE ( 'NONE', *, *, #149, .T. ) ;
#377 = CARTESIAN_POINT ( 'NONE',  ( -2.500000000000000000, 0.000000000000000000, 163.0000000000000000 ) ) ;
#378 = CIRCLE ( 'NONE', #97, 0.2999999999999999334 ) ;
#379 = CYLINDRICAL_SURFACE ( 'NONE', #248, 2.500000000000000000 ) ;
#380 = APPLICATION_CONTEXT ( 'configuration controlled 3d designs of mechanical parts and assemblies' ) ;
#381 = ORIENTED_EDGE ( 'NONE', *, *, #88, .F. ) ;
ENDSEC;
END-ISO-10303-21;
