ISO-10303-21;
HEADER;
FILE_DESCRIPTION (( 'STEP AP203' ),
    '1' );
FILE_NAME ('7ec2.STEP',
    '2022-07-08T15:00:09',
    ( '' ),
    ( '' ),
    'SwSTEP 2.0',
    'SolidWorks 2019',
    '' );
FILE_SCHEMA (( 'CONFIG_CONTROL_DESIGN' ));
ENDSEC;

DATA;
#1 = ORIENTED_EDGE ( 'NONE', *, *, #367, .F. ) ;
#2 = ORIENTED_EDGE ( 'NONE', *, *, #323, .F. ) ;
#3 = ORIENTED_EDGE ( 'NONE', *, *, #49, .T. ) ;
#4 = ORIENTED_EDGE ( 'NONE', *, *, #170, .F. ) ;
#5 = EDGE_LOOP ( 'NONE', ( #292, #3, #358, #67 ) ) ;
#6 = EDGE_CURVE ( 'NONE', #209, #151, #185, .T. ) ;
#7 = VECTOR ( 'NONE', #192, 1000.000000000000000 ) ;
#8 = CIRCLE ( 'NONE', #128, 10.00000000000000000 ) ;
#9 = DIRECTION ( 'NONE',  ( 1.000000000000000000, 0.000000000000000000, 0.000000000000000000 ) ) ;
#10 = DIRECTION ( 'NONE',  ( 0.000000000000000000, 0.000000000000000000, 1.000000000000000000 ) ) ;
#11 = COORDINATED_UNIVERSAL_TIME_OFFSET ( 1, 0, .AHEAD. ) ;
#12 = DIRECTION ( 'NONE',  ( 1.000000000000000000, 0.000000000000000000, 0.000000000000000000 ) ) ;
#13 = ADVANCED_FACE ( 'NONE', ( #276 ), #245, .F. ) ;
#14 = PERSON_AND_ORGANIZATION ( #347, #55 ) ;
#15 = CARTESIAN_POINT ( 'NONE',  ( 0.000000000000000000, 0.000000000000000000, 7.000000000000000000 ) ) ;
#16 = AXIS2_PLACEMENT_3D ( 'NONE', #338, #133, #253 ) ;
#17 = DIRECTION ( 'NONE',  ( -1.000000000000000000, 0.000000000000000000, 0.000000000000000000 ) ) ;
#18 = LINE ( 'NONE', #224, #7 ) ;
#19 = DIRECTION ( 'NONE',  ( 1.000000000000000000, 0.000000000000000000, 0.000000000000000000 ) ) ;
#20 = CYLINDRICAL_SURFACE ( 'NONE', #165, 10.00000000000000000 ) ;
#21 = ADVANCED_FACE ( 'NONE', ( #301 ), #242, .T. ) ;
#22 = DIRECTION ( 'NONE',  ( -0.000000000000000000, -0.000000000000000000, -1.000000000000000000 ) ) ;
#23 = DATE_AND_TIME ( #316, #204 ) ;
#24 = CARTESIAN_POINT ( 'NONE',  ( 10.00000000000000000, 1.224646799147353256E-15, 7.000000000000000000 ) ) ;
#25 = VERTEX_POINT ( 'NONE', #368 ) ;
#26 = EDGE_CURVE ( 'NONE', #151, #209, #272, .T. ) ;
#27 = DIRECTION ( 'NONE',  ( -0.000000000000000000, -0.000000000000000000, -1.000000000000000000 ) ) ;
#28 = APPROVAL_STATUS ( 'not_yet_approved' ) ;
#29 = EDGE_LOOP ( 'NONE', ( #216, #361 ) ) ;
#30 = PERSON_AND_ORGANIZATION ( #347, #55 ) ;
#31 = VECTOR ( 'NONE', #166, 1000.000000000000000 ) ;
#32 = VERTEX_POINT ( 'NONE', #281 ) ;
#33 = VERTEX_POINT ( 'NONE', #161 ) ;
#34 = VERTEX_POINT ( 'NONE', #48 ) ;
#35 = EDGE_CURVE ( 'NONE', #129, #330, #54, .T. ) ;
#36 = VERTEX_POINT ( 'NONE', #43 ) ;
#37 = LOCAL_TIME ( 17, 0, 9.000000000000000000, #11 ) ;
#38 = VERTEX_POINT ( 'NONE', #99 ) ;
#39 = ORIENTED_EDGE ( 'NONE', *, *, #238, .T. ) ;
#40 = ORIENTED_EDGE ( 'NONE', *, *, #297, .T. ) ;
#41 = CARTESIAN_POINT ( 'NONE',  ( 0.000000000000000000, 0.000000000000000000, 7.499999999999951150 ) ) ;
#42 = AXIS2_PLACEMENT_3D ( 'NONE', #46, #248, #17 ) ;
#43 = CARTESIAN_POINT ( 'NONE',  ( 6.500000000000000888, 0.000000000000000000, 6.999999999999975131 ) ) ;
#44 = PERSON_AND_ORGANIZATION ( #347, #55 ) ;
#45 = CARTESIAN_POINT ( 'NONE',  ( 0.000000000000000000, 0.000000000000000000, 557.0000000000000000 ) ) ;
#46 = CARTESIAN_POINT ( 'NONE',  ( 0.000000000000000000, 0.000000000000000000, 557.0000000000000000 ) ) ;
#47 = PRODUCT_DEFINITION_SHAPE ( 'NONE', 'NONE',  #350 ) ;
#48 = CARTESIAN_POINT ( 'NONE',  ( -10.00000000000000000, 0.000000000000000000, 0.000000000000000000 ) ) ;
#49 = EDGE_CURVE ( 'NONE', #32, #150, #68, .T. ) ;
#50 = CARTESIAN_POINT ( 'NONE',  ( 0.000000000000000000, 0.000000000000000000, 7.000000000000000000 ) ) ;
#51 = CARTESIAN_POINT ( 'NONE',  ( 0.000000000000000000, 0.000000000000000000, 0.000000000000000000 ) ) ;
#52 = DIRECTION ( 'NONE',  ( 0.000000000000000000, 0.000000000000000000, 1.000000000000000000 ) ) ;
#53 = CARTESIAN_POINT ( 'NONE',  ( 0.000000000000000000, 0.000000000000000000, 557.0000000000000000 ) ) ;
#54 = CIRCLE ( 'NONE', #360, 2.750000000000000000 ) ;
#55 = ORGANIZATION ( 'NEURÈENÝ', 'NEURÈENÝ', '' ) ;
#56 = DIRECTION ( 'NONE',  ( 1.000000000000000000, 0.000000000000000000, 0.000000000000000000 ) ) ;
#57 = CC_DESIGN_PERSON_AND_ORGANIZATION_ASSIGNMENT ( #201, #351, ( #350 ) ) ;
#58 = DIRECTION ( 'NONE',  ( 0.000000000000000000, 0.000000000000000000, 1.000000000000000000 ) ) ;
#59 = MECHANICAL_CONTEXT ( 'NONE', #147, 'mechanical' ) ;
#60 = DIRECTION ( 'NONE',  ( 1.224646799147353207E-16, 1.000000000000000000, -0.000000000000000000 ) ) ;
#61 = AXIS2_PLACEMENT_3D ( 'NONE', #109, #200, #56 ) ;
#62 = PERSON_AND_ORGANIZATION_ROLE ( 'classification_officer' ) ;
#63 = CC_DESIGN_APPROVAL ( #326, ( #239 ) ) ;
#64 = EDGE_CURVE ( 'NONE', #157, #38, #319, .T. ) ;
#65 = CALENDAR_DATE ( 2022, 8, 7 ) ;
#66 = ORIENTED_EDGE ( 'NONE', *, *, #289, .T. ) ;
#67 = ORIENTED_EDGE ( 'NONE', *, *, #35, .T. ) ;
#68 = CIRCLE ( 'NONE', #328, 2.750000000000000000 ) ;
#69 = EDGE_CURVE ( 'NONE', #38, #157, #210, .T. ) ;
#70 = DIRECTION ( 'NONE',  ( 0.000000000000000000, 0.000000000000000000, 1.000000000000000000 ) ) ;
#71 = ORIENTED_EDGE ( 'NONE', *, *, #69, .F. ) ;
#72 = PLANE ( 'NONE',  #354 ) ;
#73 =( GEOMETRIC_REPRESENTATION_CONTEXT ( 3 ) GLOBAL_UNCERTAINTY_ASSIGNED_CONTEXT ( ( #89 ) ) GLOBAL_UNIT_ASSIGNED_CONTEXT ( ( #265, #199, #178 ) ) REPRESENTATION_CONTEXT ( 'NONE', 'WORKASPACE' ) );
#74 = DIRECTION ( 'NONE',  ( 0.000000000000000000, 0.000000000000000000, 1.000000000000000000 ) ) ;
#75 = DIRECTION ( 'NONE',  ( -0.000000000000000000, -0.000000000000000000, -1.000000000000000000 ) ) ;
#76 = DIRECTION ( 'NONE',  ( 1.000000000000000000, 0.000000000000000000, 0.000000000000000000 ) ) ;
#77 = ADVANCED_FACE ( 'NONE', ( #332 ), #127, .F. ) ;
#78 = CIRCLE ( 'NONE', #83, 6.000000000000000888 ) ;
#79 = CARTESIAN_POINT ( 'NONE',  ( 6.500000000000000888, 0.000000000000000000, 7.499999999999951150 ) ) ;
#80 = DIRECTION ( 'NONE',  ( 1.000000000000000000, 0.000000000000000000, -0.000000000000000000 ) ) ;
#81 = CARTESIAN_POINT ( 'NONE',  ( 0.000000000000000000, 0.000000000000000000, 0.000000000000000000 ) ) ;
#82 = EDGE_CURVE ( 'NONE', #117, #157, #162, .T. ) ;
#83 = AXIS2_PLACEMENT_3D ( 'NONE', #377, #52, #286 ) ;
#84 = AXIS2_PLACEMENT_3D ( 'NONE', #321, #60, #116 ) ;
#85 = FACE_OUTER_BOUND ( 'NONE', #5, .T. ) ;
#86 = ORIENTED_EDGE ( 'NONE', *, *, #82, .F. ) ;
#87 = DIRECTION ( 'NONE',  ( 0.000000000000000000, 0.000000000000000000, 1.000000000000000000 ) ) ;
#88 = ORIENTED_EDGE ( 'NONE', *, *, #337, .T. ) ;
#89 = UNCERTAINTY_MEASURE_WITH_UNIT (LENGTH_MEASURE( 1.000000000000000082E-05 ), #265, 'distance_accuracy_value', 'NONE');
#90 = EDGE_CURVE ( 'NONE', #25, #38, #130, .T. ) ;
#91 = COORDINATED_UNIVERSAL_TIME_OFFSET ( 1, 0, .AHEAD. ) ;
#92 = ORIENTED_EDGE ( 'NONE', *, *, #82, .T. ) ;
#93 = ORIENTED_EDGE ( 'NONE', *, *, #289, .F. ) ;
#94 = EDGE_LOOP ( 'NONE', ( #352, #327, #188, #115 ) ) ;
#95 = VERTEX_POINT ( 'NONE', #195 ) ;
#96 = DIRECTION ( 'NONE',  ( 0.000000000000000000, 0.000000000000000000, 1.000000000000000000 ) ) ;
#97 = APPROVAL_STATUS ( 'not_yet_approved' ) ;
#98 = ADVANCED_FACE ( 'NONE', ( #102 ), #160, .T. ) ;
#99 = CARTESIAN_POINT ( 'NONE',  ( 6.000000000000000888, 7.347880794884120722E-16, 7.499999999999951150 ) ) ;
#100 = AXIS2_PLACEMENT_3D ( 'NONE', #257, #231, #107 ) ;
#101 = AXIS2_PLACEMENT_3D ( 'NONE', #51, #87, #108 ) ;
#102 = FACE_OUTER_BOUND ( 'NONE', #299, .T. ) ;
#103 = FACE_OUTER_BOUND ( 'NONE', #298, .T. ) ;
#104 = DIRECTION ( 'NONE',  ( 1.000000000000000000, 0.000000000000000000, -0.000000000000000000 ) ) ;
#105 = CIRCLE ( 'NONE', #259, 2.750000000000000000 ) ;
#106 = CIRCLE ( 'NONE', #221, 6.500000000000000888 ) ;
#107 = DIRECTION ( 'NONE',  ( -1.000000000000000000, 0.000000000000000000, 0.000000000000000000 ) ) ;
#108 = DIRECTION ( 'NONE',  ( 1.000000000000000000, 0.000000000000000000, 0.000000000000000000 ) ) ;
#109 = CARTESIAN_POINT ( 'NONE',  ( 0.000000000000000000, 0.000000000000000000, 7.000000000000000000 ) ) ;
#110 = DIRECTION ( 'NONE',  ( 1.000000000000000000, 0.000000000000000000, 0.000000000000000000 ) ) ;
#111 = FACE_OUTER_BOUND ( 'NONE', #271, .T. ) ;
#112 = PERSON_AND_ORGANIZATION ( #347, #55 ) ;
#113 = EDGE_LOOP ( 'NONE', ( #278, #303, #241, #325 ) ) ;
#114 = LOCAL_TIME ( 17, 0, 9.000000000000000000, #91 ) ;
#115 = ORIENTED_EDGE ( 'NONE', *, *, #238, .F. ) ;
#116 = DIRECTION ( 'NONE',  ( -1.000000000000000000, 1.224646799147351482E-16, 0.000000000000000000 ) ) ;
#117 = VERTEX_POINT ( 'NONE', #308 ) ;
#118 = ADVANCED_FACE ( 'NONE', ( #163, #135 ), #256, .T. ) ;
#119 = ORIENTED_EDGE ( 'NONE', *, *, #49, .F. ) ;
#120 = DESIGN_CONTEXT ( 'detailed design', #207, 'design' ) ;
#121 = AXIS2_PLACEMENT_3D ( 'NONE', #302, #70, #9 ) ;
#122 = CC_DESIGN_SECURITY_CLASSIFICATION ( #239, ( #300 ) ) ;
#123 = ADVANCED_FACE ( 'NONE', ( #103 ), #180, .F. ) ;
#124 = DIRECTION ( 'NONE',  ( 0.000000000000000000, 0.000000000000000000, -1.000000000000000000 ) ) ;
#125 = ORIENTED_EDGE ( 'NONE', *, *, #212, .T. ) ;
#126 = ORIENTED_EDGE ( 'NONE', *, *, #64, .T. ) ;
#127 = TOROIDAL_SURFACE ( 'NONE', #16, 6.500000000000000888, 0.5000000000000000000 ) ;
#128 = AXIS2_PLACEMENT_3D ( 'NONE', #346, #58, #379 ) ;
#129 = VERTEX_POINT ( 'NONE', #196 ) ;
#130 = LINE ( 'NONE', #283, #244 ) ;
#131 = APPROVAL ( #287, 'NEURÈENÝ' ) ;
#132 = CARTESIAN_POINT ( 'NONE',  ( 0.000000000000000000, 0.000000000000000000, 557.0000000000000000 ) ) ;
#133 = DIRECTION ( 'NONE',  ( 0.000000000000000000, 0.000000000000000000, 1.000000000000000000 ) ) ;
#134 = ADVANCED_FACE ( 'NONE', ( #364, #312 ), #72, .T. ) ;
#135 = FACE_OUTER_BOUND ( 'NONE', #348, .T. ) ;
#136 = DIRECTION ( 'NONE',  ( 1.000000000000000000, 0.000000000000000000, 0.000000000000000000 ) ) ;
#137 = CARTESIAN_POINT ( 'NONE',  ( 10.00000000000000000, 1.224646799147353256E-15, 7.000000000000000000 ) ) ;
#138 = DIRECTION ( 'NONE',  ( -1.000000000000000000, 0.000000000000000000, 0.000000000000000000 ) ) ;
#139 = AXIS2_PLACEMENT_3D ( 'NONE', #223, #96, #76 ) ;
#140 = DIRECTION ( 'NONE',  ( -1.000000000000000000, 0.000000000000000000, 0.000000000000000000 ) ) ;
#141 = APPROVAL_ROLE ( '' ) ;
#142 = EDGE_CURVE ( 'NONE', #32, #330, #18, .T. ) ;
#143 = DIRECTION ( 'NONE',  ( -0.000000000000000000, -0.000000000000000000, -1.000000000000000000 ) ) ;
#144 = DIRECTION ( 'NONE',  ( 0.000000000000000000, 0.000000000000000000, 1.000000000000000000 ) ) ;
#145 = DIRECTION ( 'NONE',  ( -0.000000000000000000, -0.000000000000000000, -1.000000000000000000 ) ) ;
#146 = APPROVAL_ROLE ( '' ) ;
#147 = APPLICATION_CONTEXT ( 'configuration controlled 3d designs of mechanical parts and assemblies' ) ;
#148 = ORIENTED_EDGE ( 'NONE', *, *, #152, .T. ) ;
#149 = CC_DESIGN_PERSON_AND_ORGANIZATION_ASSIGNMENT ( #30, #268, ( #300 ) ) ;
#150 = VERTEX_POINT ( 'NONE', #307 ) ;
#151 = VERTEX_POINT ( 'NONE', #137 ) ;
#152 = EDGE_CURVE ( 'NONE', #38, #36, #252, .T. ) ;
#153 = AXIS2_PLACEMENT_3D ( 'NONE', #79, #315, #373 ) ;
#154 = LOCAL_TIME ( 17, 0, 9.000000000000000000, #342 ) ;
#155 = ORIENTED_EDGE ( 'NONE', *, *, #90, .F. ) ;
#156 = ORIENTED_EDGE ( 'NONE', *, *, #152, .F. ) ;
#157 = VERTEX_POINT ( 'NONE', #260 ) ;
#158 = ORIENTED_EDGE ( 'NONE', *, *, #159, .T. ) ;
#159 = EDGE_CURVE ( 'NONE', #25, #117, #78, .T. ) ;
#160 = CYLINDRICAL_SURFACE ( 'NONE', #42, 6.000000000000000888 ) ;
#161 = CARTESIAN_POINT ( 'NONE',  ( -6.500000000000000888, 7.960204194457796463E-16, 6.999999999999975131 ) ) ;
#162 = LINE ( 'NONE', #335, #31 ) ;
#163 = FACE_BOUND ( 'NONE', #179, .T. ) ;
#164 = AXIS2_PLACEMENT_3D ( 'NONE', #255, #74, #339 ) ;
#165 = AXIS2_PLACEMENT_3D ( 'NONE', #294, #176, #138 ) ;
#166 = DIRECTION ( 'NONE',  ( -0.000000000000000000, -0.000000000000000000, -1.000000000000000000 ) ) ;
#167 = DIRECTION ( 'NONE',  ( -0.000000000000000000, -0.000000000000000000, -1.000000000000000000 ) ) ;
#168 = PERSON_AND_ORGANIZATION ( #347, #55 ) ;
#169 = FACE_BOUND ( 'NONE', #29, .T. ) ;
#170 = EDGE_CURVE ( 'NONE', #95, #34, #333, .T. ) ;
#171 = AXIS2_PLACEMENT_3D ( 'NONE', #81, #341, #198 ) ;
#172 = APPROVAL_PERSON_ORGANIZATION ( #14, #326, #356 ) ;
#173 = CARTESIAN_POINT ( 'NONE',  ( 0.000000000000000000, 0.000000000000000000, 0.000000000000000000 ) ) ;
#174 = CARTESIAN_POINT ( 'NONE',  ( 0.000000000000000000, 0.000000000000000000, 557.0000000000000000 ) ) ;
#175 = CYLINDRICAL_SURFACE ( 'NONE', #254, 10.00000000000000000 ) ;
#176 = DIRECTION ( 'NONE',  ( -0.000000000000000000, -0.000000000000000000, -1.000000000000000000 ) ) ;
#177 = ADVANCED_BREP_SHAPE_REPRESENTATION ( '7ec2', ( #322, #101 ), #73 ) ;
#178 =( NAMED_UNIT ( * ) SI_UNIT ( $, .STERADIAN. ) SOLID_ANGLE_UNIT ( ) );
#179 = EDGE_LOOP ( 'NONE', ( #125, #40 ) ) ;
#180 = TOROIDAL_SURFACE ( 'NONE', #139, 6.500000000000000888, 0.5000000000000000000 ) ;
#181 = VECTOR ( 'NONE', #143, 1000.000000000000000 ) ;
#182 = LOCAL_TIME ( 17, 0, 9.000000000000000000, #203 ) ;
#183 = ORIENTED_EDGE ( 'NONE', *, *, #159, .F. ) ;
#184 = ADVANCED_FACE ( 'NONE', ( #85 ), #344, .F. ) ;
#185 = CIRCLE ( 'NONE', #121, 10.00000000000000000 ) ;
#186 = CIRCLE ( 'NONE', #355, 6.000000000000000888 ) ;
#187 = DIRECTION ( 'NONE',  ( -1.000000000000000000, 0.000000000000000000, 0.000000000000000000 ) ) ;
#188 = ORIENTED_EDGE ( 'NONE', *, *, #170, .T. ) ;
#189 = EDGE_CURVE ( 'NONE', #150, #129, #205, .T. ) ;
#190 = ORIENTED_EDGE ( 'NONE', *, *, #6, .T. ) ;
#191 = PERSON_AND_ORGANIZATION_ROLE ( 'design_supplier' ) ;
#192 = DIRECTION ( 'NONE',  ( 0.000000000000000000, 0.000000000000000000, -1.000000000000000000 ) ) ;
#193 = DIRECTION ( 'NONE',  ( 0.000000000000000000, 0.000000000000000000, 1.000000000000000000 ) ) ;
#194 = ADVANCED_FACE ( 'NONE', ( #169, #111 ), #228, .F. ) ;
#195 = CARTESIAN_POINT ( 'NONE',  ( 10.00000000000000000, 1.224646799147353256E-15, 0.000000000000000000 ) ) ;
#196 = CARTESIAN_POINT ( 'NONE',  ( -2.750000000000000000, 0.000000000000000000, 0.000000000000000000 ) ) ;
#197 = CLOSED_SHELL ( 'NONE', ( #13, #77, #98, #215, #310, #118, #194, #21, #134, #123, #184 ) ) ;
#198 = DIRECTION ( 'NONE',  ( 1.000000000000000000, 0.000000000000000000, 0.000000000000000000 ) ) ;
#199 =( NAMED_UNIT ( * ) PLANE_ANGLE_UNIT ( ) SI_UNIT ( $, .RADIAN. ) );
#200 = DIRECTION ( 'NONE',  ( -0.000000000000000000, -0.000000000000000000, -1.000000000000000000 ) ) ;
#201 = PERSON_AND_ORGANIZATION ( #347, #55 ) ;
#202 = DIRECTION ( 'NONE',  ( 0.000000000000000000, 0.000000000000000000, -1.000000000000000000 ) ) ;
#203 = COORDINATED_UNIVERSAL_TIME_OFFSET ( 1, 0, .AHEAD. ) ;
#204 = LOCAL_TIME ( 17, 0, 9.000000000000000000, #206 ) ;
#205 = LINE ( 'NONE', #288, #219 ) ;
#206 = COORDINATED_UNIVERSAL_TIME_OFFSET ( 1, 0, .AHEAD. ) ;
#207 = APPLICATION_CONTEXT ( 'configuration controlled 3d designs of mechanical parts and assemblies' ) ;
#208 = DIRECTION ( 'NONE',  ( 1.000000000000000000, 0.000000000000000000, 0.000000000000000000 ) ) ;
#209 = VERTEX_POINT ( 'NONE', #375 ) ;
#210 = CIRCLE ( 'NONE', #306, 6.000000000000000888 ) ;
#211 = APPROVAL_DATE_TIME ( #269, #326 ) ;
#212 = EDGE_CURVE ( 'NONE', #36, #33, #366, .T. ) ;
#213 = ORIENTED_EDGE ( 'NONE', *, *, #6, .F. ) ;
#214 = ORIENTED_EDGE ( 'NONE', *, *, #274, .F. ) ;
#215 = ADVANCED_FACE ( 'NONE', ( #314 ), #175, .T. ) ;
#216 = ORIENTED_EDGE ( 'NONE', *, *, #35, .F. ) ;
#217 = DIRECTION ( 'NONE',  ( 0.000000000000000000, 0.000000000000000000, 1.000000000000000000 ) ) ;
#218 = EDGE_CURVE ( 'NONE', #330, #129, #105, .T. ) ;
#219 = VECTOR ( 'NONE', #202, 1000.000000000000000 ) ;
#220 = DIRECTION ( 'NONE',  ( 1.000000000000000000, 0.000000000000000000, 0.000000000000000000 ) ) ;
#221 = AXIS2_PLACEMENT_3D ( 'NONE', #50, #167, #19 ) ;
#222 = DIRECTION ( 'NONE',  ( 1.000000000000000000, 0.000000000000000000, 0.000000000000000000 ) ) ;
#223 = CARTESIAN_POINT ( 'NONE',  ( 0.000000000000000000, 0.000000000000000000, 7.499999999999951150 ) ) ;
#224 = CARTESIAN_POINT ( 'NONE',  ( 2.750000000000000000, 3.367778697655221012E-16, 557.0000000000000000 ) ) ;
#225 = AXIS2_PLACEMENT_3D ( 'NONE', #317, #262, #80 ) ;
#226 = APPROVAL_PERSON_ORGANIZATION ( #168, #131, #141 ) ;
#227 = CC_DESIGN_DATE_AND_TIME_ASSIGNMENT ( #249, #277, ( #239 ) ) ;
#228 = PLANE ( 'NONE',  #225 ) ;
#229 = LINE ( 'NONE', #24, #181 ) ;
#230 = DATE_TIME_ROLE ( 'creation_date' ) ;
#231 = DIRECTION ( 'NONE',  ( 0.000000000000000000, 0.000000000000000000, -1.000000000000000000 ) ) ;
#232 = PERSON_AND_ORGANIZATION_ROLE ( 'design_owner' ) ;
#233 = ORIENTED_EDGE ( 'NONE', *, *, #64, .F. ) ;
#234 = AXIS2_PLACEMENT_3D ( 'NONE', #45, #304, #369 ) ;
#235 = APPROVAL_DATE_TIME ( #258, #131 ) ;
#236 = CALENDAR_DATE ( 2022, 8, 7 ) ;
#237 = ORIENTED_EDGE ( 'NONE', *, *, #212, .F. ) ;
#238 = EDGE_CURVE ( 'NONE', #209, #34, #320, .T. ) ;
#239 = SECURITY_CLASSIFICATION ( '', '', #251 ) ;
#240 = ORIENTED_EDGE ( 'NONE', *, *, #26, .T. ) ;
#241 = ORIENTED_EDGE ( 'NONE', *, *, #218, .T. ) ;
#242 = CYLINDRICAL_SURFACE ( 'NONE', #234, 6.000000000000000888 ) ;
#243 = CC_DESIGN_DATE_AND_TIME_ASSIGNMENT ( #23, #230, ( #350 ) ) ;
#244 = VECTOR ( 'NONE', #279, 1000.000000000000000 ) ;
#245 = CYLINDRICAL_SURFACE ( 'NONE', #324, 2.750000000000000000 ) ;
#246 = SHAPE_DEFINITION_REPRESENTATION ( #47, #177 ) ;
#247 = EDGE_LOOP ( 'NONE', ( #1, #119 ) ) ;
#248 = DIRECTION ( 'NONE',  ( -0.000000000000000000, -0.000000000000000000, -1.000000000000000000 ) ) ;
#249 = DATE_AND_TIME ( #65, #114 ) ;
#250 = DIRECTION ( 'NONE',  ( 0.000000000000000000, 0.000000000000000000, 1.000000000000000000 ) ) ;
#251 = SECURITY_CLASSIFICATION_LEVEL ( 'unclassified' ) ;
#252 = CIRCLE ( 'NONE', #153, 0.5000000000000004441 ) ;
#253 = DIRECTION ( 'NONE',  ( 1.000000000000000000, 0.000000000000000000, 0.000000000000000000 ) ) ;
#254 = AXIS2_PLACEMENT_3D ( 'NONE', #293, #27, #140 ) ;
#255 = CARTESIAN_POINT ( 'NONE',  ( 0.000000000000000000, 0.000000000000000000, 7.000000000000000000 ) ) ;
#256 = PLANE ( 'NONE',  #164 ) ;
#257 = CARTESIAN_POINT ( 'NONE',  ( 0.000000000000000000, 0.000000000000000000, 557.0000000000000000 ) ) ;
#258 = DATE_AND_TIME ( #236, #154 ) ;
#259 = AXIS2_PLACEMENT_3D ( 'NONE', #173, #145, #264 ) ;
#260 = CARTESIAN_POINT ( 'NONE',  ( -6.000000000000000888, 0.000000000000000000, 7.499999999999951150 ) ) ;
#261 = CARTESIAN_POINT ( 'NONE',  ( 2.750000000000000000, 3.367778697655221012E-16, 0.000000000000000000 ) ) ;
#262 = DIRECTION ( 'NONE',  ( 0.000000000000000000, 0.000000000000000000, 1.000000000000000000 ) ) ;
#263 = PRODUCT ( '7ec2', '7ec2', '', ( #59 ) ) ;
#264 = DIRECTION ( 'NONE',  ( 1.000000000000000000, 0.000000000000000000, 0.000000000000000000 ) ) ;
#265 =( LENGTH_UNIT ( ) NAMED_UNIT ( * ) SI_UNIT ( .MILLI., .METRE. ) );
#266 = ORIENTED_EDGE ( 'NONE', *, *, #69, .T. ) ;
#267 = CIRCLE ( 'NONE', #84, 0.5000000000000004441 ) ;
#268 = PERSON_AND_ORGANIZATION_ROLE ( 'creator' ) ;
#269 = DATE_AND_TIME ( #305, #37 ) ;
#270 = EDGE_LOOP ( 'NONE', ( #88, #158 ) ) ;
#271 = EDGE_LOOP ( 'NONE', ( #93, #4 ) ) ;
#272 = CIRCLE ( 'NONE', #311, 10.00000000000000000 ) ;
#273 = ORIENTED_EDGE ( 'NONE', *, *, #323, .T. ) ;
#274 = EDGE_CURVE ( 'NONE', #151, #95, #229, .T. ) ;
#275 = CARTESIAN_POINT ( 'NONE',  ( 0.000000000000000000, 0.000000000000000000, 557.0000000000000000 ) ) ;
#276 = FACE_OUTER_BOUND ( 'NONE', #113, .T. ) ;
#277 = DATE_TIME_ROLE ( 'classification_date' ) ;
#278 = ORIENTED_EDGE ( 'NONE', *, *, #367, .T. ) ;
#279 = DIRECTION ( 'NONE',  ( -0.000000000000000000, -0.000000000000000000, -1.000000000000000000 ) ) ;
#280 = PERSON_AND_ORGANIZATION ( #347, #55 ) ;
#281 = CARTESIAN_POINT ( 'NONE',  ( 2.750000000000000000, 3.367778697655221012E-16, 557.0000000000000000 ) ) ;
#282 = CC_DESIGN_PERSON_AND_ORGANIZATION_ASSIGNMENT ( #112, #232, ( #263 ) ) ;
#283 = CARTESIAN_POINT ( 'NONE',  ( 6.000000000000000888, 7.347880794884120722E-16, 557.0000000000000000 ) ) ;
#284 = CC_DESIGN_APPROVAL ( #131, ( #350 ) ) ;
#285 = CARTESIAN_POINT ( 'NONE',  ( 0.000000000000000000, 0.000000000000000000, 557.0000000000000000 ) ) ;
#286 = DIRECTION ( 'NONE',  ( 1.000000000000000000, 0.000000000000000000, 0.000000000000000000 ) ) ;
#287 = APPROVAL_STATUS ( 'not_yet_approved' ) ;
#288 = CARTESIAN_POINT ( 'NONE',  ( -2.750000000000000000, 0.000000000000000000, 557.0000000000000000 ) ) ;
#289 = EDGE_CURVE ( 'NONE', #34, #95, #8, .T. ) ;
#290 = CARTESIAN_POINT ( 'NONE',  ( -10.00000000000000000, 0.000000000000000000, 7.000000000000000000 ) ) ;
#291 = FACE_OUTER_BOUND ( 'NONE', #363, .T. ) ;
#292 = ORIENTED_EDGE ( 'NONE', *, *, #142, .F. ) ;
#293 = CARTESIAN_POINT ( 'NONE',  ( 0.000000000000000000, 0.000000000000000000, 7.000000000000000000 ) ) ;
#294 = CARTESIAN_POINT ( 'NONE',  ( 0.000000000000000000, 0.000000000000000000, 7.000000000000000000 ) ) ;
#295 = PERSON_AND_ORGANIZATION ( #347, #55 ) ;
#296 = EDGE_LOOP ( 'NONE', ( #155, #353, #92, #126 ) ) ;
#297 = EDGE_CURVE ( 'NONE', #33, #36, #106, .T. ) ;
#298 = EDGE_LOOP ( 'NONE', ( #2, #71, #148, #329 ) ) ;
#299 = EDGE_LOOP ( 'NONE', ( #183, #357, #266, #86 ) ) ;
#300 = PRODUCT_DEFINITION_FORMATION_WITH_SPECIFIED_SOURCE ( 'LIBOVOLNÝ', '', #263, .NOT_KNOWN. ) ;
#301 = FACE_OUTER_BOUND ( 'NONE', #296, .T. ) ;
#302 = CARTESIAN_POINT ( 'NONE',  ( 0.000000000000000000, 0.000000000000000000, 7.000000000000000000 ) ) ;
#303 = ORIENTED_EDGE ( 'NONE', *, *, #142, .T. ) ;
#304 = DIRECTION ( 'NONE',  ( -0.000000000000000000, -0.000000000000000000, -1.000000000000000000 ) ) ;
#305 = CALENDAR_DATE ( 2022, 8, 7 ) ;
#306 = AXIS2_PLACEMENT_3D ( 'NONE', #41, #10, #220 ) ;
#307 = CARTESIAN_POINT ( 'NONE',  ( -2.750000000000000000, 0.000000000000000000, 557.0000000000000000 ) ) ;
#308 = CARTESIAN_POINT ( 'NONE',  ( -6.000000000000000888, 0.000000000000000000, 557.0000000000000000 ) ) ;
#309 = CARTESIAN_POINT ( 'NONE',  ( 0.000000000000000000, 0.000000000000000000, 7.499999999999951150 ) ) ;
#310 = ADVANCED_FACE ( 'NONE', ( #291 ), #20, .T. ) ;
#311 = AXIS2_PLACEMENT_3D ( 'NONE', #15, #193, #12 ) ;
#312 = FACE_OUTER_BOUND ( 'NONE', #270, .T. ) ;
#313 = CC_DESIGN_APPROVAL ( #343, ( #300 ) ) ;
#314 = FACE_OUTER_BOUND ( 'NONE', #94, .T. ) ;
#315 = DIRECTION ( 'NONE',  ( 0.000000000000000000, -1.000000000000000000, 0.000000000000000000 ) ) ;
#316 = CALENDAR_DATE ( 2022, 8, 7 ) ;
#317 = CARTESIAN_POINT ( 'NONE',  ( 0.000000000000000000, 0.000000000000000000, 0.000000000000000000 ) ) ;
#318 = APPROVAL_DATE_TIME ( #345, #343 ) ;
#319 = CIRCLE ( 'NONE', #371, 6.000000000000000888 ) ;
#320 = LINE ( 'NONE', #290, #372 ) ;
#321 = CARTESIAN_POINT ( 'NONE',  ( -6.500000000000000888, 7.960204194457796463E-16, 7.499999999999951150 ) ) ;
#322 = MANIFOLD_SOLID_BREP ( 'Odebrat vysunutím3', #197 ) ;
#323 = EDGE_CURVE ( 'NONE', #157, #33, #267, .T. ) ;
#324 = AXIS2_PLACEMENT_3D ( 'NONE', #275, #124, #187 ) ;
#325 = ORIENTED_EDGE ( 'NONE', *, *, #189, .F. ) ;
#326 = APPROVAL ( #97, 'NEURÈENÝ' ) ;
#327 = ORIENTED_EDGE ( 'NONE', *, *, #274, .T. ) ;
#328 = AXIS2_PLACEMENT_3D ( 'NONE', #132, #217, #222 ) ;
#329 = ORIENTED_EDGE ( 'NONE', *, *, #297, .F. ) ;
#330 = VERTEX_POINT ( 'NONE', #261 ) ;
#331 = CC_DESIGN_PERSON_AND_ORGANIZATION_ASSIGNMENT ( #44, #191, ( #300 ) ) ;
#332 = FACE_OUTER_BOUND ( 'NONE', #359, .T. ) ;
#333 = CIRCLE ( 'NONE', #171, 10.00000000000000000 ) ;
#334 = APPROVAL_PERSON_ORGANIZATION ( #295, #343, #146 ) ;
#335 = CARTESIAN_POINT ( 'NONE',  ( -6.000000000000000888, 0.000000000000000000, 557.0000000000000000 ) ) ;
#336 = DIRECTION ( 'NONE',  ( 1.000000000000000000, 0.000000000000000000, 0.000000000000000000 ) ) ;
#337 = EDGE_CURVE ( 'NONE', #117, #25, #186, .T. ) ;
#338 = CARTESIAN_POINT ( 'NONE',  ( 0.000000000000000000, 0.000000000000000000, 7.499999999999951150 ) ) ;
#339 = DIRECTION ( 'NONE',  ( 1.000000000000000000, 0.000000000000000000, -0.000000000000000000 ) ) ;
#340 = AXIS2_PLACEMENT_3D ( 'NONE', #174, #378, #208 ) ;
#341 = DIRECTION ( 'NONE',  ( 0.000000000000000000, 0.000000000000000000, 1.000000000000000000 ) ) ;
#342 = COORDINATED_UNIVERSAL_TIME_OFFSET ( 1, 0, .AHEAD. ) ;
#343 = APPROVAL ( #28, 'NEURÈENÝ' ) ;
#344 = CYLINDRICAL_SURFACE ( 'NONE', #100, 2.750000000000000000 ) ;
#345 = DATE_AND_TIME ( #349, #182 ) ;
#346 = CARTESIAN_POINT ( 'NONE',  ( 0.000000000000000000, 0.000000000000000000, 0.000000000000000000 ) ) ;
#347 = PERSON ( 'NEURÈENÝ', 'NEURÈENÝ', 'NEURÈENÝ', ('NEURÈENÝ'), ('NEURÈENÝ'), ('NEURÈENÝ') ) ;
#348 = EDGE_LOOP ( 'NONE', ( #190, #240 ) ) ;
#349 = CALENDAR_DATE ( 2022, 8, 7 ) ;
#350 = PRODUCT_DEFINITION ( 'NEZNÁMÝ', '', #300, #120 ) ;
#351 = PERSON_AND_ORGANIZATION_ROLE ( 'creator' ) ;
#352 = ORIENTED_EDGE ( 'NONE', *, *, #26, .F. ) ;
#353 = ORIENTED_EDGE ( 'NONE', *, *, #337, .F. ) ;
#354 = AXIS2_PLACEMENT_3D ( 'NONE', #285, #370, #104 ) ;
#355 = AXIS2_PLACEMENT_3D ( 'NONE', #53, #144, #110 ) ;
#356 = APPROVAL_ROLE ( '' ) ;
#357 = ORIENTED_EDGE ( 'NONE', *, *, #90, .T. ) ;
#358 = ORIENTED_EDGE ( 'NONE', *, *, #189, .T. ) ;
#359 = EDGE_LOOP ( 'NONE', ( #233, #273, #237, #156 ) ) ;
#360 = AXIS2_PLACEMENT_3D ( 'NONE', #365, #75, #136 ) ;
#361 = ORIENTED_EDGE ( 'NONE', *, *, #218, .F. ) ;
#362 = PRODUCT_RELATED_PRODUCT_CATEGORY ( 'detail', '', ( #263 ) ) ;
#363 = EDGE_LOOP ( 'NONE', ( #214, #213, #39, #66 ) ) ;
#364 = FACE_BOUND ( 'NONE', #247, .T. ) ;
#365 = CARTESIAN_POINT ( 'NONE',  ( 0.000000000000000000, 0.000000000000000000, 0.000000000000000000 ) ) ;
#366 = CIRCLE ( 'NONE', #61, 6.500000000000000888 ) ;
#367 = EDGE_CURVE ( 'NONE', #150, #32, #381, .T. ) ;
#368 = CARTESIAN_POINT ( 'NONE',  ( 6.000000000000000888, 7.347880794884120722E-16, 557.0000000000000000 ) ) ;
#369 = DIRECTION ( 'NONE',  ( -1.000000000000000000, 0.000000000000000000, 0.000000000000000000 ) ) ;
#370 = DIRECTION ( 'NONE',  ( 0.000000000000000000, 0.000000000000000000, 1.000000000000000000 ) ) ;
#371 = AXIS2_PLACEMENT_3D ( 'NONE', #309, #250, #336 ) ;
#372 = VECTOR ( 'NONE', #22, 1000.000000000000000 ) ;
#373 = DIRECTION ( 'NONE',  ( 0.000000000000000000, 0.000000000000000000, -1.000000000000000000 ) ) ;
#374 = CC_DESIGN_PERSON_AND_ORGANIZATION_ASSIGNMENT ( #280, #62, ( #239 ) ) ;
#375 = CARTESIAN_POINT ( 'NONE',  ( -10.00000000000000000, 0.000000000000000000, 7.000000000000000000 ) ) ;
#376 = APPLICATION_PROTOCOL_DEFINITION ( 'international standard', 'config_control_design', 1994, #147 ) ;
#377 = CARTESIAN_POINT ( 'NONE',  ( 0.000000000000000000, 0.000000000000000000, 557.0000000000000000 ) ) ;
#378 = DIRECTION ( 'NONE',  ( 0.000000000000000000, 0.000000000000000000, 1.000000000000000000 ) ) ;
#379 = DIRECTION ( 'NONE',  ( 1.000000000000000000, 0.000000000000000000, 0.000000000000000000 ) ) ;
#380 = APPLICATION_PROTOCOL_DEFINITION ( 'international standard', 'config_control_design', 1994, #207 ) ;
#381 = CIRCLE ( 'NONE', #340, 2.750000000000000000 ) ;
ENDSEC;
END-ISO-10303-21;
