ISO-10303-21;
HEADER;
FILE_DESCRIPTION (( 'STEP AP203' ),
    '1' );
FILE_NAME ('7a1b.STEP',
    '2022-07-08T14:42:18',
    ( '' ),
    ( '' ),
    'SwSTEP 2.0',
    'SolidWorks 2019',
    '' );
FILE_SCHEMA (( 'CONFIG_CONTROL_DESIGN' ));
ENDSEC;

DATA;
#1 = PERSON_AND_ORGANIZATION ( #258, #100 ) ;
#2 = DIRECTION ( 'NONE',  ( -1.000000000000000000, 0.000000000000000000, 0.000000000000000000 ) ) ;
#3 = DIRECTION ( 'NONE',  ( 1.000000000000000000, 0.000000000000000000, -0.000000000000000000 ) ) ;
#4 = LOCAL_TIME ( 16, 42, 18.00000000000000000, #304 ) ;
#5 = PLANE ( 'NONE',  #354 ) ;
#6 = DIRECTION ( 'NONE',  ( -0.000000000000000000, -0.000000000000000000, -1.000000000000000000 ) ) ;
#7 = ORIENTED_EDGE ( 'NONE', *, *, #30, .F. ) ;
#8 = CC_DESIGN_PERSON_AND_ORGANIZATION_ASSIGNMENT ( #344, #254, ( #262 ) ) ;
#9 = CARTESIAN_POINT ( 'NONE',  ( 0.000000000000000000, 0.000000000000000000, 7.000000000000000000 ) ) ;
#10 = DIRECTION ( 'NONE',  ( -0.000000000000000000, -0.000000000000000000, -1.000000000000000000 ) ) ;
#11 = ORIENTED_EDGE ( 'NONE', *, *, #256, .T. ) ;
#12 = VERTEX_POINT ( 'NONE', #97 ) ;
#13 = DIRECTION ( 'NONE',  ( 0.000000000000000000, 0.000000000000000000, -1.000000000000000000 ) ) ;
#14 = DIRECTION ( 'NONE',  ( -0.000000000000000000, -0.000000000000000000, -1.000000000000000000 ) ) ;
#15 = DATE_AND_TIME ( #276, #4 ) ;
#16 = CARTESIAN_POINT ( 'NONE',  ( 0.000000000000000000, 0.000000000000000000, 257.0000000000000000 ) ) ;
#17 = DIRECTION ( 'NONE',  ( 0.000000000000000000, 0.000000000000000000, -1.000000000000000000 ) ) ;
#18 = ADVANCED_FACE ( 'NONE', ( #135 ), #255, .F. ) ;
#19 = AXIS2_PLACEMENT_3D ( 'NONE', #9, #148, #359 ) ;
#20 = APPROVAL_DATE_TIME ( #232, #146 ) ;
#21 = CARTESIAN_POINT ( 'NONE',  ( 3.250000000000000444, 3.980102097228898231E-16, 257.0000000000000000 ) ) ;
#22 = EDGE_CURVE ( 'NONE', #361, #239, #214, .T. ) ;
#23 = DIRECTION ( 'NONE',  ( 0.000000000000000000, 0.000000000000000000, 1.000000000000000000 ) ) ;
#24 = ORIENTED_EDGE ( 'NONE', *, *, #158, .F. ) ;
#25 = EDGE_CURVE ( 'NONE', #12, #380, #42, .T. ) ;
#26 = AXIS2_PLACEMENT_3D ( 'NONE', #112, #57, #233 ) ;
#27 = ORIENTED_EDGE ( 'NONE', *, *, #163, .T. ) ;
#28 = COORDINATED_UNIVERSAL_TIME_OFFSET ( 1, 0, .AHEAD. ) ;
#29 = DIRECTION ( 'NONE',  ( -0.000000000000000000, -0.000000000000000000, -1.000000000000000000 ) ) ;
#30 = EDGE_CURVE ( 'NONE', #380, #168, #132, .T. ) ;
#31 = DIRECTION ( 'NONE',  ( 1.000000000000000000, 0.000000000000000000, 0.000000000000000000 ) ) ;
#32 = AXIS2_PLACEMENT_3D ( 'NONE', #83, #23, #259 ) ;
#33 = ORIENTED_EDGE ( 'NONE', *, *, #25, .F. ) ;
#34 = CARTESIAN_POINT ( 'NONE',  ( 0.000000000000000000, 0.000000000000000000, 7.000000000000000000 ) ) ;
#35 = DIRECTION ( 'NONE',  ( -1.000000000000000000, 0.000000000000000000, 0.000000000000000000 ) ) ;
#36 = EDGE_CURVE ( 'NONE', #352, #327, #252, .T. ) ;
#37 = DIRECTION ( 'NONE',  ( 1.000000000000000000, 0.000000000000000000, -0.000000000000000000 ) ) ;
#38 = CIRCLE ( 'NONE', #63, 6.000000000000000888 ) ;
#39 = EDGE_LOOP ( 'NONE', ( #207, #260 ) ) ;
#40 = FACE_OUTER_BOUND ( 'NONE', #39, .T. ) ;
#41 = VERTEX_POINT ( 'NONE', #372 ) ;
#42 = CIRCLE ( 'NONE', #249, 10.00000000000000000 ) ;
#43 = LINE ( 'NONE', #188, #175 ) ;
#44 = LINE ( 'NONE', #339, #154 ) ;
#45 = DIRECTION ( 'NONE',  ( 1.000000000000000000, 0.000000000000000000, 0.000000000000000000 ) ) ;
#46 = CIRCLE ( 'NONE', #282, 6.000000000000000888 ) ;
#47 = CARTESIAN_POINT ( 'NONE',  ( 0.000000000000000000, 0.000000000000000000, 257.0000000000000000 ) ) ;
#48 = VECTOR ( 'NONE', #369, 1000.000000000000000 ) ;
#49 = ORIENTED_EDGE ( 'NONE', *, *, #163, .F. ) ;
#50 = PERSON_AND_ORGANIZATION_ROLE ( 'creator' ) ;
#51 = DIRECTION ( 'NONE',  ( 0.000000000000000000, 0.000000000000000000, 1.000000000000000000 ) ) ;
#52 = CC_DESIGN_APPROVAL ( #146, ( #262 ) ) ;
#53 = ORIENTED_EDGE ( 'NONE', *, *, #190, .F. ) ;
#54 = APPROVAL_ROLE ( '' ) ;
#55 = DIRECTION ( 'NONE',  ( 1.000000000000000000, 0.000000000000000000, 0.000000000000000000 ) ) ;
#56 = CARTESIAN_POINT ( 'NONE',  ( 0.000000000000000000, 0.000000000000000000, 0.000000000000000000 ) ) ;
#57 = DIRECTION ( 'NONE',  ( 0.000000000000000000, 0.000000000000000000, 1.000000000000000000 ) ) ;
#58 = ORIENTED_EDGE ( 'NONE', *, *, #219, .F. ) ;
#59 = DIRECTION ( 'NONE',  ( -1.000000000000000000, 0.000000000000000000, 0.000000000000000000 ) ) ;
#60 = EDGE_CURVE ( 'NONE', #12, #69, #43, .T. ) ;
#61 = CARTESIAN_POINT ( 'NONE',  ( 0.000000000000000000, 0.000000000000000000, 7.500000000000007105 ) ) ;
#62 = MANIFOLD_SOLID_BREP ( 'Odebrat vysunutím3', #109 ) ;
#63 = AXIS2_PLACEMENT_3D ( 'NONE', #61, #296, #331 ) ;
#64 = ADVANCED_FACE ( 'NONE', ( #156, #192 ), #283, .T. ) ;
#65 = FACE_BOUND ( 'NONE', #305, .T. ) ;
#66 = CARTESIAN_POINT ( 'NONE',  ( -6.000000000000000888, 0.000000000000000000, 257.0000000000000000 ) ) ;
#67 = ORIENTED_EDGE ( 'NONE', *, *, #36, .T. ) ;
#68 = DIRECTION ( 'NONE',  ( 1.000000000000000000, 0.000000000000000000, 0.000000000000000000 ) ) ;
#69 = VERTEX_POINT ( 'NONE', #98 ) ;
#70 = DIRECTION ( 'NONE',  ( -0.000000000000000000, -0.000000000000000000, -1.000000000000000000 ) ) ;
#71 = APPROVAL_PERSON_ORGANIZATION ( #246, #253, #224 ) ;
#72 = DIRECTION ( 'NONE',  ( 0.000000000000000000, 0.000000000000000000, 1.000000000000000000 ) ) ;
#73 = DIRECTION ( 'NONE',  ( 0.000000000000000000, 0.000000000000000000, 1.000000000000000000 ) ) ;
#74 = EDGE_CURVE ( 'NONE', #308, #352, #84, .T. ) ;
#75 = APPLICATION_CONTEXT ( 'configuration controlled 3d designs of mechanical parts and assemblies' ) ;
#76 = MECHANICAL_CONTEXT ( 'NONE', #75, 'mechanical' ) ;
#77 = COORDINATED_UNIVERSAL_TIME_OFFSET ( 1, 0, .AHEAD. ) ;
#78 = DIRECTION ( 'NONE',  ( 1.224646799147353207E-16, 1.000000000000000000, -0.000000000000000000 ) ) ;
#79 = AXIS2_PLACEMENT_3D ( 'NONE', #198, #315, #55 ) ;
#80 = DIRECTION ( 'NONE',  ( -0.000000000000000000, -0.000000000000000000, -1.000000000000000000 ) ) ;
#81 = EDGE_LOOP ( 'NONE', ( #49, #24, #358, #241 ) ) ;
#82 = DATE_TIME_ROLE ( 'creation_date' ) ;
#83 = CARTESIAN_POINT ( 'NONE',  ( 0.000000000000000000, 0.000000000000000000, 0.000000000000000000 ) ) ;
#84 = CIRCLE ( 'NONE', #362, 3.250000000000000444 ) ;
#85 = FACE_OUTER_BOUND ( 'NONE', #349, .T. ) ;
#86 = CIRCLE ( 'NONE', #32, 10.00000000000000000 ) ;
#87 = ADVANCED_BREP_SHAPE_REPRESENTATION ( '7a1b', ( #62, #222 ), #113 ) ;
#88 = ORIENTED_EDGE ( 'NONE', *, *, #219, .T. ) ;
#89 = AXIS2_PLACEMENT_3D ( 'NONE', #34, #117, #270 ) ;
#90 = CARTESIAN_POINT ( 'NONE',  ( 0.000000000000000000, 0.000000000000000000, 7.500000000000007105 ) ) ;
#91 = ORIENTED_EDGE ( 'NONE', *, *, #36, .F. ) ;
#92 = VECTOR ( 'NONE', #303, 1000.000000000000000 ) ;
#93 = ORIENTED_EDGE ( 'NONE', *, *, #336, .T. ) ;
#94 = AXIS2_PLACEMENT_3D ( 'NONE', #347, #314, #267 ) ;
#95 = APPLICATION_PROTOCOL_DEFINITION ( 'international standard', 'config_control_design', 1994, #75 ) ;
#96 = DIRECTION ( 'NONE',  ( 0.000000000000000000, 0.000000000000000000, 1.000000000000000000 ) ) ;
#97 = CARTESIAN_POINT ( 'NONE',  ( 10.00000000000000000, 1.224646799147353256E-15, 7.000000000000000000 ) ) ;
#98 = CARTESIAN_POINT ( 'NONE',  ( 10.00000000000000000, 1.224646799147353256E-15, 0.000000000000000000 ) ) ;
#99 = PRODUCT_DEFINITION_SHAPE ( 'NONE', 'NONE',  #144 ) ;
#100 = ORGANIZATION ( 'NEURÈENÝ', 'NEURÈENÝ', '' ) ;
#101 = APPLICATION_PROTOCOL_DEFINITION ( 'international standard', 'config_control_design', 1994, #312 ) ;
#102 = CARTESIAN_POINT ( 'NONE',  ( 0.000000000000000000, 0.000000000000000000, 7.000000000000000000 ) ) ;
#103 = CIRCLE ( 'NONE', #293, 6.000000000000000888 ) ;
#104 = DIRECTION ( 'NONE',  ( 1.000000000000000000, 0.000000000000000000, 0.000000000000000000 ) ) ;
#105 = FACE_OUTER_BOUND ( 'NONE', #205, .T. ) ;
#106 = PRODUCT_RELATED_PRODUCT_CATEGORY ( 'detail', '', ( #343 ) ) ;
#107 = FACE_OUTER_BOUND ( 'NONE', #116, .T. ) ;
#108 = CALENDAR_DATE ( 2022, 8, 7 ) ;
#109 = CLOSED_SHELL ( 'NONE', ( #18, #170, #306, #250, #294, #285, #348, #130, #64, #176, #199 ) ) ;
#110 = EDGE_CURVE ( 'NONE', #292, #160, #103, .T. ) ;
#111 = ORIENTED_EDGE ( 'NONE', *, *, #60, .F. ) ;
#112 = CARTESIAN_POINT ( 'NONE',  ( 0.000000000000000000, 0.000000000000000000, 7.500000000000007105 ) ) ;
#113 =( GEOMETRIC_REPRESENTATION_CONTEXT ( 3 ) GLOBAL_UNCERTAINTY_ASSIGNED_CONTEXT ( ( #217 ) ) GLOBAL_UNIT_ASSIGNED_CONTEXT ( ( #311, #366, #368 ) ) REPRESENTATION_CONTEXT ( 'NONE', 'WORKASPACE' ) );
#114 = CARTESIAN_POINT ( 'NONE',  ( 6.000000000000000888, 7.347880794884120722E-16, 257.0000000000000000 ) ) ;
#115 = ORIENTED_EDGE ( 'NONE', *, *, #182, .T. ) ;
#116 = EDGE_LOOP ( 'NONE', ( #178, #375, #215, #153 ) ) ;
#117 = DIRECTION ( 'NONE',  ( -0.000000000000000000, -0.000000000000000000, -1.000000000000000000 ) ) ;
#118 = EDGE_LOOP ( 'NONE', ( #277, #360 ) ) ;
#119 = AXIS2_PLACEMENT_3D ( 'NONE', #145, #139, #295 ) ;
#120 = AXIS2_PLACEMENT_3D ( 'NONE', #202, #78, #193 ) ;
#121 = FACE_OUTER_BOUND ( 'NONE', #334, .T. ) ;
#122 = ORIENTED_EDGE ( 'NONE', *, *, #271, .F. ) ;
#123 = CIRCLE ( 'NONE', #237, 6.500000000000000888 ) ;
#124 = DIRECTION ( 'NONE',  ( 1.000000000000000000, 0.000000000000000000, 0.000000000000000000 ) ) ;
#125 = TOROIDAL_SURFACE ( 'NONE', #26, 6.500000000000000888, 0.5000000000000000000 ) ;
#126 = CARTESIAN_POINT ( 'NONE',  ( 0.000000000000000000, 0.000000000000000000, 257.0000000000000000 ) ) ;
#127 = EDGE_CURVE ( 'NONE', #239, #298, #123, .T. ) ;
#128 = PERSON_AND_ORGANIZATION ( #258, #100 ) ;
#129 = FACE_OUTER_BOUND ( 'NONE', #81, .T. ) ;
#130 = ADVANCED_FACE ( 'NONE', ( #129 ), #159, .T. ) ;
#131 = CARTESIAN_POINT ( 'NONE',  ( 3.250000000000000444, 3.980102097228898231E-16, 257.0000000000000000 ) ) ;
#132 = LINE ( 'NONE', #157, #48 ) ;
#133 = AXIS2_PLACEMENT_3D ( 'NONE', #289, #80, #196 ) ;
#134 = PERSON_AND_ORGANIZATION ( #258, #100 ) ;
#135 = FACE_OUTER_BOUND ( 'NONE', #200, .T. ) ;
#136 = DATE_AND_TIME ( #138, #364 ) ;
#137 = ORIENTED_EDGE ( 'NONE', *, *, #22, .F. ) ;
#138 = CALENDAR_DATE ( 2022, 8, 7 ) ;
#139 = DIRECTION ( 'NONE',  ( 0.000000000000000000, 0.000000000000000000, 1.000000000000000000 ) ) ;
#140 = AXIS2_PLACEMENT_3D ( 'NONE', #288, #284, #59 ) ;
#141 = CC_DESIGN_PERSON_AND_ORGANIZATION_ASSIGNMENT ( #226, #266, ( #262 ) ) ;
#142 = ORIENTED_EDGE ( 'NONE', *, *, #74, .F. ) ;
#143 = DATE_TIME_ROLE ( 'classification_date' ) ;
#144 = PRODUCT_DEFINITION ( 'NEZNÁMÝ', '', #262, #248 ) ;
#145 = CARTESIAN_POINT ( 'NONE',  ( 0.000000000000000000, 0.000000000000000000, 257.0000000000000000 ) ) ;
#146 = APPROVAL ( #261, 'NEURÈENÝ' ) ;
#147 = APPROVAL_PERSON_ORGANIZATION ( #134, #330, #54 ) ;
#148 = DIRECTION ( 'NONE',  ( 0.000000000000000000, 0.000000000000000000, 1.000000000000000000 ) ) ;
#149 = ORIENTED_EDGE ( 'NONE', *, *, #309, .F. ) ;
#150 = DIRECTION ( 'NONE',  ( -0.000000000000000000, -0.000000000000000000, -1.000000000000000000 ) ) ;
#151 = VERTEX_POINT ( 'NONE', #162 ) ;
#152 = FACE_OUTER_BOUND ( 'NONE', #273, .T. ) ;
#153 = ORIENTED_EDGE ( 'NONE', *, *, #317, .F. ) ;
#154 = VECTOR ( 'NONE', #13, 1000.000000000000000 ) ;
#155 = CARTESIAN_POINT ( 'NONE',  ( 3.250000000000000444, 3.980102097228898231E-16, 0.000000000000000000 ) ) ;
#156 = FACE_BOUND ( 'NONE', #236, .T. ) ;
#157 = CARTESIAN_POINT ( 'NONE',  ( -10.00000000000000000, 0.000000000000000000, 7.000000000000000000 ) ) ;
#158 = EDGE_CURVE ( 'NONE', #160, #292, #302, .T. ) ;
#159 = CYLINDRICAL_SURFACE ( 'NONE', #342, 6.000000000000000888 ) ;
#160 = VERTEX_POINT ( 'NONE', #350 ) ;
#161 = DIRECTION ( 'NONE',  ( 0.000000000000000000, 0.000000000000000000, 1.000000000000000000 ) ) ;
#162 = CARTESIAN_POINT ( 'NONE',  ( -6.000000000000000888, 0.000000000000000000, 7.500000000000007105 ) ) ;
#163 = EDGE_CURVE ( 'NONE', #292, #361, #378, .T. ) ;
#164 = APPROVAL_DATE_TIME ( #136, #330 ) ;
#165 = FACE_OUTER_BOUND ( 'NONE', #216, .T. ) ;
#166 = DIRECTION ( 'NONE',  ( -0.000000000000000000, -0.000000000000000000, -1.000000000000000000 ) ) ;
#167 = VECTOR ( 'NONE', #227, 1000.000000000000000 ) ;
#168 = VERTEX_POINT ( 'NONE', #265 ) ;
#169 = CIRCLE ( 'NONE', #89, 6.500000000000000888 ) ;
#170 = ADVANCED_FACE ( 'NONE', ( #85 ), #251, .F. ) ;
#171 = LINE ( 'NONE', #66, #179 ) ;
#172 = ORIENTED_EDGE ( 'NONE', *, *, #321, .F. ) ;
#173 = CARTESIAN_POINT ( 'NONE',  ( -6.500000000000000888, 7.960204194457796463E-16, 7.000000000000002665 ) ) ;
#174 = CARTESIAN_POINT ( 'NONE',  ( 0.000000000000000000, 0.000000000000000000, 7.000000000000000000 ) ) ;
#175 = VECTOR ( 'NONE', #14, 1000.000000000000000 ) ;
#176 = ADVANCED_FACE ( 'NONE', ( #107 ), #125, .F. ) ;
#177 = CARTESIAN_POINT ( 'NONE',  ( 0.000000000000000000, 0.000000000000000000, 0.000000000000000000 ) ) ;
#178 = ORIENTED_EDGE ( 'NONE', *, *, #182, .F. ) ;
#179 = VECTOR ( 'NONE', #10, 1000.000000000000000 ) ;
#180 = ORIENTED_EDGE ( 'NONE', *, *, #279, .T. ) ;
#181 = CARTESIAN_POINT ( 'NONE',  ( -10.00000000000000000, 0.000000000000000000, 7.000000000000000000 ) ) ;
#182 = EDGE_CURVE ( 'NONE', #151, #298, #300, .T. ) ;
#183 = ORIENTED_EDGE ( 'NONE', *, *, #324, .F. ) ;
#184 = PERSON_AND_ORGANIZATION_ROLE ( 'design_owner' ) ;
#185 = CARTESIAN_POINT ( 'NONE',  ( 0.000000000000000000, 0.000000000000000000, 257.0000000000000000 ) ) ;
#186 = CARTESIAN_POINT ( 'NONE',  ( 6.000000000000000888, 7.347880794884120722E-16, 7.500000000000007105 ) ) ;
#187 = LOCAL_TIME ( 16, 42, 18.00000000000000000, #291 ) ;
#188 = CARTESIAN_POINT ( 'NONE',  ( 10.00000000000000000, 1.224646799147353256E-15, 7.000000000000000000 ) ) ;
#189 = ORIENTED_EDGE ( 'NONE', *, *, #190, .T. ) ;
#190 = EDGE_CURVE ( 'NONE', #352, #308, #247, .T. ) ;
#191 = APPROVAL_DATE_TIME ( #15, #253 ) ;
#192 = FACE_OUTER_BOUND ( 'NONE', #363, .T. ) ;
#193 = DIRECTION ( 'NONE',  ( -1.000000000000000000, 1.224646799147351482E-16, 0.000000000000000000 ) ) ;
#194 = AXIS2_PLACEMENT_3D ( 'NONE', #229, #341, #104 ) ;
#195 = APPROVAL_STATUS ( 'not_yet_approved' ) ;
#196 = DIRECTION ( 'NONE',  ( -1.000000000000000000, 0.000000000000000000, 0.000000000000000000 ) ) ;
#197 = SHAPE_DEFINITION_REPRESENTATION ( #99, #87 ) ;
#198 = CARTESIAN_POINT ( 'NONE',  ( 0.000000000000000000, 0.000000000000000000, 0.000000000000000000 ) ) ;
#199 = ADVANCED_FACE ( 'NONE', ( #165 ), #323, .F. ) ;
#200 = EDGE_LOOP ( 'NONE', ( #212, #67, #180, #231 ) ) ;
#201 = AXIS2_PLACEMENT_3D ( 'NONE', #325, #357, #206 ) ;
#202 = CARTESIAN_POINT ( 'NONE',  ( -6.500000000000000888, 7.960204194457796463E-16, 7.500000000000007105 ) ) ;
#203 = ORIENTED_EDGE ( 'NONE', *, *, #110, .T. ) ;
#204 = FACE_OUTER_BOUND ( 'NONE', #332, .T. ) ;
#205 = EDGE_LOOP ( 'NONE', ( #33, #346, #88, #7 ) ) ;
#206 = DIRECTION ( 'NONE',  ( -1.000000000000000000, 0.000000000000000000, 0.000000000000000000 ) ) ;
#207 = ORIENTED_EDGE ( 'NONE', *, *, #324, .T. ) ;
#208 = CIRCLE ( 'NONE', #19, 10.00000000000000000 ) ;
#209 = AXIS2_PLACEMENT_3D ( 'NONE', #319, #6, #68 ) ;
#210 = DIRECTION ( 'NONE',  ( 0.000000000000000000, 0.000000000000000000, 1.000000000000000000 ) ) ;
#211 = CC_DESIGN_PERSON_AND_ORGANIZATION_ASSIGNMENT ( #1, #228, ( #328 ) ) ;
#212 = ORIENTED_EDGE ( 'NONE', *, *, #74, .T. ) ;
#213 = FACE_BOUND ( 'NONE', #118, .T. ) ;
#214 = CIRCLE ( 'NONE', #381, 0.5000000000000004441 ) ;
#215 = ORIENTED_EDGE ( 'NONE', *, *, #22, .T. ) ;
#216 = EDGE_LOOP ( 'NONE', ( #91, #189, #245, #230 ) ) ;
#217 = UNCERTAINTY_MEASURE_WITH_UNIT (LENGTH_MEASURE( 1.000000000000000082E-05 ), #311, 'distance_accuracy_value', 'NONE');
#218 = APPROVAL_STATUS ( 'not_yet_approved' ) ;
#219 = EDGE_CURVE ( 'NONE', #69, #168, #86, .T. ) ;
#220 = COORDINATED_UNIVERSAL_TIME_OFFSET ( 1, 0, .AHEAD. ) ;
#221 = CARTESIAN_POINT ( 'NONE',  ( 6.500000000000000888, 0.000000000000000000, 7.500000000000007105 ) ) ;
#222 = AXIS2_PLACEMENT_3D ( 'NONE', #301, #72, #124 ) ;
#223 = DIRECTION ( 'NONE',  ( 1.000000000000000000, 0.000000000000000000, 0.000000000000000000 ) ) ;
#224 = APPROVAL_ROLE ( '' ) ;
#225 = CARTESIAN_POINT ( 'NONE',  ( 0.000000000000000000, 0.000000000000000000, 7.000000000000000000 ) ) ;
#226 = PERSON_AND_ORGANIZATION ( #258, #100 ) ;
#227 = DIRECTION ( 'NONE',  ( -0.000000000000000000, -0.000000000000000000, -1.000000000000000000 ) ) ;
#228 = PERSON_AND_ORGANIZATION_ROLE ( 'classification_officer' ) ;
#229 = CARTESIAN_POINT ( 'NONE',  ( 0.000000000000000000, 0.000000000000000000, 7.500000000000007105 ) ) ;
#230 = ORIENTED_EDGE ( 'NONE', *, *, #271, .T. ) ;
#231 = ORIENTED_EDGE ( 'NONE', *, *, #356, .F. ) ;
#232 = DATE_AND_TIME ( #281, #187 ) ;
#233 = DIRECTION ( 'NONE',  ( 1.000000000000000000, 0.000000000000000000, 0.000000000000000000 ) ) ;
#234 = AXIS2_PLACEMENT_3D ( 'NONE', #177, #299, #37 ) ;
#235 = DIRECTION ( 'NONE',  ( 0.000000000000000000, 0.000000000000000000, 1.000000000000000000 ) ) ;
#236 = EDGE_LOOP ( 'NONE', ( #142, #53 ) ) ;
#237 = AXIS2_PLACEMENT_3D ( 'NONE', #102, #70, #223 ) ;
#238 = CARTESIAN_POINT ( 'NONE',  ( 0.000000000000000000, 0.000000000000000000, 7.000000000000000000 ) ) ;
#239 = VERTEX_POINT ( 'NONE', #374 ) ;
#240 = CC_DESIGN_DATE_AND_TIME_ASSIGNMENT ( #287, #82, ( #144 ) ) ;
#241 = ORIENTED_EDGE ( 'NONE', *, *, #309, .T. ) ;
#242 = PLANE ( 'NONE',  #234 ) ;
#243 = ORIENTED_EDGE ( 'NONE', *, *, #279, .F. ) ;
#244 = CYLINDRICAL_SURFACE ( 'NONE', #201, 6.000000000000000888 ) ;
#245 = ORIENTED_EDGE ( 'NONE', *, *, #356, .T. ) ;
#246 = PERSON_AND_ORGANIZATION ( #258, #100 ) ;
#247 = CIRCLE ( 'NONE', #94, 3.250000000000000444 ) ;
#248 = DESIGN_CONTEXT ( 'detailed design', #312, 'design' ) ;
#249 = AXIS2_PLACEMENT_3D ( 'NONE', #225, #73, #340 ) ;
#250 = ADVANCED_FACE ( 'NONE', ( #105 ), #345, .T. ) ;
#251 = TOROIDAL_SURFACE ( 'NONE', #194, 6.500000000000000888, 0.5000000000000000000 ) ;
#252 = LINE ( 'NONE', #21, #92 ) ;
#253 = APPROVAL ( #218, 'NEURÈENÝ' ) ;
#254 = PERSON_AND_ORGANIZATION_ROLE ( 'creator' ) ;
#255 = CYLINDRICAL_SURFACE ( 'NONE', #257, 3.250000000000000444 ) ;
#256 = EDGE_CURVE ( 'NONE', #168, #69, #377, .T. ) ;
#257 = AXIS2_PLACEMENT_3D ( 'NONE', #185, #17, #373 ) ;
#258 = PERSON ( 'NEURÈENÝ', 'NEURÈENÝ', 'NEURÈENÝ', ('NEURÈENÝ'), ('NEURÈENÝ'), ('NEURÈENÝ') ) ;
#259 = DIRECTION ( 'NONE',  ( 1.000000000000000000, 0.000000000000000000, 0.000000000000000000 ) ) ;
#260 = ORIENTED_EDGE ( 'NONE', *, *, #25, .T. ) ;
#261 = APPROVAL_STATUS ( 'not_yet_approved' ) ;
#262 = PRODUCT_DEFINITION_FORMATION_WITH_SPECIFIED_SOURCE ( 'LIBOVOLNÝ', '', #343, .NOT_KNOWN. ) ;
#263 = CC_DESIGN_PERSON_AND_ORGANIZATION_ASSIGNMENT ( #128, #50, ( #144 ) ) ;
#264 = SECURITY_CLASSIFICATION_LEVEL ( 'unclassified' ) ;
#265 = CARTESIAN_POINT ( 'NONE',  ( -10.00000000000000000, 0.000000000000000000, 0.000000000000000000 ) ) ;
#266 = PERSON_AND_ORGANIZATION_ROLE ( 'design_supplier' ) ;
#267 = DIRECTION ( 'NONE',  ( 1.000000000000000000, 0.000000000000000000, 0.000000000000000000 ) ) ;
#268 = CARTESIAN_POINT ( 'NONE',  ( 6.000000000000000888, 7.347880794884120722E-16, 257.0000000000000000 ) ) ;
#269 = LOCAL_TIME ( 16, 42, 18.00000000000000000, #28 ) ;
#270 = DIRECTION ( 'NONE',  ( 1.000000000000000000, 0.000000000000000000, 0.000000000000000000 ) ) ;
#271 = EDGE_CURVE ( 'NONE', #41, #327, #376, .T. ) ;
#272 = LOCAL_TIME ( 16, 42, 18.00000000000000000, #220 ) ;
#273 = EDGE_LOOP ( 'NONE', ( #111, #183, #326, #11 ) ) ;
#274 = DIRECTION ( 'NONE',  ( 1.000000000000000000, 0.000000000000000000, -0.000000000000000000 ) ) ;
#275 = APPROVAL_PERSON_ORGANIZATION ( #318, #146, #322 ) ;
#276 = CALENDAR_DATE ( 2022, 8, 7 ) ;
#277 = ORIENTED_EDGE ( 'NONE', *, *, #127, .T. ) ;
#278 = CC_DESIGN_DATE_AND_TIME_ASSIGNMENT ( #353, #143, ( #328 ) ) ;
#279 = EDGE_CURVE ( 'NONE', #327, #41, #320, .T. ) ;
#280 = CARTESIAN_POINT ( 'NONE',  ( 0.000000000000000000, 0.000000000000000000, 257.0000000000000000 ) ) ;
#281 = CALENDAR_DATE ( 2022, 8, 7 ) ;
#282 = AXIS2_PLACEMENT_3D ( 'NONE', #90, #210, #31 ) ;
#283 = PLANE ( 'NONE',  #310 ) ;
#284 = DIRECTION ( 'NONE',  ( 0.000000000000000000, 0.000000000000000000, -1.000000000000000000 ) ) ;
#285 = ADVANCED_FACE ( 'NONE', ( #213, #40 ), #5, .T. ) ;
#286 = ORIENTED_EDGE ( 'NONE', *, *, #158, .T. ) ;
#287 = DATE_AND_TIME ( #335, #272 ) ;
#288 = CARTESIAN_POINT ( 'NONE',  ( 0.000000000000000000, 0.000000000000000000, 257.0000000000000000 ) ) ;
#289 = CARTESIAN_POINT ( 'NONE',  ( 0.000000000000000000, 0.000000000000000000, 7.000000000000000000 ) ) ;
#290 = ORIENTED_EDGE ( 'NONE', *, *, #110, .F. ) ;
#291 = COORDINATED_UNIVERSAL_TIME_OFFSET ( 1, 0, .AHEAD. ) ;
#292 = VERTEX_POINT ( 'NONE', #114 ) ;
#293 = AXIS2_PLACEMENT_3D ( 'NONE', #47, #96, #45 ) ;
#294 = ADVANCED_FACE ( 'NONE', ( #152 ), #355, .T. ) ;
#295 = DIRECTION ( 'NONE',  ( 1.000000000000000000, 0.000000000000000000, 0.000000000000000000 ) ) ;
#296 = DIRECTION ( 'NONE',  ( 0.000000000000000000, 0.000000000000000000, 1.000000000000000000 ) ) ;
#297 = CC_DESIGN_SECURITY_CLASSIFICATION ( #328, ( #262 ) ) ;
#298 = VERTEX_POINT ( 'NONE', #173 ) ;
#299 = DIRECTION ( 'NONE',  ( 0.000000000000000000, 0.000000000000000000, 1.000000000000000000 ) ) ;
#300 = CIRCLE ( 'NONE', #120, 0.5000000000000004441 ) ;
#301 = CARTESIAN_POINT ( 'NONE',  ( 0.000000000000000000, 0.000000000000000000, 0.000000000000000000 ) ) ;
#302 = CIRCLE ( 'NONE', #119, 6.000000000000000888 ) ;
#303 = DIRECTION ( 'NONE',  ( 0.000000000000000000, 0.000000000000000000, -1.000000000000000000 ) ) ;
#304 = COORDINATED_UNIVERSAL_TIME_OFFSET ( 1, 0, .AHEAD. ) ;
#305 = EDGE_LOOP ( 'NONE', ( #122, #243 ) ) ;
#306 = ADVANCED_FACE ( 'NONE', ( #204 ), #244, .T. ) ;
#307 = CC_DESIGN_APPROVAL ( #330, ( #328 ) ) ;
#308 = VERTEX_POINT ( 'NONE', #329 ) ;
#309 = EDGE_CURVE ( 'NONE', #151, #361, #38, .T. ) ;
#310 = AXIS2_PLACEMENT_3D ( 'NONE', #16, #51, #274 ) ;
#311 =( LENGTH_UNIT ( ) NAMED_UNIT ( * ) SI_UNIT ( .MILLI., .METRE. ) );
#312 = APPLICATION_CONTEXT ( 'configuration controlled 3d designs of mechanical parts and assemblies' ) ;
#313 = CC_DESIGN_APPROVAL ( #253, ( #144 ) ) ;
#314 = DIRECTION ( 'NONE',  ( 0.000000000000000000, 0.000000000000000000, 1.000000000000000000 ) ) ;
#315 = DIRECTION ( 'NONE',  ( 0.000000000000000000, 0.000000000000000000, 1.000000000000000000 ) ) ;
#316 = ORIENTED_EDGE ( 'NONE', *, *, #256, .F. ) ;
#317 = EDGE_CURVE ( 'NONE', #298, #239, #169, .T. ) ;
#318 = PERSON_AND_ORGANIZATION ( #258, #100 ) ;
#319 = CARTESIAN_POINT ( 'NONE',  ( 0.000000000000000000, 0.000000000000000000, 0.000000000000000000 ) ) ;
#320 = CIRCLE ( 'NONE', #209, 3.250000000000000444 ) ;
#321 = EDGE_CURVE ( 'NONE', #160, #151, #171, .T. ) ;
#322 = APPROVAL_ROLE ( '' ) ;
#323 = CYLINDRICAL_SURFACE ( 'NONE', #140, 3.250000000000000444 ) ;
#324 = EDGE_CURVE ( 'NONE', #380, #12, #208, .T. ) ;
#325 = CARTESIAN_POINT ( 'NONE',  ( 0.000000000000000000, 0.000000000000000000, 257.0000000000000000 ) ) ;
#326 = ORIENTED_EDGE ( 'NONE', *, *, #30, .T. ) ;
#327 = VERTEX_POINT ( 'NONE', #155 ) ;
#328 = SECURITY_CLASSIFICATION ( '', '', #264 ) ;
#329 = CARTESIAN_POINT ( 'NONE',  ( -3.250000000000000444, 0.000000000000000000, 257.0000000000000000 ) ) ;
#330 = APPROVAL ( #195, 'NEURÈENÝ' ) ;
#331 = DIRECTION ( 'NONE',  ( 1.000000000000000000, 0.000000000000000000, 0.000000000000000000 ) ) ;
#332 = EDGE_LOOP ( 'NONE', ( #290, #27, #93, #172 ) ) ;
#333 = DIRECTION ( 'NONE',  ( 0.000000000000000000, 0.000000000000000000, -1.000000000000000000 ) ) ;
#334 = EDGE_LOOP ( 'NONE', ( #316, #58 ) ) ;
#335 = CALENDAR_DATE ( 2022, 8, 7 ) ;
#336 = EDGE_CURVE ( 'NONE', #361, #151, #46, .T. ) ;
#337 = AXIS2_PLACEMENT_3D ( 'NONE', #174, #150, #35 ) ;
#338 = ORIENTED_EDGE ( 'NONE', *, *, #127, .F. ) ;
#339 = CARTESIAN_POINT ( 'NONE',  ( -3.250000000000000444, 0.000000000000000000, 257.0000000000000000 ) ) ;
#340 = DIRECTION ( 'NONE',  ( 1.000000000000000000, 0.000000000000000000, 0.000000000000000000 ) ) ;
#341 = DIRECTION ( 'NONE',  ( 0.000000000000000000, 0.000000000000000000, 1.000000000000000000 ) ) ;
#342 = AXIS2_PLACEMENT_3D ( 'NONE', #280, #29, #2 ) ;
#343 = PRODUCT ( '7a1b', '7a1b', '', ( #76 ) ) ;
#344 = PERSON_AND_ORGANIZATION ( #258, #100 ) ;
#345 = CYLINDRICAL_SURFACE ( 'NONE', #133, 10.00000000000000000 ) ;
#346 = ORIENTED_EDGE ( 'NONE', *, *, #60, .T. ) ;
#347 = CARTESIAN_POINT ( 'NONE',  ( 0.000000000000000000, 0.000000000000000000, 257.0000000000000000 ) ) ;
#348 = ADVANCED_FACE ( 'NONE', ( #65, #121 ), #242, .F. ) ;
#349 = EDGE_LOOP ( 'NONE', ( #149, #115, #338, #137 ) ) ;
#350 = CARTESIAN_POINT ( 'NONE',  ( -6.000000000000000888, 0.000000000000000000, 257.0000000000000000 ) ) ;
#351 = CC_DESIGN_PERSON_AND_ORGANIZATION_ASSIGNMENT ( #371, #184, ( #343 ) ) ;
#352 = VERTEX_POINT ( 'NONE', #131 ) ;
#353 = DATE_AND_TIME ( #108, #269 ) ;
#354 = AXIS2_PLACEMENT_3D ( 'NONE', #238, #235, #3 ) ;
#355 = CYLINDRICAL_SURFACE ( 'NONE', #337, 10.00000000000000000 ) ;
#356 = EDGE_CURVE ( 'NONE', #308, #41, #44, .T. ) ;
#357 = DIRECTION ( 'NONE',  ( -0.000000000000000000, -0.000000000000000000, -1.000000000000000000 ) ) ;
#358 = ORIENTED_EDGE ( 'NONE', *, *, #321, .T. ) ;
#359 = DIRECTION ( 'NONE',  ( 1.000000000000000000, 0.000000000000000000, 0.000000000000000000 ) ) ;
#360 = ORIENTED_EDGE ( 'NONE', *, *, #317, .T. ) ;
#361 = VERTEX_POINT ( 'NONE', #186 ) ;
#362 = AXIS2_PLACEMENT_3D ( 'NONE', #126, #161, #365 ) ;
#363 = EDGE_LOOP ( 'NONE', ( #286, #203 ) ) ;
#364 = LOCAL_TIME ( 16, 42, 18.00000000000000000, #77 ) ;
#365 = DIRECTION ( 'NONE',  ( 1.000000000000000000, 0.000000000000000000, 0.000000000000000000 ) ) ;
#366 =( NAMED_UNIT ( * ) PLANE_ANGLE_UNIT ( ) SI_UNIT ( $, .RADIAN. ) );
#367 = DIRECTION ( 'NONE',  ( 0.000000000000000000, -1.000000000000000000, 0.000000000000000000 ) ) ;
#368 =( NAMED_UNIT ( * ) SI_UNIT ( $, .STERADIAN. ) SOLID_ANGLE_UNIT ( ) );
#369 = DIRECTION ( 'NONE',  ( -0.000000000000000000, -0.000000000000000000, -1.000000000000000000 ) ) ;
#370 = AXIS2_PLACEMENT_3D ( 'NONE', #56, #166, #379 ) ;
#371 = PERSON_AND_ORGANIZATION ( #258, #100 ) ;
#372 = CARTESIAN_POINT ( 'NONE',  ( -3.250000000000000444, 0.000000000000000000, 0.000000000000000000 ) ) ;
#373 = DIRECTION ( 'NONE',  ( -1.000000000000000000, 0.000000000000000000, 0.000000000000000000 ) ) ;
#374 = CARTESIAN_POINT ( 'NONE',  ( 6.500000000000000888, 0.000000000000000000, 7.000000000000002665 ) ) ;
#375 = ORIENTED_EDGE ( 'NONE', *, *, #336, .F. ) ;
#376 = CIRCLE ( 'NONE', #370, 3.250000000000000444 ) ;
#377 = CIRCLE ( 'NONE', #79, 10.00000000000000000 ) ;
#378 = LINE ( 'NONE', #268, #167 ) ;
#379 = DIRECTION ( 'NONE',  ( 1.000000000000000000, 0.000000000000000000, 0.000000000000000000 ) ) ;
#380 = VERTEX_POINT ( 'NONE', #181 ) ;
#381 = AXIS2_PLACEMENT_3D ( 'NONE', #221, #367, #333 ) ;
ENDSEC;
END-ISO-10303-21;
