ISO-10303-21;
HEADER;
FILE_DESCRIPTION (( 'STEP AP203' ),
    '1' );
FILE_NAME ('f0f1.STEP',
    '2022-07-08T14:33:09',
    ( '' ),
    ( '' ),
    'SwSTEP 2.0',
    'SolidWorks 2019',
    '' );
FILE_SCHEMA (( 'CONFIG_CONTROL_DESIGN' ));
ENDSEC;

DATA;
#1 = MECHANICAL_CONTEXT ( 'NONE', #92, 'mechanical' ) ;
#2 = EDGE_LOOP ( 'NONE', ( #299, #356 ) ) ;
#3 = AXIS2_PLACEMENT_3D ( 'NONE', #187, #307, #71 ) ;
#4 = CIRCLE ( 'NONE', #196, 6.000000000000000888 ) ;
#5 = ORIENTED_EDGE ( 'NONE', *, *, #81, .T. ) ;
#6 = CARTESIAN_POINT ( 'NONE',  ( 6.000000000000000888, 7.347880794884120722E-16, 657.0000000000000000 ) ) ;
#7 = DIRECTION ( 'NONE',  ( -0.000000000000000000, -0.000000000000000000, -1.000000000000000000 ) ) ;
#8 = CARTESIAN_POINT ( 'NONE',  ( 0.000000000000000000, 0.000000000000000000, 0.000000000000000000 ) ) ;
#9 = EDGE_CURVE ( 'NONE', #304, #179, #104, .T. ) ;
#10 = DATE_AND_TIME ( #272, #61 ) ;
#11 = ORGANIZATION ( 'NEURÈENÝ', 'NEURÈENÝ', '' ) ;
#12 = EDGE_LOOP ( 'NONE', ( #297, #33, #88, #62 ) ) ;
#13 = APPROVAL_DATE_TIME ( #275, #368 ) ;
#14 = VERTEX_POINT ( 'NONE', #359 ) ;
#15 = CALENDAR_DATE ( 2022, 8, 7 ) ;
#16 = CARTESIAN_POINT ( 'NONE',  ( 0.000000000000000000, 0.000000000000000000, 657.0000000000000000 ) ) ;
#17 = AXIS2_PLACEMENT_3D ( 'NONE', #352, #326, #269 ) ;
#18 = CARTESIAN_POINT ( 'NONE',  ( 0.000000000000000000, 0.000000000000000000, 7.700000000000040146 ) ) ;
#19 = PERSON_AND_ORGANIZATION ( #51, #11 ) ;
#20 = DIRECTION ( 'NONE',  ( 1.000000000000000000, 0.000000000000000000, 0.000000000000000000 ) ) ;
#21 = PERSON_AND_ORGANIZATION_ROLE ( 'creator' ) ;
#22 = DIRECTION ( 'NONE',  ( 0.000000000000000000, 0.000000000000000000, 1.000000000000000000 ) ) ;
#23 = CC_DESIGN_DATE_AND_TIME_ASSIGNMENT ( #75, #369, ( #348 ) ) ;
#24 = FACE_OUTER_BOUND ( 'NONE', #239, .T. ) ;
#25 = AXIS2_PLACEMENT_3D ( 'NONE', #139, #143, #350 ) ;
#26 = FACE_OUTER_BOUND ( 'NONE', #211, .T. ) ;
#27 = PERSON_AND_ORGANIZATION ( #51, #11 ) ;
#28 = AXIS2_PLACEMENT_3D ( 'NONE', #241, #271, #358 ) ;
#29 = ORIENTED_EDGE ( 'NONE', *, *, #213, .T. ) ;
#30 = CIRCLE ( 'NONE', #229, 4.099999999999999645 ) ;
#31 = ORIENTED_EDGE ( 'NONE', *, *, #340, .T. ) ;
#32 = ORIENTED_EDGE ( 'NONE', *, *, #81, .F. ) ;
#33 = ORIENTED_EDGE ( 'NONE', *, *, #210, .F. ) ;
#34 = EDGE_LOOP ( 'NONE', ( #268, #31, #115, #146 ) ) ;
#35 = DIRECTION ( 'NONE',  ( -0.000000000000000000, -0.000000000000000000, -1.000000000000000000 ) ) ;
#36 = CARTESIAN_POINT ( 'NONE',  ( -10.00000000000000000, 0.000000000000000000, 7.000000000000000000 ) ) ;
#37 = AXIS2_PLACEMENT_3D ( 'NONE', #99, #247, #165 ) ;
#38 = CYLINDRICAL_SURFACE ( 'NONE', #173, 10.00000000000000000 ) ;
#39 = AXIS2_PLACEMENT_3D ( 'NONE', #232, #256, #20 ) ;
#40 = COORDINATED_UNIVERSAL_TIME_OFFSET ( 1, 0, .AHEAD. ) ;
#41 = CIRCLE ( 'NONE', #379, 6.000000000000000888 ) ;
#42 = CARTESIAN_POINT ( 'NONE',  ( 0.000000000000000000, 0.000000000000000000, 657.0000000000000000 ) ) ;
#43 = ORIENTED_EDGE ( 'NONE', *, *, #250, .F. ) ;
#44 = AXIS2_PLACEMENT_3D ( 'NONE', #252, #276, #101 ) ;
#45 = ORIENTED_EDGE ( 'NONE', *, *, #9, .T. ) ;
#46 = CC_DESIGN_SECURITY_CLASSIFICATION ( #90, ( #182 ) ) ;
#47 = DIRECTION ( 'NONE',  ( 1.000000000000000000, 0.000000000000000000, 0.000000000000000000 ) ) ;
#48 = DATE_AND_TIME ( #194, #303 ) ;
#49 = LINE ( 'NONE', #175, #174 ) ;
#50 = ADVANCED_FACE ( 'NONE', ( #193 ), #338, .T. ) ;
#51 = PERSON ( 'NEURÈENÝ', 'NEURÈENÝ', 'NEURÈENÝ', ('NEURÈENÝ'), ('NEURÈENÝ'), ('NEURÈENÝ') ) ;
#52 = EDGE_CURVE ( 'NONE', #353, #351, #170, .T. ) ;
#53 = DIRECTION ( 'NONE',  ( 0.000000000000000000, 0.000000000000000000, 1.000000000000000000 ) ) ;
#54 = AXIS2_PLACEMENT_3D ( 'NONE', #245, #35, #152 ) ;
#55 = CARTESIAN_POINT ( 'NONE',  ( 0.000000000000000000, 0.000000000000000000, 7.000000000000000000 ) ) ;
#56 = EDGE_CURVE ( 'NONE', #89, #331, #282, .T. ) ;
#57 = DIRECTION ( 'NONE',  ( -1.000000000000000000, 0.000000000000000000, 0.000000000000000000 ) ) ;
#58 = ORIENTED_EDGE ( 'NONE', *, *, #292, .T. ) ;
#59 = AXIS2_PLACEMENT_3D ( 'NONE', #42, #362, #95 ) ;
#60 = ORIENTED_EDGE ( 'NONE', *, *, #52, .T. ) ;
#61 = LOCAL_TIME ( 16, 33, 9.000000000000000000, #153 ) ;
#62 = ORIENTED_EDGE ( 'NONE', *, *, #154, .T. ) ;
#63 = VERTEX_POINT ( 'NONE', #222 ) ;
#64 = EDGE_LOOP ( 'NONE', ( #120, #180 ) ) ;
#65 = VECTOR ( 'NONE', #207, 1000.000000000000000 ) ;
#66 = PERSON_AND_ORGANIZATION ( #51, #11 ) ;
#67 = EDGE_LOOP ( 'NONE', ( #43, #267, #217, #32 ) ) ;
#68 = LINE ( 'NONE', #216, #147 ) ;
#69 = VERTEX_POINT ( 'NONE', #221 ) ;
#70 = PERSON_AND_ORGANIZATION_ROLE ( 'design_supplier' ) ;
#71 = DIRECTION ( 'NONE',  ( 1.000000000000000000, 0.000000000000000000, 0.000000000000000000 ) ) ;
#72 = ORIENTED_EDGE ( 'NONE', *, *, #206, .F. ) ;
#73 = DESIGN_CONTEXT ( 'detailed design', #176, 'design' ) ;
#74 = DIRECTION ( 'NONE',  ( -0.000000000000000000, -0.000000000000000000, -1.000000000000000000 ) ) ;
#75 = DATE_AND_TIME ( #283, #159 ) ;
#76 = PLANE ( 'NONE',  #166 ) ;
#77 = DIRECTION ( 'NONE',  ( 0.000000000000000000, 0.000000000000000000, 1.000000000000000000 ) ) ;
#78 = DIRECTION ( 'NONE',  ( 1.000000000000000000, 0.000000000000000000, 0.000000000000000000 ) ) ;
#79 = CARTESIAN_POINT ( 'NONE',  ( 0.000000000000000000, 0.000000000000000000, 7.000000000000000000 ) ) ;
#80 = CIRCLE ( 'NONE', #163, 6.000000000000000888 ) ;
#81 = EDGE_CURVE ( 'NONE', #63, #381, #249, .T. ) ;
#82 = CIRCLE ( 'NONE', #209, 4.099999999999999645 ) ;
#83 = FACE_OUTER_BOUND ( 'NONE', #12, .T. ) ;
#84 = CIRCLE ( 'NONE', #312, 4.099999999999999645 ) ;
#85 = DIRECTION ( 'NONE',  ( 1.000000000000000000, 0.000000000000000000, 0.000000000000000000 ) ) ;
#86 = ORIENTED_EDGE ( 'NONE', *, *, #277, .T. ) ;
#87 =( NAMED_UNIT ( * ) PLANE_ANGLE_UNIT ( ) SI_UNIT ( $, .RADIAN. ) );
#88 = ORIENTED_EDGE ( 'NONE', *, *, #296, .T. ) ;
#89 = VERTEX_POINT ( 'NONE', #190 ) ;
#90 = SECURITY_CLASSIFICATION ( '', '', #132 ) ;
#91 = VERTEX_POINT ( 'NONE', #313 ) ;
#92 = APPLICATION_CONTEXT ( 'configuration controlled 3d designs of mechanical parts and assemblies' ) ;
#93 = VERTEX_POINT ( 'NONE', #364 ) ;
#94 = AXIS2_PLACEMENT_3D ( 'NONE', #16, #123, #129 ) ;
#95 = DIRECTION ( 'NONE',  ( -1.000000000000000000, 0.000000000000000000, 0.000000000000000000 ) ) ;
#96 = PERSON_AND_ORGANIZATION ( #51, #11 ) ;
#97 = FACE_OUTER_BOUND ( 'NONE', #34, .T. ) ;
#98 = DIRECTION ( 'NONE',  ( 0.000000000000000000, 0.000000000000000000, 1.000000000000000000 ) ) ;
#99 = CARTESIAN_POINT ( 'NONE',  ( 0.000000000000000000, 0.000000000000000000, 7.000000000000000000 ) ) ;
#100 = SHAPE_DEFINITION_REPRESENTATION ( #188, #341 ) ;
#101 = DIRECTION ( 'NONE',  ( 1.000000000000000000, 0.000000000000000000, 0.000000000000000000 ) ) ;
#102 = LINE ( 'NONE', #6, #378 ) ;
#103 = DIRECTION ( 'NONE',  ( 1.000000000000000000, 0.000000000000000000, 0.000000000000000000 ) ) ;
#104 = CIRCLE ( 'NONE', #37, 10.00000000000000000 ) ;
#105 = DIRECTION ( 'NONE',  ( 0.000000000000000000, 0.000000000000000000, 1.000000000000000000 ) ) ;
#106 = PERSON_AND_ORGANIZATION ( #51, #11 ) ;
#107 = VECTOR ( 'NONE', #254, 1000.000000000000000 ) ;
#108 = CARTESIAN_POINT ( 'NONE',  ( 0.000000000000000000, 0.000000000000000000, 657.0000000000000000 ) ) ;
#109 = CYLINDRICAL_SURFACE ( 'NONE', #145, 4.099999999999999645 ) ;
#110 = CLOSED_SHELL ( 'NONE', ( #319, #270, #50, #158, #237, #200, #242, #137, #228, #186, #171 ) ) ;
#111 = FACE_OUTER_BOUND ( 'NONE', #2, .T. ) ;
#112 = DIRECTION ( 'NONE',  ( 0.000000000000000000, -1.000000000000000000, 0.000000000000000000 ) ) ;
#113 = ORIENTED_EDGE ( 'NONE', *, *, #154, .F. ) ;
#114 = APPLICATION_PROTOCOL_DEFINITION ( 'international standard', 'config_control_design', 1994, #92 ) ;
#115 = ORIENTED_EDGE ( 'NONE', *, *, #56, .T. ) ;
#116 = EDGE_CURVE ( 'NONE', #14, #300, #266, .T. ) ;
#117 = EDGE_LOOP ( 'NONE', ( #354, #29, #144, #225 ) ) ;
#118 = EDGE_LOOP ( 'NONE', ( #58, #86, #184, #212 ) ) ;
#119 = EDGE_CURVE ( 'NONE', #381, #93, #80, .T. ) ;
#120 = ORIENTED_EDGE ( 'NONE', *, *, #292, .F. ) ;
#121 = DIRECTION ( 'NONE',  ( -0.000000000000000000, -0.000000000000000000, -1.000000000000000000 ) ) ;
#122 = CARTESIAN_POINT ( 'NONE',  ( -6.700000000000001066, 8.205133554287267548E-16, 7.000000000000020428 ) ) ;
#123 = DIRECTION ( 'NONE',  ( -0.000000000000000000, -0.000000000000000000, -1.000000000000000000 ) ) ;
#124 =( GEOMETRIC_REPRESENTATION_CONTEXT ( 3 ) GLOBAL_UNCERTAINTY_ASSIGNED_CONTEXT ( ( #280 ) ) GLOBAL_UNIT_ASSIGNED_CONTEXT ( ( #293, #87, #234 ) ) REPRESENTATION_CONTEXT ( 'NONE', 'WORKASPACE' ) );
#125 = APPROVAL_DATE_TIME ( #10, #261 ) ;
#126 = ORIENTED_EDGE ( 'NONE', *, *, #56, .F. ) ;
#127 = PRODUCT ( 'f0f1', 'f0f1', '', ( #1 ) ) ;
#128 = ORIENTED_EDGE ( 'NONE', *, *, #210, .T. ) ;
#129 = DIRECTION ( 'NONE',  ( -1.000000000000000000, 0.000000000000000000, 0.000000000000000000 ) ) ;
#130 = CARTESIAN_POINT ( 'NONE',  ( 0.000000000000000000, 0.000000000000000000, 0.000000000000000000 ) ) ;
#131 = LINE ( 'NONE', #167, #107 ) ;
#132 = SECURITY_CLASSIFICATION_LEVEL ( 'unclassified' ) ;
#133 = DIRECTION ( 'NONE',  ( 1.000000000000000000, 0.000000000000000000, 0.000000000000000000 ) ) ;
#134 = LOCAL_TIME ( 16, 33, 9.000000000000000000, #40 ) ;
#135 = CYLINDRICAL_SURFACE ( 'NONE', #295, 10.00000000000000000 ) ;
#136 = DIRECTION ( 'NONE',  ( 1.000000000000000000, 0.000000000000000000, -0.000000000000000000 ) ) ;
#137 = ADVANCED_FACE ( 'NONE', ( #335 ), #281, .T. ) ;
#138 = CIRCLE ( 'NONE', #54, 6.700000000000001066 ) ;
#139 = CARTESIAN_POINT ( 'NONE',  ( 0.000000000000000000, 0.000000000000000000, 0.000000000000000000 ) ) ;
#140 = CIRCLE ( 'NONE', #286, 6.000000000000000888 ) ;
#141 = CARTESIAN_POINT ( 'NONE',  ( -6.000000000000000888, 0.000000000000000000, 7.700000000000040146 ) ) ;
#142 = ORIENTED_EDGE ( 'NONE', *, *, #277, .F. ) ;
#143 = DIRECTION ( 'NONE',  ( 0.000000000000000000, 0.000000000000000000, 1.000000000000000000 ) ) ;
#144 = ORIENTED_EDGE ( 'NONE', *, *, #52, .F. ) ;
#145 = AXIS2_PLACEMENT_3D ( 'NONE', #233, #260, #57 ) ;
#146 = ORIENTED_EDGE ( 'NONE', *, *, #296, .F. ) ;
#147 = VECTOR ( 'NONE', #7, 1000.000000000000000 ) ;
#148 = EDGE_CURVE ( 'NONE', #328, #93, #102, .T. ) ;
#149 = CC_DESIGN_PERSON_AND_ORGANIZATION_ASSIGNMENT ( #255, #371, ( #90 ) ) ;
#150 = ORIENTED_EDGE ( 'NONE', *, *, #325, .F. ) ;
#151 = CYLINDRICAL_SURFACE ( 'NONE', #17, 4.099999999999999645 ) ;
#152 = DIRECTION ( 'NONE',  ( 1.000000000000000000, 0.000000000000000000, 0.000000000000000000 ) ) ;
#153 = COORDINATED_UNIVERSAL_TIME_OFFSET ( 1, 0, .AHEAD. ) ;
#154 = EDGE_CURVE ( 'NONE', #331, #89, #317, .T. ) ;
#155 = EDGE_CURVE ( 'NONE', #351, #353, #138, .T. ) ;
#156 = CARTESIAN_POINT ( 'NONE',  ( 0.000000000000000000, 0.000000000000000000, 7.000000000000000000 ) ) ;
#157 = AXIS2_PLACEMENT_3D ( 'NONE', #18, #105, #288 ) ;
#158 = ADVANCED_FACE ( 'NONE', ( #97 ), #38, .T. ) ;
#159 = LOCAL_TIME ( 16, 33, 9.000000000000000000, #164 ) ;
#160 = CALENDAR_DATE ( 2022, 8, 7 ) ;
#161 = EDGE_LOOP ( 'NONE', ( #60, #263 ) ) ;
#162 = EDGE_LOOP ( 'NONE', ( #316, #355, #5, #294 ) ) ;
#163 = AXIS2_PLACEMENT_3D ( 'NONE', #366, #192, #315 ) ;
#164 = COORDINATED_UNIVERSAL_TIME_OFFSET ( 1, 0, .AHEAD. ) ;
#165 = DIRECTION ( 'NONE',  ( 1.000000000000000000, 0.000000000000000000, 0.000000000000000000 ) ) ;
#166 = AXIS2_PLACEMENT_3D ( 'NONE', #130, #226, #343 ) ;
#167 = CARTESIAN_POINT ( 'NONE',  ( -4.099999999999999645, 0.000000000000000000, 657.0000000000000000 ) ) ;
#168 = APPROVAL_DATE_TIME ( #48, #279 ) ;
#169 = DIRECTION ( 'NONE',  ( 0.000000000000000000, 0.000000000000000000, -1.000000000000000000 ) ) ;
#170 = CIRCLE ( 'NONE', #44, 6.700000000000001066 ) ;
#171 = ADVANCED_FACE ( 'NONE', ( #231 ), #109, .F. ) ;
#172 = DIRECTION ( 'NONE',  ( -1.000000000000000000, 0.000000000000000000, 0.000000000000000000 ) ) ;
#173 = AXIS2_PLACEMENT_3D ( 'NONE', #156, #274, #172 ) ;
#174 = VECTOR ( 'NONE', #169, 1000.000000000000000 ) ;
#175 = CARTESIAN_POINT ( 'NONE',  ( 4.099999999999999645, 5.021051876504147385E-16, 657.0000000000000000 ) ) ;
#176 = APPLICATION_CONTEXT ( 'configuration controlled 3d designs of mechanical parts and assemblies' ) ;
#177 = CARTESIAN_POINT ( 'NONE',  ( 6.700000000000001066, 0.000000000000000000, 7.700000000000040146 ) ) ;
#178 = CARTESIAN_POINT ( 'NONE',  ( 10.00000000000000000, 1.224646799147353256E-15, 7.000000000000000000 ) ) ;
#179 = VERTEX_POINT ( 'NONE', #320 ) ;
#180 = ORIENTED_EDGE ( 'NONE', *, *, #301, .F. ) ;
#181 = EDGE_LOOP ( 'NONE', ( #208, #72 ) ) ;
#182 = PRODUCT_DEFINITION_FORMATION_WITH_SPECIFIED_SOURCE ( 'LIBOVOLNÝ', '', #127, .NOT_KNOWN. ) ;
#183 = PERSON_AND_ORGANIZATION_ROLE ( 'design_owner' ) ;
#184 = ORIENTED_EDGE ( 'NONE', *, *, #206, .T. ) ;
#185 = APPROVAL_ROLE ( '' ) ;
#186 = ADVANCED_FACE ( 'NONE', ( #26 ), #330, .F. ) ;
#187 = CARTESIAN_POINT ( 'NONE',  ( 0.000000000000000000, 0.000000000000000000, 0.000000000000000000 ) ) ;
#188 = PRODUCT_DEFINITION_SHAPE ( 'NONE', 'NONE',  #348 ) ;
#189 = APPROVAL_ROLE ( '' ) ;
#190 = CARTESIAN_POINT ( 'NONE',  ( 10.00000000000000000, 1.224646799147353256E-15, 0.000000000000000000 ) ) ;
#191 = LOCAL_TIME ( 16, 33, 9.000000000000000000, #310 ) ;
#192 = DIRECTION ( 'NONE',  ( 0.000000000000000000, 0.000000000000000000, 1.000000000000000000 ) ) ;
#193 = FACE_OUTER_BOUND ( 'NONE', #67, .T. ) ;
#194 = CALENDAR_DATE ( 2022, 8, 7 ) ;
#195 = CARTESIAN_POINT ( 'NONE',  ( 0.000000000000000000, 0.000000000000000000, 657.0000000000000000 ) ) ;
#196 = AXIS2_PLACEMENT_3D ( 'NONE', #289, #22, #133 ) ;
#197 = APPROVAL_STATUS ( 'not_yet_approved' ) ;
#198 = DIRECTION ( 'NONE',  ( 0.000000000000000000, 0.000000000000000000, 1.000000000000000000 ) ) ;
#199 = FACE_OUTER_BOUND ( 'NONE', #117, .T. ) ;
#200 = ADVANCED_FACE ( 'NONE', ( #323, #24 ), #376, .T. ) ;
#201 = CC_DESIGN_PERSON_AND_ORGANIZATION_ASSIGNMENT ( #278, #21, ( #182 ) ) ;
#202 = DIRECTION ( 'NONE',  ( -1.000000000000000000, 0.000000000000000000, 0.000000000000000000 ) ) ;
#203 = AXIS2_PLACEMENT_3D ( 'NONE', #370, #198, #322 ) ;
#204 = DIRECTION ( 'NONE',  ( -0.000000000000000000, -0.000000000000000000, -1.000000000000000000 ) ) ;
#205 = FACE_OUTER_BOUND ( 'NONE', #118, .T. ) ;
#206 = EDGE_CURVE ( 'NONE', #300, #14, #82, .T. ) ;
#207 = DIRECTION ( 'NONE',  ( -0.000000000000000000, -0.000000000000000000, -1.000000000000000000 ) ) ;
#208 = ORIENTED_EDGE ( 'NONE', *, *, #116, .F. ) ;
#209 = AXIS2_PLACEMENT_3D ( 'NONE', #367, #290, #103 ) ;
#210 = EDGE_CURVE ( 'NONE', #179, #304, #223, .T. ) ;
#211 = EDGE_LOOP ( 'NONE', ( #332, #150, #215, #337 ) ) ;
#212 = ORIENTED_EDGE ( 'NONE', *, *, #265, .F. ) ;
#213 = EDGE_CURVE ( 'NONE', #381, #351, #257, .T. ) ;
#214 = VECTOR ( 'NONE', #121, 1000.000000000000000 ) ;
#215 = ORIENTED_EDGE ( 'NONE', *, *, #305, .T. ) ;
#216 = CARTESIAN_POINT ( 'NONE',  ( 10.00000000000000000, 1.224646799147353256E-15, 7.000000000000000000 ) ) ;
#217 = ORIENTED_EDGE ( 'NONE', *, *, #325, .T. ) ;
#218 = TOROIDAL_SURFACE ( 'NONE', #203, 6.700000000000001066, 0.6999999999999999556 ) ;
#219 = EDGE_LOOP ( 'NONE', ( #113, #126 ) ) ;
#220 = CARTESIAN_POINT ( 'NONE',  ( 0.000000000000000000, 0.000000000000000000, 7.700000000000040146 ) ) ;
#221 = CARTESIAN_POINT ( 'NONE',  ( 4.099999999999999645, 5.021051876504147385E-16, 657.0000000000000000 ) ) ;
#222 = CARTESIAN_POINT ( 'NONE',  ( -6.000000000000000888, 0.000000000000000000, 657.0000000000000000 ) ) ;
#223 = CIRCLE ( 'NONE', #39, 10.00000000000000000 ) ;
#224 = CC_DESIGN_APPROVAL ( #279, ( #182 ) ) ;
#225 = ORIENTED_EDGE ( 'NONE', *, *, #305, .F. ) ;
#226 = DIRECTION ( 'NONE',  ( 0.000000000000000000, 0.000000000000000000, 1.000000000000000000 ) ) ;
#227 = CARTESIAN_POINT ( 'NONE',  ( 0.000000000000000000, 0.000000000000000000, 657.0000000000000000 ) ) ;
#228 = ADVANCED_FACE ( 'NONE', ( #377, #111 ), #291, .T. ) ;
#229 = AXIS2_PLACEMENT_3D ( 'NONE', #308, #98, #243 ) ;
#230 = CC_DESIGN_PERSON_AND_ORGANIZATION_ASSIGNMENT ( #318, #70, ( #182 ) ) ;
#231 = FACE_OUTER_BOUND ( 'NONE', #236, .T. ) ;
#232 = CARTESIAN_POINT ( 'NONE',  ( 0.000000000000000000, 0.000000000000000000, 7.000000000000000000 ) ) ;
#233 = CARTESIAN_POINT ( 'NONE',  ( 0.000000000000000000, 0.000000000000000000, 657.0000000000000000 ) ) ;
#234 =( NAMED_UNIT ( * ) SI_UNIT ( $, .STERADIAN. ) SOLID_ANGLE_UNIT ( ) );
#235 = ORIENTED_EDGE ( 'NONE', *, *, #116, .T. ) ;
#236 = EDGE_LOOP ( 'NONE', ( #142, #240, #264, #235 ) ) ;
#237 = ADVANCED_FACE ( 'NONE', ( #83 ), #135, .T. ) ;
#238 = CC_DESIGN_APPROVAL ( #368, ( #90 ) ) ;
#239 = EDGE_LOOP ( 'NONE', ( #128, #45 ) ) ;
#240 = ORIENTED_EDGE ( 'NONE', *, *, #301, .T. ) ;
#241 = CARTESIAN_POINT ( 'NONE',  ( 0.000000000000000000, 0.000000000000000000, 0.000000000000000000 ) ) ;
#242 = ADVANCED_FACE ( 'NONE', ( #259, #324 ), #76, .F. ) ;
#243 = DIRECTION ( 'NONE',  ( 1.000000000000000000, 0.000000000000000000, 0.000000000000000000 ) ) ;
#244 = AXIS2_PLACEMENT_3D ( 'NONE', #177, #112, #360 ) ;
#245 = CARTESIAN_POINT ( 'NONE',  ( 0.000000000000000000, 0.000000000000000000, 7.000000000000000000 ) ) ;
#246 = LINE ( 'NONE', #36, #65 ) ;
#247 = DIRECTION ( 'NONE',  ( 0.000000000000000000, 0.000000000000000000, 1.000000000000000000 ) ) ;
#248 = DATE_TIME_ROLE ( 'classification_date' ) ;
#249 = LINE ( 'NONE', #342, #214 ) ;
#250 = EDGE_CURVE ( 'NONE', #328, #63, #41, .T. ) ;
#251 = APPROVAL_STATUS ( 'not_yet_approved' ) ;
#252 = CARTESIAN_POINT ( 'NONE',  ( 0.000000000000000000, 0.000000000000000000, 7.000000000000000000 ) ) ;
#253 = PERSON_AND_ORGANIZATION_ROLE ( 'creator' ) ;
#254 = DIRECTION ( 'NONE',  ( 0.000000000000000000, 0.000000000000000000, -1.000000000000000000 ) ) ;
#255 = PERSON_AND_ORGANIZATION ( #51, #11 ) ;
#256 = DIRECTION ( 'NONE',  ( 0.000000000000000000, 0.000000000000000000, 1.000000000000000000 ) ) ;
#257 = CIRCLE ( 'NONE', #311, 0.7000000000000000666 ) ;
#258 = APPROVAL_PERSON_ORGANIZATION ( #96, #261, #185 ) ;
#259 = FACE_BOUND ( 'NONE', #181, .T. ) ;
#260 = DIRECTION ( 'NONE',  ( 0.000000000000000000, 0.000000000000000000, -1.000000000000000000 ) ) ;
#261 = APPROVAL ( #336, 'NEURÈENÝ' ) ;
#262 = DIRECTION ( 'NONE',  ( 0.000000000000000000, 0.000000000000000000, 1.000000000000000000 ) ) ;
#263 = ORIENTED_EDGE ( 'NONE', *, *, #155, .T. ) ;
#264 = ORIENTED_EDGE ( 'NONE', *, *, #265, .T. ) ;
#265 = EDGE_CURVE ( 'NONE', #91, #14, #131, .T. ) ;
#266 = CIRCLE ( 'NONE', #363, 4.099999999999999645 ) ;
#267 = ORIENTED_EDGE ( 'NONE', *, *, #148, .T. ) ;
#268 = ORIENTED_EDGE ( 'NONE', *, *, #9, .F. ) ;
#269 = DIRECTION ( 'NONE',  ( -1.000000000000000000, 0.000000000000000000, 0.000000000000000000 ) ) ;
#270 = ADVANCED_FACE ( 'NONE', ( #199 ), #218, .F. ) ;
#271 = DIRECTION ( 'NONE',  ( 0.000000000000000000, 0.000000000000000000, 1.000000000000000000 ) ) ;
#272 = CALENDAR_DATE ( 2022, 8, 7 ) ;
#273 = CC_DESIGN_APPROVAL ( #261, ( #348 ) ) ;
#274 = DIRECTION ( 'NONE',  ( -0.000000000000000000, -0.000000000000000000, -1.000000000000000000 ) ) ;
#275 = DATE_AND_TIME ( #160, #191 ) ;
#276 = DIRECTION ( 'NONE',  ( -0.000000000000000000, -0.000000000000000000, -1.000000000000000000 ) ) ;
#277 = EDGE_CURVE ( 'NONE', #69, #300, #49, .T. ) ;
#278 = PERSON_AND_ORGANIZATION ( #51, #11 ) ;
#279 = APPROVAL ( #197, 'NEURÈENÝ' ) ;
#280 = UNCERTAINTY_MEASURE_WITH_UNIT (LENGTH_MEASURE( 1.000000000000000082E-05 ), #293, 'distance_accuracy_value', 'NONE');
#281 = CYLINDRICAL_SURFACE ( 'NONE', #94, 6.000000000000000888 ) ;
#282 = CIRCLE ( 'NONE', #3, 10.00000000000000000 ) ;
#283 = CALENDAR_DATE ( 2022, 8, 7 ) ;
#284 = PRODUCT_RELATED_PRODUCT_CATEGORY ( 'detail', '', ( #127 ) ) ;
#285 = CARTESIAN_POINT ( 'NONE',  ( -6.700000000000001066, 8.205133554287267548E-16, 7.700000000000040146 ) ) ;
#286 = AXIS2_PLACEMENT_3D ( 'NONE', #220, #262, #85 ) ;
#287 = EDGE_CURVE ( 'NONE', #63, #328, #4, .T. ) ;
#288 = DIRECTION ( 'NONE',  ( 1.000000000000000000, 0.000000000000000000, 0.000000000000000000 ) ) ;
#289 = CARTESIAN_POINT ( 'NONE',  ( 0.000000000000000000, 0.000000000000000000, 657.0000000000000000 ) ) ;
#290 = DIRECTION ( 'NONE',  ( -0.000000000000000000, -0.000000000000000000, -1.000000000000000000 ) ) ;
#291 = PLANE ( 'NONE',  #302 ) ;
#292 = EDGE_CURVE ( 'NONE', #91, #69, #84, .T. ) ;
#293 =( LENGTH_UNIT ( ) NAMED_UNIT ( * ) SI_UNIT ( .MILLI., .METRE. ) );
#294 = ORIENTED_EDGE ( 'NONE', *, *, #119, .T. ) ;
#295 = AXIS2_PLACEMENT_3D ( 'NONE', #79, #204, #202 ) ;
#296 = EDGE_CURVE ( 'NONE', #179, #331, #246, .T. ) ;
#297 = ORIENTED_EDGE ( 'NONE', *, *, #340, .F. ) ;
#298 = CC_DESIGN_PERSON_AND_ORGANIZATION_ASSIGNMENT ( #27, #253, ( #348 ) ) ;
#299 = ORIENTED_EDGE ( 'NONE', *, *, #287, .T. ) ;
#300 = VERTEX_POINT ( 'NONE', #329 ) ;
#301 = EDGE_CURVE ( 'NONE', #69, #91, #30, .T. ) ;
#302 = AXIS2_PLACEMENT_3D ( 'NONE', #227, #349, #345 ) ;
#303 = LOCAL_TIME ( 16, 33, 9.000000000000000000, #321 ) ;
#304 = VERTEX_POINT ( 'NONE', #178 ) ;
#305 = EDGE_CURVE ( 'NONE', #93, #353, #334, .T. ) ;
#306 = APPLICATION_PROTOCOL_DEFINITION ( 'international standard', 'config_control_design', 1994, #176 ) ;
#307 = DIRECTION ( 'NONE',  ( 0.000000000000000000, 0.000000000000000000, 1.000000000000000000 ) ) ;
#308 = CARTESIAN_POINT ( 'NONE',  ( 0.000000000000000000, 0.000000000000000000, 657.0000000000000000 ) ) ;
#309 = DIRECTION ( 'NONE',  ( 1.000000000000000000, 0.000000000000000000, 0.000000000000000000 ) ) ;
#310 = COORDINATED_UNIVERSAL_TIME_OFFSET ( 1, 0, .AHEAD. ) ;
#311 = AXIS2_PLACEMENT_3D ( 'NONE', #285, #347, #373 ) ;
#312 = AXIS2_PLACEMENT_3D ( 'NONE', #108, #346, #78 ) ;
#313 = CARTESIAN_POINT ( 'NONE',  ( -4.099999999999999645, 0.000000000000000000, 657.0000000000000000 ) ) ;
#314 = DATE_AND_TIME ( #15, #134 ) ;
#315 = DIRECTION ( 'NONE',  ( 1.000000000000000000, 0.000000000000000000, 0.000000000000000000 ) ) ;
#316 = ORIENTED_EDGE ( 'NONE', *, *, #148, .F. ) ;
#317 = CIRCLE ( 'NONE', #28, 10.00000000000000000 ) ;
#318 = PERSON_AND_ORGANIZATION ( #51, #11 ) ;
#319 = ADVANCED_FACE ( 'NONE', ( #205 ), #151, .F. ) ;
#320 = CARTESIAN_POINT ( 'NONE',  ( -10.00000000000000000, 0.000000000000000000, 7.000000000000000000 ) ) ;
#321 = COORDINATED_UNIVERSAL_TIME_OFFSET ( 1, 0, .AHEAD. ) ;
#322 = DIRECTION ( 'NONE',  ( 1.000000000000000000, 0.000000000000000000, 0.000000000000000000 ) ) ;
#323 = FACE_BOUND ( 'NONE', #161, .T. ) ;
#324 = FACE_OUTER_BOUND ( 'NONE', #219, .T. ) ;
#325 = EDGE_CURVE ( 'NONE', #93, #381, #140, .T. ) ;
#326 = DIRECTION ( 'NONE',  ( 0.000000000000000000, 0.000000000000000000, -1.000000000000000000 ) ) ;
#327 = MANIFOLD_SOLID_BREP ( 'Odebrat vysunutím3', #110 ) ;
#328 = VERTEX_POINT ( 'NONE', #357 ) ;
#329 = CARTESIAN_POINT ( 'NONE',  ( 4.099999999999999645, 5.021051876504147385E-16, 0.000000000000000000 ) ) ;
#330 = TOROIDAL_SURFACE ( 'NONE', #157, 6.700000000000001066, 0.6999999999999999556 ) ;
#331 = VERTEX_POINT ( 'NONE', #380 ) ;
#332 = ORIENTED_EDGE ( 'NONE', *, *, #213, .F. ) ;
#333 = CARTESIAN_POINT ( 'NONE',  ( 6.700000000000001066, 0.000000000000000000, 7.000000000000020428 ) ) ;
#334 = CIRCLE ( 'NONE', #244, 0.7000000000000000666 ) ;
#335 = FACE_OUTER_BOUND ( 'NONE', #162, .T. ) ;
#336 = APPROVAL_STATUS ( 'not_yet_approved' ) ;
#337 = ORIENTED_EDGE ( 'NONE', *, *, #155, .F. ) ;
#338 = CYLINDRICAL_SURFACE ( 'NONE', #59, 6.000000000000000888 ) ;
#339 = DIRECTION ( 'NONE',  ( -0.000000000000000000, -0.000000000000000000, -1.000000000000000000 ) ) ;
#340 = EDGE_CURVE ( 'NONE', #304, #89, #68, .T. ) ;
#341 = ADVANCED_BREP_SHAPE_REPRESENTATION ( 'f0f1', ( #327, #25 ), #124 ) ;
#342 = CARTESIAN_POINT ( 'NONE',  ( -6.000000000000000888, 0.000000000000000000, 657.0000000000000000 ) ) ;
#343 = DIRECTION ( 'NONE',  ( 1.000000000000000000, 0.000000000000000000, -0.000000000000000000 ) ) ;
#344 = APPROVAL_ROLE ( '' ) ;
#345 = DIRECTION ( 'NONE',  ( 1.000000000000000000, 0.000000000000000000, -0.000000000000000000 ) ) ;
#346 = DIRECTION ( 'NONE',  ( 0.000000000000000000, 0.000000000000000000, 1.000000000000000000 ) ) ;
#347 = DIRECTION ( 'NONE',  ( 1.224646799147353207E-16, 1.000000000000000000, -0.000000000000000000 ) ) ;
#348 = PRODUCT_DEFINITION ( 'NEZNÁMÝ', '', #182, #73 ) ;
#349 = DIRECTION ( 'NONE',  ( 0.000000000000000000, 0.000000000000000000, 1.000000000000000000 ) ) ;
#350 = DIRECTION ( 'NONE',  ( 1.000000000000000000, 0.000000000000000000, 0.000000000000000000 ) ) ;
#351 = VERTEX_POINT ( 'NONE', #122 ) ;
#352 = CARTESIAN_POINT ( 'NONE',  ( 0.000000000000000000, 0.000000000000000000, 657.0000000000000000 ) ) ;
#353 = VERTEX_POINT ( 'NONE', #333 ) ;
#354 = ORIENTED_EDGE ( 'NONE', *, *, #119, .F. ) ;
#355 = ORIENTED_EDGE ( 'NONE', *, *, #287, .F. ) ;
#356 = ORIENTED_EDGE ( 'NONE', *, *, #250, .T. ) ;
#357 = CARTESIAN_POINT ( 'NONE',  ( 6.000000000000000888, 7.347880794884120722E-16, 657.0000000000000000 ) ) ;
#358 = DIRECTION ( 'NONE',  ( 1.000000000000000000, 0.000000000000000000, 0.000000000000000000 ) ) ;
#359 = CARTESIAN_POINT ( 'NONE',  ( -4.099999999999999645, 0.000000000000000000, 0.000000000000000000 ) ) ;
#360 = DIRECTION ( 'NONE',  ( 0.000000000000000000, 0.000000000000000000, -1.000000000000000000 ) ) ;
#361 = CC_DESIGN_PERSON_AND_ORGANIZATION_ASSIGNMENT ( #66, #183, ( #127 ) ) ;
#362 = DIRECTION ( 'NONE',  ( -0.000000000000000000, -0.000000000000000000, -1.000000000000000000 ) ) ;
#363 = AXIS2_PLACEMENT_3D ( 'NONE', #8, #339, #309 ) ;
#364 = CARTESIAN_POINT ( 'NONE',  ( 6.000000000000000888, 7.347880794884120722E-16, 7.700000000000040146 ) ) ;
#365 = APPROVAL_PERSON_ORGANIZATION ( #106, #368, #189 ) ;
#366 = CARTESIAN_POINT ( 'NONE',  ( 0.000000000000000000, 0.000000000000000000, 7.700000000000040146 ) ) ;
#367 = CARTESIAN_POINT ( 'NONE',  ( 0.000000000000000000, 0.000000000000000000, 0.000000000000000000 ) ) ;
#368 = APPROVAL ( #251, 'NEURÈENÝ' ) ;
#369 = DATE_TIME_ROLE ( 'creation_date' ) ;
#370 = CARTESIAN_POINT ( 'NONE',  ( 0.000000000000000000, 0.000000000000000000, 7.700000000000040146 ) ) ;
#371 = PERSON_AND_ORGANIZATION_ROLE ( 'classification_officer' ) ;
#372 = AXIS2_PLACEMENT_3D ( 'NONE', #55, #53, #136 ) ;
#373 = DIRECTION ( 'NONE',  ( -1.000000000000000000, 1.224646799147353454E-16, 0.000000000000000000 ) ) ;
#374 = APPROVAL_PERSON_ORGANIZATION ( #19, #279, #344 ) ;
#375 = CC_DESIGN_DATE_AND_TIME_ASSIGNMENT ( #314, #248, ( #90 ) ) ;
#376 = PLANE ( 'NONE',  #372 ) ;
#377 = FACE_BOUND ( 'NONE', #64, .T. ) ;
#378 = VECTOR ( 'NONE', #74, 1000.000000000000000 ) ;
#379 = AXIS2_PLACEMENT_3D ( 'NONE', #195, #77, #47 ) ;
#380 = CARTESIAN_POINT ( 'NONE',  ( -10.00000000000000000, 0.000000000000000000, 0.000000000000000000 ) ) ;
#381 = VERTEX_POINT ( 'NONE', #141 ) ;
ENDSEC;
END-ISO-10303-21;
