ISO-10303-21;
HEADER;
FILE_DESCRIPTION (( 'STEP AP203' ),
    '1' );
FILE_NAME ('28ab.STEP',
    '2022-07-08T14:50:46',
    ( '' ),
    ( '' ),
    'SwSTEP 2.0',
    'SolidWorks 2019',
    '' );
FILE_SCHEMA (( 'CONFIG_CONTROL_DESIGN' ));
ENDSEC;

DATA;
#1 = AXIS2_PLACEMENT_3D ( 'NONE', #246, #181, #114 ) ;
#2 = CARTESIAN_POINT ( 'NONE',  ( 0.000000000000000000, 0.000000000000000000, 5.000000000000000000 ) ) ;
#3 = EDGE_CURVE ( 'NONE', #224, #278, #122, .T. ) ;
#4 = ORIENTED_EDGE ( 'NONE', *, *, #134, .F. ) ;
#5 = COORDINATED_UNIVERSAL_TIME_OFFSET ( 1, 0, .AHEAD. ) ;
#6 = CIRCLE ( 'NONE', #232, 3.100000000000000089 ) ;
#7 = APPROVAL_PERSON_ORGANIZATION ( #20, #24, #25 ) ;
#8 = DIRECTION ( 'NONE',  ( 0.000000000000000000, -1.000000000000000000, 0.000000000000000000 ) ) ;
#9 = DIRECTION ( 'NONE',  ( 0.000000000000000000, 0.000000000000000000, 1.000000000000000000 ) ) ;
#10 = EDGE_LOOP ( 'NONE', ( #128, #244, #252, #97 ) ) ;
#11 = DIRECTION ( 'NONE',  ( -0.000000000000000000, -0.000000000000000000, -1.000000000000000000 ) ) ;
#12 = ADVANCED_FACE ( 'NONE', ( #334 ), #317, .F. ) ;
#13 = ORIENTED_EDGE ( 'NONE', *, *, #290, .T. ) ;
#14 = PERSON_AND_ORGANIZATION_ROLE ( 'creator' ) ;
#15 = DIRECTION ( 'NONE',  ( -0.000000000000000000, -0.000000000000000000, -1.000000000000000000 ) ) ;
#16 = LOCAL_TIME ( 16, 50, 46.00000000000000000, #5 ) ;
#17 = EDGE_CURVE ( 'NONE', #299, #157, #250, .T. ) ;
#18 = DIRECTION ( 'NONE',  ( -1.000000000000000000, 0.000000000000000000, 0.000000000000000000 ) ) ;
#19 = UNCERTAINTY_MEASURE_WITH_UNIT (LENGTH_MEASURE( 1.000000000000000082E-05 ), #297, 'distance_accuracy_value', 'NONE');
#20 = PERSON_AND_ORGANIZATION ( #146, #89 ) ;
#21 = CARTESIAN_POINT ( 'NONE',  ( -5.000000000000000000, 0.000000000000000000, 180.0000000000000000 ) ) ;
#22 = COORDINATED_UNIVERSAL_TIME_OFFSET ( 1, 0, .AHEAD. ) ;
#23 = FACE_OUTER_BOUND ( 'NONE', #152, .T. ) ;
#24 = APPROVAL ( #48, 'NEURÈENÝ' ) ;
#25 = APPROVAL_ROLE ( '' ) ;
#26 = DIRECTION ( 'NONE',  ( 1.000000000000000000, 0.000000000000000000, 0.000000000000000000 ) ) ;
#27 = CARTESIAN_POINT ( 'NONE',  ( 3.100000000000000089, 3.796405077356793932E-16, 180.0000000000000000 ) ) ;
#28 = VERTEX_POINT ( 'NONE', #215 ) ;
#29 = DIRECTION ( 'NONE',  ( 0.000000000000000000, 0.000000000000000000, -1.000000000000000000 ) ) ;
#30 = CARTESIAN_POINT ( 'NONE',  ( 0.000000000000000000, 0.000000000000000000, 180.0000000000000000 ) ) ;
#31 = EDGE_CURVE ( 'NONE', #360, #307, #132, .T. ) ;
#32 = VERTEX_POINT ( 'NONE', #154 ) ;
#33 = DIRECTION ( 'NONE',  ( 1.000000000000000000, 0.000000000000000000, 0.000000000000000000 ) ) ;
#34 = FACE_OUTER_BOUND ( 'NONE', #93, .T. ) ;
#35 = AXIS2_PLACEMENT_3D ( 'NONE', #81, #139, #370 ) ;
#36 = EDGE_CURVE ( 'NONE', #157, #349, #361, .T. ) ;
#37 = EDGE_LOOP ( 'NONE', ( #301, #191 ) ) ;
#38 = DIRECTION ( 'NONE',  ( 1.000000000000000000, 0.000000000000000000, 0.000000000000000000 ) ) ;
#39 = EDGE_LOOP ( 'NONE', ( #328, #123, #247, #287 ) ) ;
#40 = PRODUCT_DEFINITION_FORMATION_WITH_SPECIFIED_SOURCE ( 'LIBOVOLNÝ', '', #354, .NOT_KNOWN. ) ;
#41 = PERSON_AND_ORGANIZATION_ROLE ( 'design_owner' ) ;
#42 = CC_DESIGN_PERSON_AND_ORGANIZATION_ASSIGNMENT ( #233, #312, ( #40 ) ) ;
#43 = PERSON_AND_ORGANIZATION ( #146, #89 ) ;
#44 = APPROVAL_STATUS ( 'not_yet_approved' ) ;
#45 = DIRECTION ( 'NONE',  ( 0.000000000000000000, 0.000000000000000000, -1.000000000000000000 ) ) ;
#46 = LOCAL_TIME ( 16, 50, 46.00000000000000000, #22 ) ;
#47 = EDGE_CURVE ( 'NONE', #32, #179, #111, .T. ) ;
#48 = APPROVAL_STATUS ( 'not_yet_approved' ) ;
#49 = CARTESIAN_POINT ( 'NONE',  ( 0.000000000000000000, 0.000000000000000000, 5.000000000000000000 ) ) ;
#50 = CYLINDRICAL_SURFACE ( 'NONE', #281, 5.000000000000000000 ) ;
#51 = AXIS2_PLACEMENT_3D ( 'NONE', #119, #98, #329 ) ;
#52 = CIRCLE ( 'NONE', #78, 5.000000000000000000 ) ;
#53 = DIRECTION ( 'NONE',  ( -0.000000000000000000, -0.000000000000000000, -1.000000000000000000 ) ) ;
#54 = EDGE_LOOP ( 'NONE', ( #70, #13 ) ) ;
#55 = VECTOR ( 'NONE', #53, 1000.000000000000000 ) ;
#56 = CC_DESIGN_APPROVAL ( #311, ( #262 ) ) ;
#57 = DIRECTION ( 'NONE',  ( 0.000000000000000000, 0.000000000000000000, 1.000000000000000000 ) ) ;
#58 = ORIENTED_EDGE ( 'NONE', *, *, #31, .T. ) ;
#59 = CARTESIAN_POINT ( 'NONE',  ( 0.000000000000000000, 0.000000000000000000, 5.000000000000000000 ) ) ;
#60 = CC_DESIGN_DATE_AND_TIME_ASSIGNMENT ( #76, #170, ( #262 ) ) ;
#61 = ORIENTED_EDGE ( 'NONE', *, *, #225, .F. ) ;
#62 = LOCAL_TIME ( 16, 50, 46.00000000000000000, #167 ) ;
#63 = EDGE_LOOP ( 'NONE', ( #194, #365, #66, #323 ) ) ;
#64 = CALENDAR_DATE ( 2022, 8, 7 ) ;
#65 = DIRECTION ( 'NONE',  ( 0.000000000000000000, 0.000000000000000000, 1.000000000000000000 ) ) ;
#66 = ORIENTED_EDGE ( 'NONE', *, *, #243, .T. ) ;
#67 = DIRECTION ( 'NONE',  ( 1.000000000000000000, 0.000000000000000000, 0.000000000000000000 ) ) ;
#68 = CC_DESIGN_PERSON_AND_ORGANIZATION_ASSIGNMENT ( #195, #41, ( #354 ) ) ;
#69 = DIRECTION ( 'NONE',  ( 1.000000000000000000, 0.000000000000000000, -0.000000000000000000 ) ) ;
#70 = ORIENTED_EDGE ( 'NONE', *, *, #313, .T. ) ;
#71 = APPLICATION_PROTOCOL_DEFINITION ( 'international standard', 'config_control_design', 1994, #356 ) ;
#72 = DIRECTION ( 'NONE',  ( 0.000000000000000000, 0.000000000000000000, 1.000000000000000000 ) ) ;
#73 = CARTESIAN_POINT ( 'NONE',  ( 0.000000000000000000, 0.000000000000000000, 5.500000000000005329 ) ) ;
#74 = CARTESIAN_POINT ( 'NONE',  ( 3.100000000000000089, 3.796405077356793932E-16, 180.0000000000000000 ) ) ;
#75 = ADVANCED_FACE ( 'NONE', ( #92, #186 ), #300, .F. ) ;
#76 = DATE_AND_TIME ( #137, #338 ) ;
#77 = AXIS2_PLACEMENT_3D ( 'NONE', #310, #8, #333 ) ;
#78 = AXIS2_PLACEMENT_3D ( 'NONE', #30, #182, #158 ) ;
#79 = CARTESIAN_POINT ( 'NONE',  ( 0.000000000000000000, 0.000000000000000000, 0.000000000000000000 ) ) ;
#80 = APPLICATION_CONTEXT ( 'configuration controlled 3d designs of mechanical parts and assemblies' ) ;
#81 = CARTESIAN_POINT ( 'NONE',  ( 0.000000000000000000, 0.000000000000000000, 180.0000000000000000 ) ) ;
#82 = ADVANCED_FACE ( 'NONE', ( #219, #162 ), #270, .T. ) ;
#83 = DATE_AND_TIME ( #315, #217 ) ;
#84 = VERTEX_POINT ( 'NONE', #352 ) ;
#85 = ADVANCED_FACE ( 'NONE', ( #34 ), #381, .T. ) ;
#86 = SHAPE_DEFINITION_REPRESENTATION ( #211, #126 ) ;
#87 = DIRECTION ( 'NONE',  ( 1.000000000000000000, 0.000000000000000000, 0.000000000000000000 ) ) ;
#88 = AXIS2_PLACEMENT_3D ( 'NONE', #332, #72, #336 ) ;
#89 = ORGANIZATION ( 'NEURÈENÝ', 'NEURÈENÝ', '' ) ;
#90 = DIRECTION ( 'NONE',  ( -0.000000000000000000, -0.000000000000000000, -1.000000000000000000 ) ) ;
#91 = PRODUCT_DEFINITION ( 'NEZNÁMÝ', '', #40, #205 ) ;
#92 = FACE_BOUND ( 'NONE', #133, .T. ) ;
#93 = EDGE_LOOP ( 'NONE', ( #358, #209, #277, #115 ) ) ;
#94 = DIRECTION ( 'NONE',  ( 1.000000000000000000, 0.000000000000000000, -0.000000000000000000 ) ) ;
#95 = DIRECTION ( 'NONE',  ( 0.000000000000000000, 0.000000000000000000, -1.000000000000000000 ) ) ;
#96 = ADVANCED_FACE ( 'NONE', ( #308, #367 ), #196, .T. ) ;
#97 = ORIENTED_EDGE ( 'NONE', *, *, #283, .F. ) ;
#98 = DIRECTION ( 'NONE',  ( -0.000000000000000000, -0.000000000000000000, -1.000000000000000000 ) ) ;
#99 = ORIENTED_EDGE ( 'NONE', *, *, #145, .F. ) ;
#100 = CIRCLE ( 'NONE', #155, 8.000000000000000000 ) ;
#101 = CARTESIAN_POINT ( 'NONE',  ( 0.000000000000000000, 0.000000000000000000, 5.000000000000000000 ) ) ;
#102 = ORIENTED_EDGE ( 'NONE', *, *, #3, .F. ) ;
#103 = CARTESIAN_POINT ( 'NONE',  ( 0.000000000000000000, 0.000000000000000000, 0.000000000000000000 ) ) ;
#104 = AXIS2_PLACEMENT_3D ( 'NONE', #175, #29, #255 ) ;
#105 = FACE_OUTER_BOUND ( 'NONE', #10, .T. ) ;
#106 = AXIS2_PLACEMENT_3D ( 'NONE', #143, #260, #18 ) ;
#107 = APPROVAL_STATUS ( 'not_yet_approved' ) ;
#108 = CARTESIAN_POINT ( 'NONE',  ( 0.000000000000000000, 0.000000000000000000, 5.000000000000000000 ) ) ;
#109 = CC_DESIGN_PERSON_AND_ORGANIZATION_ASSIGNMENT ( #43, #14, ( #91 ) ) ;
#110 = CARTESIAN_POINT ( 'NONE',  ( -5.000000000000000000, 0.000000000000000000, 180.0000000000000000 ) ) ;
#111 = CIRCLE ( 'NONE', #159, 8.000000000000000000 ) ;
#112 = CYLINDRICAL_SURFACE ( 'NONE', #106, 8.000000000000000000 ) ;
#113 = ORIENTED_EDGE ( 'NONE', *, *, #340, .T. ) ;
#114 = DIRECTION ( 'NONE',  ( -1.000000000000000000, 1.224646799147351482E-16, 0.000000000000000000 ) ) ;
#115 = ORIENTED_EDGE ( 'NONE', *, *, #243, .F. ) ;
#116 = DIRECTION ( 'NONE',  ( 0.000000000000000000, 0.000000000000000000, 1.000000000000000000 ) ) ;
#117 = ADVANCED_FACE ( 'NONE', ( #105 ), #293, .F. ) ;
#118 = ORIENTED_EDGE ( 'NONE', *, *, #251, .F. ) ;
#119 = CARTESIAN_POINT ( 'NONE',  ( 0.000000000000000000, 0.000000000000000000, 180.0000000000000000 ) ) ;
#120 = ORIENTED_EDGE ( 'NONE', *, *, #340, .F. ) ;
#121 =( NAMED_UNIT ( * ) SI_UNIT ( $, .STERADIAN. ) SOLID_ANGLE_UNIT ( ) );
#122 = CIRCLE ( 'NONE', #177, 3.100000000000000089 ) ;
#123 = ORIENTED_EDGE ( 'NONE', *, *, #327, .T. ) ;
#124 = CARTESIAN_POINT ( 'NONE',  ( -8.000000000000000000, 0.000000000000000000, 5.000000000000000000 ) ) ;
#125 = DIRECTION ( 'NONE',  ( 1.000000000000000000, 0.000000000000000000, 0.000000000000000000 ) ) ;
#126 = ADVANCED_BREP_SHAPE_REPRESENTATION ( '28ab', ( #266, #314 ), #325 ) ;
#127 = AXIS2_PLACEMENT_3D ( 'NONE', #221, #189, #304 ) ;
#128 = ORIENTED_EDGE ( 'NONE', *, *, #36, .F. ) ;
#129 = CC_DESIGN_APPROVAL ( #379, ( #91 ) ) ;
#130 = ADVANCED_FACE ( 'NONE', ( #193 ), #226, .T. ) ;
#131 = ORIENTED_EDGE ( 'NONE', *, *, #357, .F. ) ;
#132 = CIRCLE ( 'NONE', #136, 8.000000000000000000 ) ;
#133 = EDGE_LOOP ( 'NONE', ( #61, #120 ) ) ;
#134 = EDGE_CURVE ( 'NONE', #157, #299, #298, .T. ) ;
#135 = APPROVAL_DATE_TIME ( #363, #379 ) ;
#136 = AXIS2_PLACEMENT_3D ( 'NONE', #59, #151, #213 ) ;
#137 = CALENDAR_DATE ( 2022, 8, 7 ) ;
#138 = AXIS2_PLACEMENT_3D ( 'NONE', #108, #318, #240 ) ;
#139 = DIRECTION ( 'NONE',  ( 0.000000000000000000, 0.000000000000000000, 1.000000000000000000 ) ) ;
#140 = CIRCLE ( 'NONE', #343, 3.100000000000000089 ) ;
#141 = EDGE_CURVE ( 'NONE', #307, #32, #230, .T. ) ;
#142 = CARTESIAN_POINT ( 'NONE',  ( 5.000000000000000000, 6.123233995736766282E-16, 180.0000000000000000 ) ) ;
#143 = CARTESIAN_POINT ( 'NONE',  ( 0.000000000000000000, 0.000000000000000000, 5.000000000000000000 ) ) ;
#144 = COORDINATED_UNIVERSAL_TIME_OFFSET ( 1, 0, .AHEAD. ) ;
#145 = EDGE_CURVE ( 'NONE', #299, #28, #291, .T. ) ;
#146 = PERSON ( 'NEURÈENÝ', 'NEURÈENÝ', 'NEURÈENÝ', ('NEURÈENÝ'), ('NEURÈENÝ'), ('NEURÈENÝ') ) ;
#147 = DIRECTION ( 'NONE',  ( 1.000000000000000000, 0.000000000000000000, 0.000000000000000000 ) ) ;
#148 = DIRECTION ( 'NONE',  ( 0.000000000000000000, 0.000000000000000000, 1.000000000000000000 ) ) ;
#149 = CARTESIAN_POINT ( 'NONE',  ( 5.000000000000000000, 6.123233995736766282E-16, 180.0000000000000000 ) ) ;
#150 = EDGE_LOOP ( 'NONE', ( #102, #241 ) ) ;
#151 = DIRECTION ( 'NONE',  ( 0.000000000000000000, 0.000000000000000000, 1.000000000000000000 ) ) ;
#152 = EDGE_LOOP ( 'NONE', ( #131, #185, #309, #118 ) ) ;
#153 = DIRECTION ( 'NONE',  ( 0.000000000000000000, 0.000000000000000000, -1.000000000000000000 ) ) ;
#154 = CARTESIAN_POINT ( 'NONE',  ( 8.000000000000000000, 9.797174393178825657E-16, 0.000000000000000000 ) ) ;
#155 = AXIS2_PLACEMENT_3D ( 'NONE', #169, #9, #316 ) ;
#156 = CARTESIAN_POINT ( 'NONE',  ( 0.000000000000000000, 0.000000000000000000, 0.000000000000000000 ) ) ;
#157 = VERTEX_POINT ( 'NONE', #249 ) ;
#158 = DIRECTION ( 'NONE',  ( 1.000000000000000000, 0.000000000000000000, 0.000000000000000000 ) ) ;
#159 = AXIS2_PLACEMENT_3D ( 'NONE', #212, #275, #125 ) ;
#160 = EDGE_LOOP ( 'NONE', ( #284, #265, #296, #184 ) ) ;
#161 = EDGE_CURVE ( 'NONE', #224, #245, #248, .T. ) ;
#162 = FACE_OUTER_BOUND ( 'NONE', #54, .T. ) ;
#163 = DIRECTION ( 'NONE',  ( 0.000000000000000000, 0.000000000000000000, 1.000000000000000000 ) ) ;
#164 = CARTESIAN_POINT ( 'NONE',  ( 0.000000000000000000, 0.000000000000000000, 5.500000000000005329 ) ) ;
#165 = EDGE_CURVE ( 'NONE', #28, #349, #380, .T. ) ;
#166 = ORIENTED_EDGE ( 'NONE', *, *, #165, .F. ) ;
#167 = COORDINATED_UNIVERSAL_TIME_OFFSET ( 1, 0, .AHEAD. ) ;
#168 = CC_DESIGN_APPROVAL ( #24, ( #40 ) ) ;
#169 = CARTESIAN_POINT ( 'NONE',  ( 0.000000000000000000, 0.000000000000000000, 0.000000000000000000 ) ) ;
#170 = DATE_TIME_ROLE ( 'classification_date' ) ;
#171 = EDGE_CURVE ( 'NONE', #278, #84, #288, .T. ) ;
#172 = DIRECTION ( 'NONE',  ( -0.000000000000000000, -0.000000000000000000, -1.000000000000000000 ) ) ;
#173 = PERSON_AND_ORGANIZATION_ROLE ( 'classification_officer' ) ;
#174 = DIRECTION ( 'NONE',  ( -0.000000000000000000, -0.000000000000000000, -1.000000000000000000 ) ) ;
#175 = CARTESIAN_POINT ( 'NONE',  ( 0.000000000000000000, 0.000000000000000000, 180.0000000000000000 ) ) ;
#176 = PRODUCT_RELATED_PRODUCT_CATEGORY ( 'detail', '', ( #354 ) ) ;
#177 = AXIS2_PLACEMENT_3D ( 'NONE', #227, #148, #264 ) ;
#178 = DIRECTION ( 'NONE',  ( 0.000000000000000000, 0.000000000000000000, 1.000000000000000000 ) ) ;
#179 = VERTEX_POINT ( 'NONE', #282 ) ;
#180 = DIRECTION ( 'NONE',  ( -1.000000000000000000, 0.000000000000000000, 0.000000000000000000 ) ) ;
#181 = DIRECTION ( 'NONE',  ( 1.224646799147353207E-16, 1.000000000000000000, -0.000000000000000000 ) ) ;
#182 = DIRECTION ( 'NONE',  ( 0.000000000000000000, 0.000000000000000000, 1.000000000000000000 ) ) ;
#183 = APPROVAL_PERSON_ORGANIZATION ( #285, #379, #366 ) ;
#184 = ORIENTED_EDGE ( 'NONE', *, *, #200, .T. ) ;
#185 = ORIENTED_EDGE ( 'NONE', *, *, #141, .T. ) ;
#186 = FACE_OUTER_BOUND ( 'NONE', #271, .T. ) ;
#187 = EDGE_LOOP ( 'NONE', ( #58, #214 ) ) ;
#188 = DATE_AND_TIME ( #64, #16 ) ;
#189 = DIRECTION ( 'NONE',  ( -0.000000000000000000, -0.000000000000000000, -1.000000000000000000 ) ) ;
#190 = AXIS2_PLACEMENT_3D ( 'NONE', #234, #294, #26 ) ;
#191 = ORIENTED_EDGE ( 'NONE', *, *, #283, .T. ) ;
#192 = MECHANICAL_CONTEXT ( 'NONE', #80, 'mechanical' ) ;
#193 = FACE_OUTER_BOUND ( 'NONE', #160, .T. ) ;
#194 = ORIENTED_EDGE ( 'NONE', *, *, #319, .F. ) ;
#195 = PERSON_AND_ORGANIZATION ( #146, #89 ) ;
#196 = PLANE ( 'NONE',  #346 ) ;
#197 = AXIS2_PLACEMENT_3D ( 'NONE', #49, #11, #228 ) ;
#198 = VECTOR ( 'NONE', #90, 1000.000000000000000 ) ;
#199 = CARTESIAN_POINT ( 'NONE',  ( 8.000000000000000000, 9.797174393178825657E-16, 5.000000000000000000 ) ) ;
#200 = EDGE_CURVE ( 'NONE', #179, #32, #100, .T. ) ;
#201 = PERSON_AND_ORGANIZATION ( #146, #89 ) ;
#202 = APPROVAL_DATE_TIME ( #83, #24 ) ;
#203 = AXIS2_PLACEMENT_3D ( 'NONE', #164, #65, #286 ) ;
#204 = DIRECTION ( 'NONE',  ( -0.000000000000000000, -0.000000000000000000, -1.000000000000000000 ) ) ;
#205 = DESIGN_CONTEXT ( 'detailed design', #356, 'design' ) ;
#206 = CIRCLE ( 'NONE', #138, 5.500000000000000000 ) ;
#207 = ADVANCED_FACE ( 'NONE', ( #263 ), #337, .F. ) ;
#208 = PERSON_AND_ORGANIZATION ( #146, #89 ) ;
#209 = ORIENTED_EDGE ( 'NONE', *, *, #319, .T. ) ;
#210 = LINE ( 'NONE', #256, #351 ) ;
#211 = PRODUCT_DEFINITION_SHAPE ( 'NONE', 'NONE',  #91 ) ;
#212 = CARTESIAN_POINT ( 'NONE',  ( 0.000000000000000000, 0.000000000000000000, 0.000000000000000000 ) ) ;
#213 = DIRECTION ( 'NONE',  ( 1.000000000000000000, 0.000000000000000000, 0.000000000000000000 ) ) ;
#214 = ORIENTED_EDGE ( 'NONE', *, *, #357, .T. ) ;
#215 = CARTESIAN_POINT ( 'NONE',  ( 5.500000000000000000, 0.000000000000000000, 5.000000000000002665 ) ) ;
#216 = LINE ( 'NONE', #149, #198 ) ;
#217 = LOCAL_TIME ( 16, 50, 46.00000000000000000, #144 ) ;
#218 = VERTEX_POINT ( 'NONE', #142 ) ;
#219 = FACE_BOUND ( 'NONE', #150, .T. ) ;
#220 = ORIENTED_EDGE ( 'NONE', *, *, #161, .F. ) ;
#221 = CARTESIAN_POINT ( 'NONE',  ( 0.000000000000000000, 0.000000000000000000, 5.000000000000000000 ) ) ;
#222 = ORIENTED_EDGE ( 'NONE', *, *, #171, .T. ) ;
#223 = DIRECTION ( 'NONE',  ( 0.000000000000000000, 0.000000000000000000, 1.000000000000000000 ) ) ;
#224 = VERTEX_POINT ( 'NONE', #373 ) ;
#225 = EDGE_CURVE ( 'NONE', #245, #84, #6, .T. ) ;
#226 = CYLINDRICAL_SURFACE ( 'NONE', #197, 8.000000000000000000 ) ;
#227 = CARTESIAN_POINT ( 'NONE',  ( 0.000000000000000000, 0.000000000000000000, 180.0000000000000000 ) ) ;
#228 = DIRECTION ( 'NONE',  ( -1.000000000000000000, 0.000000000000000000, 0.000000000000000000 ) ) ;
#229 = CALENDAR_DATE ( 2022, 8, 7 ) ;
#230 = LINE ( 'NONE', #199, #273 ) ;
#231 = ADVANCED_FACE ( 'NONE', ( #339 ), #50, .T. ) ;
#232 = AXIS2_PLACEMENT_3D ( 'NONE', #79, #174, #147 ) ;
#233 = PERSON_AND_ORGANIZATION ( #146, #89 ) ;
#234 = CARTESIAN_POINT ( 'NONE',  ( 0.000000000000000000, 0.000000000000000000, 5.500000000000005329 ) ) ;
#235 = CALENDAR_DATE ( 2022, 8, 7 ) ;
#236 = AXIS2_PLACEMENT_3D ( 'NONE', #73, #369, #326 ) ;
#237 = ADVANCED_FACE ( 'NONE', ( #23 ), #112, .T. ) ;
#238 = CIRCLE ( 'NONE', #371, 8.000000000000000000 ) ;
#239 = LINE ( 'NONE', #21, #55 ) ;
#240 = DIRECTION ( 'NONE',  ( 1.000000000000000000, 0.000000000000000000, 0.000000000000000000 ) ) ;
#241 = ORIENTED_EDGE ( 'NONE', *, *, #327, .F. ) ;
#242 = DIRECTION ( 'NONE',  ( 0.000000000000000000, 0.000000000000000000, 1.000000000000000000 ) ) ;
#243 = EDGE_CURVE ( 'NONE', #268, #157, #239, .T. ) ;
#244 = ORIENTED_EDGE ( 'NONE', *, *, #17, .F. ) ;
#245 = VERTEX_POINT ( 'NONE', #344 ) ;
#246 = CARTESIAN_POINT ( 'NONE',  ( -5.500000000000000000, 6.735557395310442023E-16, 5.500000000000005329 ) ) ;
#247 = ORIENTED_EDGE ( 'NONE', *, *, #161, .T. ) ;
#248 = LINE ( 'NONE', #359, #342 ) ;
#249 = CARTESIAN_POINT ( 'NONE',  ( -5.000000000000000000, 0.000000000000000000, 5.500000000000005329 ) ) ;
#250 = CIRCLE ( 'NONE', #236, 5.000000000000000000 ) ;
#251 = EDGE_CURVE ( 'NONE', #360, #179, #210, .T. ) ;
#252 = ORIENTED_EDGE ( 'NONE', *, *, #145, .T. ) ;
#253 = ORIENTED_EDGE ( 'NONE', *, *, #3, .T. ) ;
#254 = AXIS2_PLACEMENT_3D ( 'NONE', #280, #242, #347 ) ;
#255 = DIRECTION ( 'NONE',  ( -1.000000000000000000, 0.000000000000000000, 0.000000000000000000 ) ) ;
#256 = CARTESIAN_POINT ( 'NONE',  ( -8.000000000000000000, 0.000000000000000000, 5.000000000000000000 ) ) ;
#257 = PERSON_AND_ORGANIZATION ( #146, #89 ) ;
#258 = AXIS2_PLACEMENT_3D ( 'NONE', #355, #153, #180 ) ;
#259 = CARTESIAN_POINT ( 'NONE',  ( 5.000000000000000000, 6.123233995736766282E-16, 5.500000000000005329 ) ) ;
#260 = DIRECTION ( 'NONE',  ( -0.000000000000000000, -0.000000000000000000, -1.000000000000000000 ) ) ;
#261 = SECURITY_CLASSIFICATION_LEVEL ( 'unclassified' ) ;
#262 = SECURITY_CLASSIFICATION ( '', '', #261 ) ;
#263 = FACE_OUTER_BOUND ( 'NONE', #302, .T. ) ;
#264 = DIRECTION ( 'NONE',  ( 1.000000000000000000, 0.000000000000000000, 0.000000000000000000 ) ) ;
#265 = ORIENTED_EDGE ( 'NONE', *, *, #31, .F. ) ;
#266 = MANIFOLD_SOLID_BREP ( 'Odebrat vysunutím3', #292 ) ;
#267 = FACE_OUTER_BOUND ( 'NONE', #362, .T. ) ;
#268 = VERTEX_POINT ( 'NONE', #110 ) ;
#269 = CARTESIAN_POINT ( 'NONE',  ( 0.000000000000000000, 0.000000000000000000, 0.000000000000000000 ) ) ;
#270 = PLANE ( 'NONE',  #254 ) ;
#271 = EDGE_LOOP ( 'NONE', ( #330, #378 ) ) ;
#272 = CARTESIAN_POINT ( 'NONE',  ( -5.500000000000000000, 6.735557395310442023E-16, 5.000000000000002665 ) ) ;
#273 = VECTOR ( 'NONE', #15, 1000.000000000000000 ) ;
#274 = CIRCLE ( 'NONE', #364, 3.100000000000000089 ) ;
#275 = DIRECTION ( 'NONE',  ( 0.000000000000000000, 0.000000000000000000, 1.000000000000000000 ) ) ;
#276 =( NAMED_UNIT ( * ) PLANE_ANGLE_UNIT ( ) SI_UNIT ( $, .RADIAN. ) );
#277 = ORIENTED_EDGE ( 'NONE', *, *, #17, .T. ) ;
#278 = VERTEX_POINT ( 'NONE', #27 ) ;
#279 = APPLICATION_PROTOCOL_DEFINITION ( 'international standard', 'config_control_design', 1994, #80 ) ;
#280 = CARTESIAN_POINT ( 'NONE',  ( 0.000000000000000000, 0.000000000000000000, 180.0000000000000000 ) ) ;
#281 = AXIS2_PLACEMENT_3D ( 'NONE', #377, #172, #376 ) ;
#282 = CARTESIAN_POINT ( 'NONE',  ( -8.000000000000000000, 0.000000000000000000, 0.000000000000000000 ) ) ;
#283 = EDGE_CURVE ( 'NONE', #349, #28, #206, .T. ) ;
#284 = ORIENTED_EDGE ( 'NONE', *, *, #141, .F. ) ;
#285 = PERSON_AND_ORGANIZATION ( #146, #89 ) ;
#286 = DIRECTION ( 'NONE',  ( 1.000000000000000000, 0.000000000000000000, 0.000000000000000000 ) ) ;
#287 = ORIENTED_EDGE ( 'NONE', *, *, #225, .T. ) ;
#288 = LINE ( 'NONE', #74, #305 ) ;
#289 = CC_DESIGN_SECURITY_CLASSIFICATION ( #262, ( #40 ) ) ;
#290 = EDGE_CURVE ( 'NONE', #218, #268, #348, .T. ) ;
#291 = CIRCLE ( 'NONE', #77, 0.5000000000000004441 ) ;
#292 = CLOSED_SHELL ( 'NONE', ( #331, #207, #85, #237, #130, #96, #75, #231, #82, #117, #12 ) ) ;
#293 = TOROIDAL_SURFACE ( 'NONE', #203, 5.500000000000000000, 0.5000000000000000000 ) ;
#294 = DIRECTION ( 'NONE',  ( 0.000000000000000000, 0.000000000000000000, 1.000000000000000000 ) ) ;
#295 = CYLINDRICAL_SURFACE ( 'NONE', #258, 3.100000000000000089 ) ;
#296 = ORIENTED_EDGE ( 'NONE', *, *, #251, .T. ) ;
#297 =( LENGTH_UNIT ( ) NAMED_UNIT ( * ) SI_UNIT ( .MILLI., .METRE. ) );
#298 = CIRCLE ( 'NONE', #88, 5.000000000000000000 ) ;
#299 = VERTEX_POINT ( 'NONE', #259 ) ;
#300 = PLANE ( 'NONE',  #368 ) ;
#301 = ORIENTED_EDGE ( 'NONE', *, *, #165, .T. ) ;
#302 = EDGE_LOOP ( 'NONE', ( #4, #321, #166, #99 ) ) ;
#303 = DATE_TIME_ROLE ( 'creation_date' ) ;
#304 = DIRECTION ( 'NONE',  ( 1.000000000000000000, 0.000000000000000000, 0.000000000000000000 ) ) ;
#305 = VECTOR ( 'NONE', #45, 1000.000000000000000 ) ;
#306 = APPROVAL_PERSON_ORGANIZATION ( #257, #311, #372 ) ;
#307 = VERTEX_POINT ( 'NONE', #341 ) ;
#308 = FACE_BOUND ( 'NONE', #37, .T. ) ;
#309 = ORIENTED_EDGE ( 'NONE', *, *, #47, .T. ) ;
#310 = CARTESIAN_POINT ( 'NONE',  ( 5.500000000000000000, 0.000000000000000000, 5.500000000000005329 ) ) ;
#311 = APPROVAL ( #107, 'NEURÈENÝ' ) ;
#312 = PERSON_AND_ORGANIZATION_ROLE ( 'design_supplier' ) ;
#313 = EDGE_CURVE ( 'NONE', #268, #218, #52, .T. ) ;
#314 = AXIS2_PLACEMENT_3D ( 'NONE', #103, #223, #67 ) ;
#315 = CALENDAR_DATE ( 2022, 8, 7 ) ;
#316 = DIRECTION ( 'NONE',  ( 1.000000000000000000, 0.000000000000000000, 0.000000000000000000 ) ) ;
#317 = CYLINDRICAL_SURFACE ( 'NONE', #104, 3.100000000000000089 ) ;
#318 = DIRECTION ( 'NONE',  ( -0.000000000000000000, -0.000000000000000000, -1.000000000000000000 ) ) ;
#319 = EDGE_CURVE ( 'NONE', #218, #299, #216, .T. ) ;
#320 = DATE_AND_TIME ( #235, #46 ) ;
#321 = ORIENTED_EDGE ( 'NONE', *, *, #36, .T. ) ;
#322 = DIRECTION ( 'NONE',  ( -0.000000000000000000, -0.000000000000000000, -1.000000000000000000 ) ) ;
#323 = ORIENTED_EDGE ( 'NONE', *, *, #134, .T. ) ;
#324 = CARTESIAN_POINT ( 'NONE',  ( 0.000000000000000000, 0.000000000000000000, 180.0000000000000000 ) ) ;
#325 =( GEOMETRIC_REPRESENTATION_CONTEXT ( 3 ) GLOBAL_UNCERTAINTY_ASSIGNED_CONTEXT ( ( #19 ) ) GLOBAL_UNIT_ASSIGNED_CONTEXT ( ( #297, #276, #121 ) ) REPRESENTATION_CONTEXT ( 'NONE', 'WORKASPACE' ) );
#326 = DIRECTION ( 'NONE',  ( 1.000000000000000000, 0.000000000000000000, 0.000000000000000000 ) ) ;
#327 = EDGE_CURVE ( 'NONE', #278, #224, #140, .T. ) ;
#328 = ORIENTED_EDGE ( 'NONE', *, *, #171, .F. ) ;
#329 = DIRECTION ( 'NONE',  ( -1.000000000000000000, 0.000000000000000000, 0.000000000000000000 ) ) ;
#330 = ORIENTED_EDGE ( 'NONE', *, *, #200, .F. ) ;
#331 = ADVANCED_FACE ( 'NONE', ( #267 ), #295, .F. ) ;
#332 = CARTESIAN_POINT ( 'NONE',  ( 0.000000000000000000, 0.000000000000000000, 5.500000000000005329 ) ) ;
#333 = DIRECTION ( 'NONE',  ( 0.000000000000000000, 0.000000000000000000, -1.000000000000000000 ) ) ;
#334 = FACE_OUTER_BOUND ( 'NONE', #39, .T. ) ;
#335 = COORDINATED_UNIVERSAL_TIME_OFFSET ( 1, 0, .AHEAD. ) ;
#336 = DIRECTION ( 'NONE',  ( 1.000000000000000000, 0.000000000000000000, 0.000000000000000000 ) ) ;
#337 = TOROIDAL_SURFACE ( 'NONE', #190, 5.500000000000000000, 0.5000000000000000000 ) ;
#338 = LOCAL_TIME ( 16, 50, 46.00000000000000000, #335 ) ;
#339 = FACE_OUTER_BOUND ( 'NONE', #63, .T. ) ;
#340 = EDGE_CURVE ( 'NONE', #84, #245, #274, .T. ) ;
#341 = CARTESIAN_POINT ( 'NONE',  ( 8.000000000000000000, 9.797174393178825657E-16, 5.000000000000000000 ) ) ;
#342 = VECTOR ( 'NONE', #95, 1000.000000000000000 ) ;
#343 = AXIS2_PLACEMENT_3D ( 'NONE', #324, #178, #38 ) ;
#344 = CARTESIAN_POINT ( 'NONE',  ( -3.100000000000000089, 0.000000000000000000, 0.000000000000000000 ) ) ;
#345 = CC_DESIGN_DATE_AND_TIME_ASSIGNMENT ( #188, #303, ( #91 ) ) ;
#346 = AXIS2_PLACEMENT_3D ( 'NONE', #101, #163, #69 ) ;
#347 = DIRECTION ( 'NONE',  ( 1.000000000000000000, 0.000000000000000000, -0.000000000000000000 ) ) ;
#348 = CIRCLE ( 'NONE', #35, 5.000000000000000000 ) ;
#349 = VERTEX_POINT ( 'NONE', #272 ) ;
#350 = APPROVAL_DATE_TIME ( #320, #311 ) ;
#351 = VECTOR ( 'NONE', #204, 1000.000000000000000 ) ;
#352 = CARTESIAN_POINT ( 'NONE',  ( 3.100000000000000089, 3.796405077356793932E-16, 0.000000000000000000 ) ) ;
#353 = CC_DESIGN_PERSON_AND_ORGANIZATION_ASSIGNMENT ( #208, #173, ( #262 ) ) ;
#354 = PRODUCT ( '28ab', '28ab', '', ( #192 ) ) ;
#355 = CARTESIAN_POINT ( 'NONE',  ( 0.000000000000000000, 0.000000000000000000, 180.0000000000000000 ) ) ;
#356 = APPLICATION_CONTEXT ( 'configuration controlled 3d designs of mechanical parts and assemblies' ) ;
#357 = EDGE_CURVE ( 'NONE', #307, #360, #238, .T. ) ;
#358 = ORIENTED_EDGE ( 'NONE', *, *, #290, .F. ) ;
#359 = CARTESIAN_POINT ( 'NONE',  ( -3.100000000000000089, 0.000000000000000000, 180.0000000000000000 ) ) ;
#360 = VERTEX_POINT ( 'NONE', #124 ) ;
#361 = CIRCLE ( 'NONE', #1, 0.5000000000000004441 ) ;
#362 = EDGE_LOOP ( 'NONE', ( #253, #222, #113, #220 ) ) ;
#363 = DATE_AND_TIME ( #229, #62 ) ;
#364 = AXIS2_PLACEMENT_3D ( 'NONE', #269, #322, #33 ) ;
#365 = ORIENTED_EDGE ( 'NONE', *, *, #313, .F. ) ;
#366 = APPROVAL_ROLE ( '' ) ;
#367 = FACE_OUTER_BOUND ( 'NONE', #187, .T. ) ;
#368 = AXIS2_PLACEMENT_3D ( 'NONE', #156, #57, #94 ) ;
#369 = DIRECTION ( 'NONE',  ( 0.000000000000000000, 0.000000000000000000, 1.000000000000000000 ) ) ;
#370 = DIRECTION ( 'NONE',  ( 1.000000000000000000, 0.000000000000000000, 0.000000000000000000 ) ) ;
#371 = AXIS2_PLACEMENT_3D ( 'NONE', #2, #116, #87 ) ;
#372 = APPROVAL_ROLE ( '' ) ;
#373 = CARTESIAN_POINT ( 'NONE',  ( -3.100000000000000089, 0.000000000000000000, 180.0000000000000000 ) ) ;
#374 = PERSON_AND_ORGANIZATION_ROLE ( 'creator' ) ;
#375 = CC_DESIGN_PERSON_AND_ORGANIZATION_ASSIGNMENT ( #201, #374, ( #40 ) ) ;
#376 = DIRECTION ( 'NONE',  ( -1.000000000000000000, 0.000000000000000000, 0.000000000000000000 ) ) ;
#377 = CARTESIAN_POINT ( 'NONE',  ( 0.000000000000000000, 0.000000000000000000, 180.0000000000000000 ) ) ;
#378 = ORIENTED_EDGE ( 'NONE', *, *, #47, .F. ) ;
#379 = APPROVAL ( #44, 'NEURÈENÝ' ) ;
#380 = CIRCLE ( 'NONE', #127, 5.500000000000000000 ) ;
#381 = CYLINDRICAL_SURFACE ( 'NONE', #51, 5.000000000000000000 ) ;
ENDSEC;
END-ISO-10303-21;
