ISO-10303-21;
HEADER;
FILE_DESCRIPTION (( 'STEP AP203' ),
    '1' );
FILE_NAME ('7b99.STEP',
    '2022-07-08T15:51:37',
    ( '' ),
    ( '' ),
    'SwSTEP 2.0',
    'SolidWorks 2019',
    '' );
FILE_SCHEMA (( 'CONFIG_CONTROL_DESIGN' ));
ENDSEC;

DATA;
#1 = PRODUCT_DEFINITION ( 'NEZNÁMÝ', '', #227, #100 ) ;
#2 = CARTESIAN_POINT ( 'NONE',  ( -1.000000000000000000, 0.000000000000000000, 353.0000000000000000 ) ) ;
#3 = CIRCLE ( 'NONE', #31, 5.000000000000000000 ) ;
#4 = DIRECTION ( 'NONE',  ( 0.000000000000000000, -1.000000000000000000, 0.000000000000000000 ) ) ;
#5 = PERSON_AND_ORGANIZATION ( #251, #200 ) ;
#6 = ORIENTED_EDGE ( 'NONE', *, *, #128, .F. ) ;
#7 = ADVANCED_FACE ( 'NONE', ( #215, #97 ), #221, .F. ) ;
#8 = CIRCLE ( 'NONE', #165, 5.000000000000000000 ) ;
#9 = CARTESIAN_POINT ( 'NONE',  ( -2.799999999999999822, 3.429011037612589276E-16, 3.000000000000012434 ) ) ;
#10 = FACE_BOUND ( 'NONE', #243, .T. ) ;
#11 = CARTESIAN_POINT ( 'NONE',  ( -5.000000000000000000, 0.000000000000000000, 0.000000000000000000 ) ) ;
#12 = CC_DESIGN_PERSON_AND_ORGANIZATION_ASSIGNMENT ( #153, #247, ( #23 ) ) ;
#13 = CIRCLE ( 'NONE', #156, 1.000000000000000000 ) ;
#14 = VERTEX_POINT ( 'NONE', #218 ) ;
#15 = APPROVAL ( #223, 'NEURÈENÝ' ) ;
#16 = ORIENTED_EDGE ( 'NONE', *, *, #35, .T. ) ;
#17 = DIRECTION ( 'NONE',  ( 1.000000000000000000, 0.000000000000000000, 0.000000000000000000 ) ) ;
#18 = VECTOR ( 'NONE', #291, 1000.000000000000000 ) ;
#19 = ORIENTED_EDGE ( 'NONE', *, *, #35, .F. ) ;
#20 = CARTESIAN_POINT ( 'NONE',  ( -2.500000000000000000, 0.000000000000000000, 353.0000000000000000 ) ) ;
#21 = VERTEX_POINT ( 'NONE', #180 ) ;
#22 = DIRECTION ( 'NONE',  ( 1.000000000000000000, 0.000000000000000000, 0.000000000000000000 ) ) ;
#23 = SECURITY_CLASSIFICATION ( '', '', #66 ) ;
#24 =( LENGTH_UNIT ( ) NAMED_UNIT ( * ) SI_UNIT ( .MILLI., .METRE. ) );
#25 = DIRECTION ( 'NONE',  ( 1.000000000000000000, 0.000000000000000000, 0.000000000000000000 ) ) ;
#26 = CARTESIAN_POINT ( 'NONE',  ( 0.000000000000000000, 0.000000000000000000, 353.0000000000000000 ) ) ;
#27 = APPROVAL ( #187, 'NEURÈENÝ' ) ;
#28 = LINE ( 'NONE', #298, #214 ) ;
#29 = PRODUCT_DEFINITION_SHAPE ( 'NONE', 'NONE',  #1 ) ;
#30 = CARTESIAN_POINT ( 'NONE',  ( 2.799999999999999822, 0.000000000000000000, 3.300000000000025135 ) ) ;
#31 = AXIS2_PLACEMENT_3D ( 'NONE', #278, #75, #252 ) ;
#32 = LOCAL_TIME ( 17, 51, 37.00000000000000000, #330 ) ;
#33 = APPLICATION_CONTEXT ( 'configuration controlled 3d designs of mechanical parts and assemblies' ) ;
#34 = DIRECTION ( 'NONE',  ( -0.000000000000000000, -0.000000000000000000, -1.000000000000000000 ) ) ;
#35 = EDGE_CURVE ( 'NONE', #355, #158, #287, .T. ) ;
#36 = CALENDAR_DATE ( 2022, 8, 7 ) ;
#37 = COORDINATED_UNIVERSAL_TIME_OFFSET ( 1, 0, .AHEAD. ) ;
#38 = CARTESIAN_POINT ( 'NONE',  ( 0.000000000000000000, 0.000000000000000000, 3.000000000000000000 ) ) ;
#39 = CALENDAR_DATE ( 2022, 8, 7 ) ;
#40 = DIRECTION ( 'NONE',  ( -1.000000000000000000, 0.000000000000000000, 0.000000000000000000 ) ) ;
#41 = CIRCLE ( 'NONE', #259, 1.000000000000000000 ) ;
#42 = CYLINDRICAL_SURFACE ( 'NONE', #58, 2.500000000000000000 ) ;
#43 = FACE_OUTER_BOUND ( 'NONE', #209, .T. ) ;
#44 = CIRCLE ( 'NONE', #308, 1.000000000000000000 ) ;
#45 = EDGE_CURVE ( 'NONE', #365, #21, #13, .T. ) ;
#46 = APPROVAL_STATUS ( 'not_yet_approved' ) ;
#47 = ORIENTED_EDGE ( 'NONE', *, *, #45, .F. ) ;
#48 = PRODUCT ( '7b99', '7b99', '', ( #379 ) ) ;
#49 = DIRECTION ( 'NONE',  ( 1.000000000000000000, 0.000000000000000000, 0.000000000000000000 ) ) ;
#50 = DIRECTION ( 'NONE',  ( -1.000000000000000000, 0.000000000000000000, 0.000000000000000000 ) ) ;
#51 = AXIS2_PLACEMENT_3D ( 'NONE', #179, #86, #50 ) ;
#52 = EDGE_LOOP ( 'NONE', ( #241, #176, #150, #79 ) ) ;
#53 = CC_DESIGN_PERSON_AND_ORGANIZATION_ASSIGNMENT ( #192, #276, ( #227 ) ) ;
#54 = ORIENTED_EDGE ( 'NONE', *, *, #266, .T. ) ;
#55 = ORIENTED_EDGE ( 'NONE', *, *, #88, .F. ) ;
#56 = DIRECTION ( 'NONE',  ( 1.224646799147353207E-16, 1.000000000000000000, -0.000000000000000000 ) ) ;
#57 = VERTEX_POINT ( 'NONE', #300 ) ;
#58 = AXIS2_PLACEMENT_3D ( 'NONE', #78, #168, #40 ) ;
#59 = EDGE_CURVE ( 'NONE', #273, #210, #28, .T. ) ;
#60 = DIRECTION ( 'NONE',  ( 0.000000000000000000, 0.000000000000000000, 1.000000000000000000 ) ) ;
#61 = CARTESIAN_POINT ( 'NONE',  ( 0.000000000000000000, 0.000000000000000000, 0.000000000000000000 ) ) ;
#62 = CARTESIAN_POINT ( 'NONE',  ( 0.000000000000000000, 0.000000000000000000, 3.300000000000025135 ) ) ;
#63 = EDGE_CURVE ( 'NONE', #369, #365, #95, .T. ) ;
#64 = ORIENTED_EDGE ( 'NONE', *, *, #63, .F. ) ;
#65 = AXIS2_PLACEMENT_3D ( 'NONE', #245, #293, #22 ) ;
#66 = SECURITY_CLASSIFICATION_LEVEL ( 'unclassified' ) ;
#67 = PLANE ( 'NONE',  #174 ) ;
#68 = DATE_TIME_ROLE ( 'creation_date' ) ;
#69 = CARTESIAN_POINT ( 'NONE',  ( -2.500000000000000000, 0.000000000000000000, 353.0000000000000000 ) ) ;
#70 = APPROVAL_DATE_TIME ( #163, #15 ) ;
#71 = DIRECTION ( 'NONE',  ( 0.000000000000000000, 0.000000000000000000, -1.000000000000000000 ) ) ;
#72 = EDGE_CURVE ( 'NONE', #158, #171, #237, .T. ) ;
#73 = AXIS2_PLACEMENT_3D ( 'NONE', #213, #83, #316 ) ;
#74 = LOCAL_TIME ( 17, 51, 37.00000000000000000, #76 ) ;
#75 = DIRECTION ( 'NONE',  ( 0.000000000000000000, 0.000000000000000000, 1.000000000000000000 ) ) ;
#76 = COORDINATED_UNIVERSAL_TIME_OFFSET ( 1, 0, .AHEAD. ) ;
#77 = EDGE_CURVE ( 'NONE', #14, #114, #322, .T. ) ;
#78 = CARTESIAN_POINT ( 'NONE',  ( 0.000000000000000000, 0.000000000000000000, 353.0000000000000000 ) ) ;
#79 = ORIENTED_EDGE ( 'NONE', *, *, #185, .F. ) ;
#80 = CARTESIAN_POINT ( 'NONE',  ( 0.000000000000000000, 0.000000000000000000, 353.0000000000000000 ) ) ;
#81 = ORIENTED_EDGE ( 'NONE', *, *, #202, .T. ) ;
#82 = EDGE_CURVE ( 'NONE', #158, #355, #189, .T. ) ;
#83 = DIRECTION ( 'NONE',  ( 0.000000000000000000, 0.000000000000000000, 1.000000000000000000 ) ) ;
#84 = VECTOR ( 'NONE', #126, 1000.000000000000000 ) ;
#85 = LOCAL_TIME ( 17, 51, 37.00000000000000000, #37 ) ;
#86 = DIRECTION ( 'NONE',  ( -0.000000000000000000, -0.000000000000000000, -1.000000000000000000 ) ) ;
#87 = DIRECTION ( 'NONE',  ( 0.000000000000000000, 0.000000000000000000, 1.000000000000000000 ) ) ;
#88 = EDGE_CURVE ( 'NONE', #21, #365, #44, .T. ) ;
#89 = ORIENTED_EDGE ( 'NONE', *, *, #128, .T. ) ;
#90 = DIRECTION ( 'NONE',  ( 1.000000000000000000, 0.000000000000000000, 0.000000000000000000 ) ) ;
#91 = ORIENTED_EDGE ( 'NONE', *, *, #320, .T. ) ;
#92 = AXIS2_PLACEMENT_3D ( 'NONE', #149, #325, #356 ) ;
#93 = PERSON_AND_ORGANIZATION_ROLE ( 'creator' ) ;
#94 = ORIENTED_EDGE ( 'NONE', *, *, #359, .T. ) ;
#95 = LINE ( 'NONE', #2, #84 ) ;
#96 = ADVANCED_FACE ( 'NONE', ( #222 ), #260, .T. ) ;
#97 = FACE_OUTER_BOUND ( 'NONE', #318, .T. ) ;
#98 = CIRCLE ( 'NONE', #73, 1.000000000000000000 ) ;
#99 = LOCAL_TIME ( 17, 51, 37.00000000000000000, #335 ) ;
#100 = DESIGN_CONTEXT ( 'detailed design', #333, 'design' ) ;
#101 = LINE ( 'NONE', #69, #338 ) ;
#102 = APPROVAL_ROLE ( '' ) ;
#103 = FACE_OUTER_BOUND ( 'NONE', #201, .T. ) ;
#104 = CC_DESIGN_PERSON_AND_ORGANIZATION_ASSIGNMENT ( #220, #244, ( #48 ) ) ;
#105 = CARTESIAN_POINT ( 'NONE',  ( 0.000000000000000000, 0.000000000000000000, 3.300000000000025135 ) ) ;
#106 = CIRCLE ( 'NONE', #317, 2.500000000000000000 ) ;
#107 = CC_DESIGN_APPROVAL ( #27, ( #1 ) ) ;
#108 = EDGE_LOOP ( 'NONE', ( #314, #271 ) ) ;
#109 = AXIS2_PLACEMENT_3D ( 'NONE', #161, #137, #310 ) ;
#110 = DIRECTION ( 'NONE',  ( 0.000000000000000000, 0.000000000000000000, 1.000000000000000000 ) ) ;
#111 = AXIS2_PLACEMENT_3D ( 'NONE', #30, #4, #122 ) ;
#112 = AXIS2_PLACEMENT_3D ( 'NONE', #350, #87, #321 ) ;
#113 = FACE_OUTER_BOUND ( 'NONE', #186, .T. ) ;
#114 = VERTEX_POINT ( 'NONE', #191 ) ;
#115 = DIRECTION ( 'NONE',  ( -0.000000000000000000, -0.000000000000000000, -1.000000000000000000 ) ) ;
#116 = EDGE_LOOP ( 'NONE', ( #285, #236, #238, #130 ) ) ;
#117 = DIRECTION ( 'NONE',  ( 1.000000000000000000, 0.000000000000000000, -0.000000000000000000 ) ) ;
#118 = MANIFOLD_SOLID_BREP ( 'Odebrat vysunutím3', #295 ) ;
#119 = ORIENTED_EDGE ( 'NONE', *, *, #82, .T. ) ;
#120 = CARTESIAN_POINT ( 'NONE',  ( 2.500000000000000000, 3.061616997868383141E-16, 353.0000000000000000 ) ) ;
#121 = EDGE_CURVE ( 'NONE', #353, #355, #101, .T. ) ;
#122 = DIRECTION ( 'NONE',  ( 0.000000000000000000, 0.000000000000000000, -1.000000000000000000 ) ) ;
#123 = DIRECTION ( 'NONE',  ( -1.000000000000000000, 0.000000000000000000, 0.000000000000000000 ) ) ;
#124 = ORIENTED_EDGE ( 'NONE', *, *, #290, .T. ) ;
#125 = APPROVAL_DATE_TIME ( #280, #27 ) ;
#126 = DIRECTION ( 'NONE',  ( 0.000000000000000000, 0.000000000000000000, -1.000000000000000000 ) ) ;
#127 = CARTESIAN_POINT ( 'NONE',  ( 5.000000000000000000, 6.123233995736766282E-16, 3.000000000000000000 ) ) ;
#128 = EDGE_CURVE ( 'NONE', #57, #21, #283, .T. ) ;
#129 = PERSON_AND_ORGANIZATION ( #251, #200 ) ;
#130 = ORIENTED_EDGE ( 'NONE', *, *, #59, .F. ) ;
#131 = APPROVAL_ROLE ( '' ) ;
#132 = FACE_OUTER_BOUND ( 'NONE', #341, .T. ) ;
#133 = DATE_AND_TIME ( #36, #74 ) ;
#134 = AXIS2_PLACEMENT_3D ( 'NONE', #62, #301, #212 ) ;
#135 = DATE_AND_TIME ( #160, #85 ) ;
#136 = CC_DESIGN_DATE_AND_TIME_ASSIGNMENT ( #358, #68, ( #1 ) ) ;
#137 = DIRECTION ( 'NONE',  ( 0.000000000000000000, 0.000000000000000000, -1.000000000000000000 ) ) ;
#138 = FACE_OUTER_BOUND ( 'NONE', #52, .T. ) ;
#139 = CIRCLE ( 'NONE', #284, 2.799999999999999822 ) ;
#140 =( GEOMETRIC_REPRESENTATION_CONTEXT ( 3 ) GLOBAL_UNCERTAINTY_ASSIGNED_CONTEXT ( ( #361 ) ) GLOBAL_UNIT_ASSIGNED_CONTEXT ( ( #24, #145, #261 ) ) REPRESENTATION_CONTEXT ( 'NONE', 'WORKASPACE' ) );
#141 = ORIENTED_EDGE ( 'NONE', *, *, #72, .F. ) ;
#142 = CARTESIAN_POINT ( 'NONE',  ( 0.000000000000000000, 0.000000000000000000, 3.300000000000025135 ) ) ;
#143 = FACE_OUTER_BOUND ( 'NONE', #116, .T. ) ;
#144 = ADVANCED_FACE ( 'NONE', ( #113 ), #42, .T. ) ;
#145 =( NAMED_UNIT ( * ) PLANE_ANGLE_UNIT ( ) SI_UNIT ( $, .RADIAN. ) );
#146 = VERTEX_POINT ( 'NONE', #9 ) ;
#147 = DIRECTION ( 'NONE',  ( 0.000000000000000000, 0.000000000000000000, 1.000000000000000000 ) ) ;
#148 = AXIS2_PLACEMENT_3D ( 'NONE', #377, #56, #175 ) ;
#149 = CARTESIAN_POINT ( 'NONE',  ( 0.000000000000000000, 0.000000000000000000, 0.000000000000000000 ) ) ;
#150 = ORIENTED_EDGE ( 'NONE', *, *, #72, .T. ) ;
#151 = DIRECTION ( 'NONE',  ( 0.000000000000000000, 0.000000000000000000, 1.000000000000000000 ) ) ;
#152 = ORIENTED_EDGE ( 'NONE', *, *, #367, .T. ) ;
#153 = PERSON_AND_ORGANIZATION ( #251, #200 ) ;
#154 = CC_DESIGN_PERSON_AND_ORGANIZATION_ASSIGNMENT ( #129, #167, ( #227 ) ) ;
#155 = ORIENTED_EDGE ( 'NONE', *, *, #45, .T. ) ;
#156 = AXIS2_PLACEMENT_3D ( 'NONE', #61, #182, #184 ) ;
#157 = APPLICATION_PROTOCOL_DEFINITION ( 'international standard', 'config_control_design', 1994, #333 ) ;
#158 = VERTEX_POINT ( 'NONE', #370 ) ;
#159 = SHAPE_DEFINITION_REPRESENTATION ( #29, #193 ) ;
#160 = CALENDAR_DATE ( 2022, 8, 7 ) ;
#161 = CARTESIAN_POINT ( 'NONE',  ( 0.000000000000000000, 0.000000000000000000, 353.0000000000000000 ) ) ;
#162 = EDGE_CURVE ( 'NONE', #210, #114, #3, .T. ) ;
#163 = DATE_AND_TIME ( #217, #99 ) ;
#164 = CARTESIAN_POINT ( 'NONE',  ( 0.000000000000000000, 0.000000000000000000, 0.000000000000000000 ) ) ;
#165 = AXIS2_PLACEMENT_3D ( 'NONE', #164, #110, #340 ) ;
#166 = APPROVAL_PERSON_ORGANIZATION ( #327, #27, #102 ) ;
#167 = PERSON_AND_ORGANIZATION_ROLE ( 'design_supplier' ) ;
#168 = DIRECTION ( 'NONE',  ( -0.000000000000000000, -0.000000000000000000, -1.000000000000000000 ) ) ;
#169 = DIRECTION ( 'NONE',  ( -0.000000000000000000, -0.000000000000000000, -1.000000000000000000 ) ) ;
#170 = TOROIDAL_SURFACE ( 'NONE', #279, 2.799999999999999822, 0.2999999999999999889 ) ;
#171 = VERTEX_POINT ( 'NONE', #334 ) ;
#172 = CARTESIAN_POINT ( 'NONE',  ( -5.000000000000000000, 0.000000000000000000, 3.000000000000000000 ) ) ;
#173 = ORIENTED_EDGE ( 'NONE', *, *, #374, .F. ) ;
#174 = AXIS2_PLACEMENT_3D ( 'NONE', #286, #306, #337 ) ;
#175 = DIRECTION ( 'NONE',  ( -1.000000000000000000, 1.224646799147353207E-16, 0.000000000000000000 ) ) ;
#176 = ORIENTED_EDGE ( 'NONE', *, *, #82, .F. ) ;
#177 = CARTESIAN_POINT ( 'NONE',  ( -1.000000000000000000, 0.000000000000000000, 353.0000000000000000 ) ) ;
#178 = ORIENTED_EDGE ( 'NONE', *, *, #294, .F. ) ;
#179 = CARTESIAN_POINT ( 'NONE',  ( 0.000000000000000000, 0.000000000000000000, 3.000000000000000000 ) ) ;
#180 = CARTESIAN_POINT ( 'NONE',  ( 1.000000000000000000, 1.224646799147353207E-16, 0.000000000000000000 ) ) ;
#181 = DIRECTION ( 'NONE',  ( 1.000000000000000000, 0.000000000000000000, 0.000000000000000000 ) ) ;
#182 = DIRECTION ( 'NONE',  ( -0.000000000000000000, -0.000000000000000000, -1.000000000000000000 ) ) ;
#183 = CYLINDRICAL_SURFACE ( 'NONE', #368, 5.000000000000000000 ) ;
#184 = DIRECTION ( 'NONE',  ( 1.000000000000000000, 0.000000000000000000, 0.000000000000000000 ) ) ;
#185 = EDGE_CURVE ( 'NONE', #146, #171, #139, .T. ) ;
#186 = EDGE_LOOP ( 'NONE', ( #178, #124, #119, #206 ) ) ;
#187 = APPROVAL_STATUS ( 'not_yet_approved' ) ;
#188 = ORIENTED_EDGE ( 'NONE', *, *, #162, .F. ) ;
#189 = CIRCLE ( 'NONE', #65, 2.500000000000000000 ) ;
#190 = CC_DESIGN_APPROVAL ( #15, ( #227 ) ) ;
#191 = CARTESIAN_POINT ( 'NONE',  ( 5.000000000000000000, 6.123233995736766282E-16, 0.000000000000000000 ) ) ;
#192 = PERSON_AND_ORGANIZATION ( #251, #200 ) ;
#193 = ADVANCED_BREP_SHAPE_REPRESENTATION ( '7b99', ( #118, #112 ), #140 ) ;
#194 = DIRECTION ( 'NONE',  ( 0.000000000000000000, 0.000000000000000000, 1.000000000000000000 ) ) ;
#195 = CARTESIAN_POINT ( 'NONE',  ( 1.000000000000000000, 1.224646799147353207E-16, 353.0000000000000000 ) ) ;
#196 = AXIS2_PLACEMENT_3D ( 'NONE', #275, #71, #257 ) ;
#197 = DIRECTION ( 'NONE',  ( 0.000000000000000000, 0.000000000000000000, 1.000000000000000000 ) ) ;
#198 = PRODUCT_RELATED_PRODUCT_CATEGORY ( 'detail', '', ( #48 ) ) ;
#199 = AXIS2_PLACEMENT_3D ( 'NONE', #26, #319, #90 ) ;
#200 = ORGANIZATION ( 'NEURÈENÝ', 'NEURÈENÝ', '' ) ;
#201 = EDGE_LOOP ( 'NONE', ( #91, #89, #239, #64 ) ) ;
#202 = EDGE_CURVE ( 'NONE', #273, #14, #323, .T. ) ;
#203 = CARTESIAN_POINT ( 'NONE',  ( 0.000000000000000000, 0.000000000000000000, 3.000000000000000000 ) ) ;
#204 = EDGE_LOOP ( 'NONE', ( #47, #55 ) ) ;
#205 = CYLINDRICAL_SURFACE ( 'NONE', #51, 5.000000000000000000 ) ;
#206 = ORIENTED_EDGE ( 'NONE', *, *, #121, .F. ) ;
#207 = VECTOR ( 'NONE', #309, 1000.000000000000000 ) ;
#208 = CARTESIAN_POINT ( 'NONE',  ( 0.000000000000000000, 0.000000000000000000, 353.0000000000000000 ) ) ;
#209 = EDGE_LOOP ( 'NONE', ( #19, #231, #264, #141 ) ) ;
#210 = VERTEX_POINT ( 'NONE', #11 ) ;
#211 = CARTESIAN_POINT ( 'NONE',  ( -1.000000000000000000, 0.000000000000000000, 0.000000000000000000 ) ) ;
#212 = DIRECTION ( 'NONE',  ( 1.000000000000000000, 0.000000000000000000, 0.000000000000000000 ) ) ;
#213 = CARTESIAN_POINT ( 'NONE',  ( 0.000000000000000000, 0.000000000000000000, 353.0000000000000000 ) ) ;
#214 = VECTOR ( 'NONE', #326, 1000.000000000000000 ) ;
#215 = FACE_BOUND ( 'NONE', #204, .T. ) ;
#216 = ADVANCED_FACE ( 'NONE', ( #132 ), #249, .F. ) ;
#217 = CALENDAR_DATE ( 2022, 8, 7 ) ;
#218 = CARTESIAN_POINT ( 'NONE',  ( 5.000000000000000000, 6.123233995736766282E-16, 3.000000000000000000 ) ) ;
#219 = CARTESIAN_POINT ( 'NONE',  ( 0.000000000000000000, 0.000000000000000000, 0.000000000000000000 ) ) ;
#220 = PERSON_AND_ORGANIZATION ( #251, #200 ) ;
#221 = PLANE ( 'NONE',  #92 ) ;
#222 = FACE_OUTER_BOUND ( 'NONE', #351, .T. ) ;
#223 = APPROVAL_STATUS ( 'not_yet_approved' ) ;
#224 = DIRECTION ( 'NONE',  ( -0.000000000000000000, -0.000000000000000000, -1.000000000000000000 ) ) ;
#225 = DIRECTION ( 'NONE',  ( 1.000000000000000000, 0.000000000000000000, 0.000000000000000000 ) ) ;
#226 = CIRCLE ( 'NONE', #270, 5.000000000000000000 ) ;
#227 = PRODUCT_DEFINITION_FORMATION_WITH_SPECIFIED_SOURCE ( 'LIBOVOLNÝ', '', #48, .NOT_KNOWN. ) ;
#228 = ADVANCED_FACE ( 'NONE', ( #103 ), #336, .F. ) ;
#229 = PERSON_AND_ORGANIZATION ( #251, #200 ) ;
#230 = ADVANCED_FACE ( 'NONE', ( #10, #363 ), #67, .T. ) ;
#231 = ORIENTED_EDGE ( 'NONE', *, *, #342, .T. ) ;
#232 = CIRCLE ( 'NONE', #199, 2.500000000000000000 ) ;
#233 = CARTESIAN_POINT ( 'NONE',  ( 0.000000000000000000, 0.000000000000000000, 353.0000000000000000 ) ) ;
#234 = EDGE_LOOP ( 'NONE', ( #81, #152 ) ) ;
#235 = FACE_OUTER_BOUND ( 'NONE', #267, .T. ) ;
#236 = ORIENTED_EDGE ( 'NONE', *, *, #77, .T. ) ;
#237 = CIRCLE ( 'NONE', #111, 0.2999999999999999334 ) ;
#238 = ORIENTED_EDGE ( 'NONE', *, *, #262, .T. ) ;
#239 = ORIENTED_EDGE ( 'NONE', *, *, #88, .T. ) ;
#240 = FACE_BOUND ( 'NONE', #108, .T. ) ;
#241 = ORIENTED_EDGE ( 'NONE', *, *, #342, .F. ) ;
#242 = CIRCLE ( 'NONE', #376, 2.799999999999999822 ) ;
#243 = EDGE_LOOP ( 'NONE', ( #54, #380 ) ) ;
#244 = PERSON_AND_ORGANIZATION_ROLE ( 'design_owner' ) ;
#245 = CARTESIAN_POINT ( 'NONE',  ( 0.000000000000000000, 0.000000000000000000, 3.300000000000025135 ) ) ;
#246 = ADVANCED_FACE ( 'NONE', ( #138 ), #331, .F. ) ;
#247 = PERSON_AND_ORGANIZATION_ROLE ( 'classification_officer' ) ;
#248 = ORIENTED_EDGE ( 'NONE', *, *, #59, .T. ) ;
#249 = CYLINDRICAL_SURFACE ( 'NONE', #109, 1.000000000000000000 ) ;
#250 = CC_DESIGN_SECURITY_CLASSIFICATION ( #23, ( #227 ) ) ;
#251 = PERSON ( 'NEURÈENÝ', 'NEURÈENÝ', 'NEURÈENÝ', ('NEURÈENÝ'), ('NEURÈENÝ'), ('NEURÈENÝ') ) ;
#252 = DIRECTION ( 'NONE',  ( 1.000000000000000000, 0.000000000000000000, 0.000000000000000000 ) ) ;
#253 = DIRECTION ( 'NONE',  ( -1.000000000000000000, 0.000000000000000000, 0.000000000000000000 ) ) ;
#254 = APPROVAL ( #46, 'NEURÈENÝ' ) ;
#255 = APPROVAL_ROLE ( '' ) ;
#256 = ADVANCED_FACE ( 'NONE', ( #43 ), #170, .F. ) ;
#257 = DIRECTION ( 'NONE',  ( -1.000000000000000000, 0.000000000000000000, 0.000000000000000000 ) ) ;
#258 = ORIENTED_EDGE ( 'NONE', *, *, #77, .F. ) ;
#259 = AXIS2_PLACEMENT_3D ( 'NONE', #372, #151, #324 ) ;
#260 = CYLINDRICAL_SURFACE ( 'NONE', #364, 2.500000000000000000 ) ;
#261 =( NAMED_UNIT ( * ) SI_UNIT ( $, .STERADIAN. ) SOLID_ANGLE_UNIT ( ) );
#262 = EDGE_CURVE ( 'NONE', #114, #210, #8, .T. ) ;
#263 = AXIS2_PLACEMENT_3D ( 'NONE', #80, #147, #117 ) ;
#264 = ORIENTED_EDGE ( 'NONE', *, *, #266, .F. ) ;
#265 = FACE_OUTER_BOUND ( 'NONE', #371, .T. ) ;
#266 = EDGE_CURVE ( 'NONE', #171, #146, #242, .T. ) ;
#267 = EDGE_LOOP ( 'NONE', ( #292, #269 ) ) ;
#268 = CARTESIAN_POINT ( 'NONE',  ( 0.000000000000000000, 0.000000000000000000, 3.000000000000000000 ) ) ;
#269 = ORIENTED_EDGE ( 'NONE', *, *, #294, .T. ) ;
#270 = AXIS2_PLACEMENT_3D ( 'NONE', #268, #60, #181 ) ;
#271 = ORIENTED_EDGE ( 'NONE', *, *, #359, .F. ) ;
#272 = PERSON_AND_ORGANIZATION ( #251, #200 ) ;
#273 = VERTEX_POINT ( 'NONE', #172 ) ;
#274 = DATE_TIME_ROLE ( 'classification_date' ) ;
#275 = CARTESIAN_POINT ( 'NONE',  ( 0.000000000000000000, 0.000000000000000000, 353.0000000000000000 ) ) ;
#276 = PERSON_AND_ORGANIZATION_ROLE ( 'creator' ) ;
#277 = VECTOR ( 'NONE', #303, 1000.000000000000000 ) ;
#278 = CARTESIAN_POINT ( 'NONE',  ( 0.000000000000000000, 0.000000000000000000, 0.000000000000000000 ) ) ;
#279 = AXIS2_PLACEMENT_3D ( 'NONE', #142, #366, #17 ) ;
#280 = DATE_AND_TIME ( #39, #347 ) ;
#281 = ADVANCED_FACE ( 'NONE', ( #143 ), #183, .T. ) ;
#282 = DIRECTION ( 'NONE',  ( 1.000000000000000000, 0.000000000000000000, 0.000000000000000000 ) ) ;
#283 = LINE ( 'NONE', #195, #207 ) ;
#284 = AXIS2_PLACEMENT_3D ( 'NONE', #38, #332, #282 ) ;
#285 = ORIENTED_EDGE ( 'NONE', *, *, #367, .F. ) ;
#286 = CARTESIAN_POINT ( 'NONE',  ( 0.000000000000000000, 0.000000000000000000, 3.000000000000000000 ) ) ;
#287 = CIRCLE ( 'NONE', #134, 2.500000000000000000 ) ;
#288 = CC_DESIGN_APPROVAL ( #254, ( #23 ) ) ;
#289 = CARTESIAN_POINT ( 'NONE',  ( -2.500000000000000000, 0.000000000000000000, 3.300000000000025135 ) ) ;
#290 = EDGE_CURVE ( 'NONE', #344, #158, #343, .T. ) ;
#291 = DIRECTION ( 'NONE',  ( -0.000000000000000000, -0.000000000000000000, -1.000000000000000000 ) ) ;
#292 = ORIENTED_EDGE ( 'NONE', *, *, #374, .T. ) ;
#293 = DIRECTION ( 'NONE',  ( 0.000000000000000000, 0.000000000000000000, 1.000000000000000000 ) ) ;
#294 = EDGE_CURVE ( 'NONE', #344, #353, #232, .T. ) ;
#295 = CLOSED_SHELL ( 'NONE', ( #228, #256, #144, #281, #328, #230, #7, #96, #311, #246, #216 ) ) ;
#296 = APPLICATION_PROTOCOL_DEFINITION ( 'international standard', 'config_control_design', 1994, #33 ) ;
#297 = APPROVAL_PERSON_ORGANIZATION ( #229, #254, #255 ) ;
#298 = CARTESIAN_POINT ( 'NONE',  ( -5.000000000000000000, 0.000000000000000000, 3.000000000000000000 ) ) ;
#299 = DIRECTION ( 'NONE',  ( 0.000000000000000000, 0.000000000000000000, 1.000000000000000000 ) ) ;
#300 = CARTESIAN_POINT ( 'NONE',  ( 1.000000000000000000, 1.224646799147353207E-16, 353.0000000000000000 ) ) ;
#301 = DIRECTION ( 'NONE',  ( 0.000000000000000000, 0.000000000000000000, 1.000000000000000000 ) ) ;
#302 = AXIS2_PLACEMENT_3D ( 'NONE', #362, #197, #305 ) ;
#303 = DIRECTION ( 'NONE',  ( -0.000000000000000000, -0.000000000000000000, -1.000000000000000000 ) ) ;
#304 = APPROVAL_DATE_TIME ( #133, #254 ) ;
#305 = DIRECTION ( 'NONE',  ( 1.000000000000000000, 0.000000000000000000, 0.000000000000000000 ) ) ;
#306 = DIRECTION ( 'NONE',  ( 0.000000000000000000, 0.000000000000000000, 1.000000000000000000 ) ) ;
#307 = CALENDAR_DATE ( 2022, 8, 7 ) ;
#308 = AXIS2_PLACEMENT_3D ( 'NONE', #219, #34, #25 ) ;
#309 = DIRECTION ( 'NONE',  ( 0.000000000000000000, 0.000000000000000000, -1.000000000000000000 ) ) ;
#310 = DIRECTION ( 'NONE',  ( -1.000000000000000000, 0.000000000000000000, 0.000000000000000000 ) ) ;
#311 = ADVANCED_FACE ( 'NONE', ( #240, #235 ), #345, .T. ) ;
#312 = CIRCLE ( 'NONE', #148, 0.2999999999999999334 ) ;
#313 = DIRECTION ( 'NONE',  ( -0.000000000000000000, -0.000000000000000000, -1.000000000000000000 ) ) ;
#314 = ORIENTED_EDGE ( 'NONE', *, *, #320, .F. ) ;
#315 = CC_DESIGN_PERSON_AND_ORGANIZATION_ASSIGNMENT ( #272, #93, ( #1 ) ) ;
#316 = DIRECTION ( 'NONE',  ( 1.000000000000000000, 0.000000000000000000, 0.000000000000000000 ) ) ;
#317 = AXIS2_PLACEMENT_3D ( 'NONE', #208, #299, #375 ) ;
#318 = EDGE_LOOP ( 'NONE', ( #188, #349 ) ) ;
#319 = DIRECTION ( 'NONE',  ( 0.000000000000000000, 0.000000000000000000, 1.000000000000000000 ) ) ;
#320 = EDGE_CURVE ( 'NONE', #369, #57, #98, .T. ) ;
#321 = DIRECTION ( 'NONE',  ( 1.000000000000000000, 0.000000000000000000, 0.000000000000000000 ) ) ;
#322 = LINE ( 'NONE', #127, #277 ) ;
#323 = CIRCLE ( 'NONE', #302, 5.000000000000000000 ) ;
#324 = DIRECTION ( 'NONE',  ( 1.000000000000000000, 0.000000000000000000, 0.000000000000000000 ) ) ;
#325 = DIRECTION ( 'NONE',  ( 0.000000000000000000, 0.000000000000000000, 1.000000000000000000 ) ) ;
#326 = DIRECTION ( 'NONE',  ( -0.000000000000000000, -0.000000000000000000, -1.000000000000000000 ) ) ;
#327 = PERSON_AND_ORGANIZATION ( #251, #200 ) ;
#328 = ADVANCED_FACE ( 'NONE', ( #265 ), #205, .T. ) ;
#329 = ORIENTED_EDGE ( 'NONE', *, *, #63, .T. ) ;
#330 = COORDINATED_UNIVERSAL_TIME_OFFSET ( 1, 0, .AHEAD. ) ;
#331 = TOROIDAL_SURFACE ( 'NONE', #346, 2.799999999999999822, 0.2999999999999999889 ) ;
#332 = DIRECTION ( 'NONE',  ( -0.000000000000000000, -0.000000000000000000, -1.000000000000000000 ) ) ;
#333 = APPLICATION_CONTEXT ( 'configuration controlled 3d designs of mechanical parts and assemblies' ) ;
#334 = CARTESIAN_POINT ( 'NONE',  ( 2.799999999999999822, 0.000000000000000000, 3.000000000000012434 ) ) ;
#335 = COORDINATED_UNIVERSAL_TIME_OFFSET ( 1, 0, .AHEAD. ) ;
#336 = CYLINDRICAL_SURFACE ( 'NONE', #196, 1.000000000000000000 ) ;
#337 = DIRECTION ( 'NONE',  ( 1.000000000000000000, 0.000000000000000000, -0.000000000000000000 ) ) ;
#338 = VECTOR ( 'NONE', #224, 1000.000000000000000 ) ;
#339 = ORIENTED_EDGE ( 'NONE', *, *, #121, .T. ) ;
#340 = DIRECTION ( 'NONE',  ( 1.000000000000000000, 0.000000000000000000, 0.000000000000000000 ) ) ;
#341 = EDGE_LOOP ( 'NONE', ( #6, #94, #329, #155 ) ) ;
#342 = EDGE_CURVE ( 'NONE', #355, #146, #312, .T. ) ;
#343 = LINE ( 'NONE', #352, #18 ) ;
#344 = VERTEX_POINT ( 'NONE', #120 ) ;
#345 = PLANE ( 'NONE',  #263 ) ;
#346 = AXIS2_PLACEMENT_3D ( 'NONE', #105, #194, #225 ) ;
#347 = LOCAL_TIME ( 17, 51, 37.00000000000000000, #360 ) ;
#348 = CC_DESIGN_DATE_AND_TIME_ASSIGNMENT ( #135, #274, ( #23 ) ) ;
#349 = ORIENTED_EDGE ( 'NONE', *, *, #262, .F. ) ;
#350 = CARTESIAN_POINT ( 'NONE',  ( 0.000000000000000000, 0.000000000000000000, 0.000000000000000000 ) ) ;
#351 = EDGE_LOOP ( 'NONE', ( #378, #173, #339, #16 ) ) ;
#352 = CARTESIAN_POINT ( 'NONE',  ( 2.500000000000000000, 3.061616997868383141E-16, 353.0000000000000000 ) ) ;
#353 = VERTEX_POINT ( 'NONE', #20 ) ;
#354 = APPROVAL_PERSON_ORGANIZATION ( #5, #15, #131 ) ;
#355 = VERTEX_POINT ( 'NONE', #289 ) ;
#356 = DIRECTION ( 'NONE',  ( 1.000000000000000000, 0.000000000000000000, -0.000000000000000000 ) ) ;
#357 = ORIENTED_EDGE ( 'NONE', *, *, #162, .T. ) ;
#358 = DATE_AND_TIME ( #307, #32 ) ;
#359 = EDGE_CURVE ( 'NONE', #57, #369, #41, .T. ) ;
#360 = COORDINATED_UNIVERSAL_TIME_OFFSET ( 1, 0, .AHEAD. ) ;
#361 = UNCERTAINTY_MEASURE_WITH_UNIT (LENGTH_MEASURE( 1.000000000000000082E-05 ), #24, 'distance_accuracy_value', 'NONE');
#362 = CARTESIAN_POINT ( 'NONE',  ( 0.000000000000000000, 0.000000000000000000, 3.000000000000000000 ) ) ;
#363 = FACE_OUTER_BOUND ( 'NONE', #234, .T. ) ;
#364 = AXIS2_PLACEMENT_3D ( 'NONE', #233, #169, #253 ) ;
#365 = VERTEX_POINT ( 'NONE', #211 ) ;
#366 = DIRECTION ( 'NONE',  ( 0.000000000000000000, 0.000000000000000000, 1.000000000000000000 ) ) ;
#367 = EDGE_CURVE ( 'NONE', #14, #273, #226, .T. ) ;
#368 = AXIS2_PLACEMENT_3D ( 'NONE', #381, #115, #123 ) ;
#369 = VERTEX_POINT ( 'NONE', #177 ) ;
#370 = CARTESIAN_POINT ( 'NONE',  ( 2.500000000000000000, 3.061616997868383141E-16, 3.300000000000025135 ) ) ;
#371 = EDGE_LOOP ( 'NONE', ( #258, #373, #248, #357 ) ) ;
#372 = CARTESIAN_POINT ( 'NONE',  ( 0.000000000000000000, 0.000000000000000000, 353.0000000000000000 ) ) ;
#373 = ORIENTED_EDGE ( 'NONE', *, *, #202, .F. ) ;
#374 = EDGE_CURVE ( 'NONE', #353, #344, #106, .T. ) ;
#375 = DIRECTION ( 'NONE',  ( 1.000000000000000000, 0.000000000000000000, 0.000000000000000000 ) ) ;
#376 = AXIS2_PLACEMENT_3D ( 'NONE', #203, #313, #49 ) ;
#377 = CARTESIAN_POINT ( 'NONE',  ( -2.799999999999999822, 3.429011037612588783E-16, 3.300000000000025135 ) ) ;
#378 = ORIENTED_EDGE ( 'NONE', *, *, #290, .F. ) ;
#379 = MECHANICAL_CONTEXT ( 'NONE', #33, 'mechanical' ) ;
#380 = ORIENTED_EDGE ( 'NONE', *, *, #185, .T. ) ;
#381 = CARTESIAN_POINT ( 'NONE',  ( 0.000000000000000000, 0.000000000000000000, 3.000000000000000000 ) ) ;
ENDSEC;
END-ISO-10303-21;
