ISO-10303-21;
HEADER;
FILE_DESCRIPTION (( 'STEP AP203' ),
    '1' );
FILE_NAME ('a8d2.STEP',
    '2022-07-08T14:58:11',
    ( '' ),
    ( '' ),
    'SwSTEP 2.0',
    'SolidWorks 2019',
    '' );
FILE_SCHEMA (( 'CONFIG_CONTROL_DESIGN' ));
ENDSEC;

DATA;
#1 = EDGE_CURVE ( 'NONE', #167, #160, #352, .T. ) ;
#2 = AXIS2_PLACEMENT_3D ( 'NONE', #266, #41, #9 ) ;
#3 = PLANE ( 'NONE',  #55 ) ;
#4 = ORIENTED_EDGE ( 'NONE', *, *, #111, .F. ) ;
#5 = CC_DESIGN_PERSON_AND_ORGANIZATION_ASSIGNMENT ( #99, #186, ( #243 ) ) ;
#6 = DIRECTION ( 'NONE',  ( 1.000000000000000000, 0.000000000000000000, 0.000000000000000000 ) ) ;
#7 = DIRECTION ( 'NONE',  ( 0.000000000000000000, 0.000000000000000000, 1.000000000000000000 ) ) ;
#8 = ORGANIZATION ( 'NEURÈENÝ', 'NEURÈENÝ', '' ) ;
#9 = DIRECTION ( 'NONE',  ( 1.000000000000000000, 0.000000000000000000, 0.000000000000000000 ) ) ;
#10 = CARTESIAN_POINT ( 'NONE',  ( 0.000000000000000000, 0.000000000000000000, 180.0000000000000000 ) ) ;
#11 = EDGE_LOOP ( 'NONE', ( #74, #215, #171, #133 ) ) ;
#12 = DIRECTION ( 'NONE',  ( -0.000000000000000000, -0.000000000000000000, -1.000000000000000000 ) ) ;
#13 = PRODUCT_DEFINITION_SHAPE ( 'NONE', 'NONE',  #232 ) ;
#14 = EDGE_CURVE ( 'NONE', #177, #348, #197, .T. ) ;
#15 = ORIENTED_EDGE ( 'NONE', *, *, #261, .F. ) ;
#16 = CIRCLE ( 'NONE', #93, 5.500000000000000000 ) ;
#17 = SECURITY_CLASSIFICATION ( '', '', #254 ) ;
#18 = COORDINATED_UNIVERSAL_TIME_OFFSET ( 1, 0, .AHEAD. ) ;
#19 = CARTESIAN_POINT ( 'NONE',  ( 5.500000000000000000, 0.000000000000000000, 5.500000000000005329 ) ) ;
#20 = COORDINATED_UNIVERSAL_TIME_OFFSET ( 1, 0, .AHEAD. ) ;
#21 = FACE_BOUND ( 'NONE', #179, .T. ) ;
#22 = ORIENTED_EDGE ( 'NONE', *, *, #303, .F. ) ;
#23 = AXIS2_PLACEMENT_3D ( 'NONE', #299, #143, #175 ) ;
#24 = LOCAL_TIME ( 16, 58, 11.00000000000000000, #221 ) ;
#25 = CARTESIAN_POINT ( 'NONE',  ( 8.000000000000000000, 9.797174393178825657E-16, 0.000000000000000000 ) ) ;
#26 = CYLINDRICAL_SURFACE ( 'NONE', #70, 3.000000000000000444 ) ;
#27 = DIRECTION ( 'NONE',  ( 1.000000000000000000, 0.000000000000000000, 0.000000000000000000 ) ) ;
#28 = ORIENTED_EDGE ( 'NONE', *, *, #261, .T. ) ;
#29 = CIRCLE ( 'NONE', #264, 5.500000000000000000 ) ;
#30 = CC_DESIGN_APPROVAL ( #123, ( #243 ) ) ;
#31 = FACE_BOUND ( 'NONE', #373, .T. ) ;
#32 = CARTESIAN_POINT ( 'NONE',  ( 5.000000000000000000, 6.123233995736766282E-16, 180.0000000000000000 ) ) ;
#33 = CARTESIAN_POINT ( 'NONE',  ( 0.000000000000000000, 0.000000000000000000, 0.000000000000000000 ) ) ;
#34 = VERTEX_POINT ( 'NONE', #353 ) ;
#35 = DIRECTION ( 'NONE',  ( -0.000000000000000000, -0.000000000000000000, -1.000000000000000000 ) ) ;
#36 = AXIS2_PLACEMENT_3D ( 'NONE', #130, #183, #376 ) ;
#37 = ORIENTED_EDGE ( 'NONE', *, *, #185, .T. ) ;
#38 = DIRECTION ( 'NONE',  ( 0.000000000000000000, 0.000000000000000000, 1.000000000000000000 ) ) ;
#39 = CYLINDRICAL_SURFACE ( 'NONE', #366, 5.000000000000000000 ) ;
#40 = CARTESIAN_POINT ( 'NONE',  ( 0.000000000000000000, 0.000000000000000000, 5.000000000000000000 ) ) ;
#41 = DIRECTION ( 'NONE',  ( 0.000000000000000000, 0.000000000000000000, 1.000000000000000000 ) ) ;
#42 = PERSON ( 'NEURÈENÝ', 'NEURÈENÝ', 'NEURÈENÝ', ('NEURÈENÝ'), ('NEURÈENÝ'), ('NEURÈENÝ') ) ;
#43 =( GEOMETRIC_REPRESENTATION_CONTEXT ( 3 ) GLOBAL_UNCERTAINTY_ASSIGNED_CONTEXT ( ( #284 ) ) GLOBAL_UNIT_ASSIGNED_CONTEXT ( ( #271, #151, #341 ) ) REPRESENTATION_CONTEXT ( 'NONE', 'WORKASPACE' ) );
#44 = PRODUCT ( 'a8d2', 'a8d2', '', ( #129 ) ) ;
#45 = APPROVAL_ROLE ( '' ) ;
#46 = DIRECTION ( 'NONE',  ( 0.000000000000000000, 0.000000000000000000, -1.000000000000000000 ) ) ;
#47 = ADVANCED_FACE ( 'NONE', ( #223 ), #326, .F. ) ;
#48 = DIRECTION ( 'NONE',  ( 0.000000000000000000, 0.000000000000000000, 1.000000000000000000 ) ) ;
#49 = CARTESIAN_POINT ( 'NONE',  ( 0.000000000000000000, 0.000000000000000000, 0.000000000000000000 ) ) ;
#50 = AXIS2_PLACEMENT_3D ( 'NONE', #321, #356, #110 ) ;
#51 = LINE ( 'NONE', #76, #172 ) ;
#52 = VERTEX_POINT ( 'NONE', #324 ) ;
#53 = PERSON_AND_ORGANIZATION ( #42, #8 ) ;
#54 = DATE_TIME_ROLE ( 'classification_date' ) ;
#55 = AXIS2_PLACEMENT_3D ( 'NONE', #294, #7, #253 ) ;
#56 = CARTESIAN_POINT ( 'NONE',  ( 0.000000000000000000, 0.000000000000000000, 180.0000000000000000 ) ) ;
#57 = CARTESIAN_POINT ( 'NONE',  ( -5.000000000000000000, 0.000000000000000000, 180.0000000000000000 ) ) ;
#58 = VECTOR ( 'NONE', #275, 1000.000000000000000 ) ;
#59 = ADVANCED_FACE ( 'NONE', ( #291 ), #26, .F. ) ;
#60 = DIRECTION ( 'NONE',  ( 1.000000000000000000, 0.000000000000000000, 0.000000000000000000 ) ) ;
#61 = ORIENTED_EDGE ( 'NONE', *, *, #337, .F. ) ;
#62 = DIRECTION ( 'NONE',  ( 0.000000000000000000, 0.000000000000000000, -1.000000000000000000 ) ) ;
#63 = CARTESIAN_POINT ( 'NONE',  ( 0.000000000000000000, 0.000000000000000000, 180.0000000000000000 ) ) ;
#64 = EDGE_CURVE ( 'NONE', #355, #369, #277, .T. ) ;
#65 = CYLINDRICAL_SURFACE ( 'NONE', #87, 8.000000000000000000 ) ;
#66 = DIRECTION ( 'NONE',  ( 1.000000000000000000, 0.000000000000000000, 0.000000000000000000 ) ) ;
#67 = FACE_OUTER_BOUND ( 'NONE', #217, .T. ) ;
#68 = PERSON_AND_ORGANIZATION ( #42, #8 ) ;
#69 = CC_DESIGN_PERSON_AND_ORGANIZATION_ASSIGNMENT ( #153, #375, ( #243 ) ) ;
#70 = AXIS2_PLACEMENT_3D ( 'NONE', #63, #298, #365 ) ;
#71 = CALENDAR_DATE ( 2022, 8, 7 ) ;
#72 = PERSON_AND_ORGANIZATION_ROLE ( 'creator' ) ;
#73 = PLANE ( 'NONE',  #36 ) ;
#74 = ORIENTED_EDGE ( 'NONE', *, *, #349, .F. ) ;
#75 = EDGE_CURVE ( 'NONE', #244, #364, #289, .T. ) ;
#76 = CARTESIAN_POINT ( 'NONE',  ( -5.000000000000000000, 0.000000000000000000, 180.0000000000000000 ) ) ;
#77 = ORIENTED_EDGE ( 'NONE', *, *, #267, .T. ) ;
#78 = ORIENTED_EDGE ( 'NONE', *, *, #310, .T. ) ;
#79 = CARTESIAN_POINT ( 'NONE',  ( 0.000000000000000000, 0.000000000000000000, 0.000000000000000000 ) ) ;
#80 = APPROVAL_ROLE ( '' ) ;
#81 = DIRECTION ( 'NONE',  ( -1.000000000000000000, 0.000000000000000000, 0.000000000000000000 ) ) ;
#82 = AXIS2_PLACEMENT_3D ( 'NONE', #196, #164, #27 ) ;
#83 = CALENDAR_DATE ( 2022, 8, 7 ) ;
#84 = CARTESIAN_POINT ( 'NONE',  ( -8.000000000000000000, 0.000000000000000000, 5.000000000000000000 ) ) ;
#85 = ADVANCED_FACE ( 'NONE', ( #306 ), #39, .T. ) ;
#86 = LINE ( 'NONE', #332, #168 ) ;
#87 = AXIS2_PLACEMENT_3D ( 'NONE', #263, #12, #141 ) ;
#88 = AXIS2_PLACEMENT_3D ( 'NONE', #218, #127, #103 ) ;
#89 = FACE_OUTER_BOUND ( 'NONE', #249, .T. ) ;
#90 = CARTESIAN_POINT ( 'NONE',  ( 0.000000000000000000, 0.000000000000000000, 180.0000000000000000 ) ) ;
#91 = ORIENTED_EDGE ( 'NONE', *, *, #337, .T. ) ;
#92 = DIRECTION ( 'NONE',  ( -1.000000000000000000, 0.000000000000000000, 0.000000000000000000 ) ) ;
#93 = AXIS2_PLACEMENT_3D ( 'NONE', #229, #165, #288 ) ;
#94 = DIRECTION ( 'NONE',  ( 1.224646799147353207E-16, 1.000000000000000000, -0.000000000000000000 ) ) ;
#95 = PERSON_AND_ORGANIZATION_ROLE ( 'design_owner' ) ;
#96 = DIRECTION ( 'NONE',  ( -1.000000000000000000, 0.000000000000000000, 0.000000000000000000 ) ) ;
#97 = AXIS2_PLACEMENT_3D ( 'NONE', #282, #48, #187 ) ;
#98 = ORIENTED_EDGE ( 'NONE', *, *, #202, .T. ) ;
#99 = PERSON_AND_ORGANIZATION ( #42, #8 ) ;
#100 = ADVANCED_FACE ( 'NONE', ( #114, #241 ), #73, .F. ) ;
#101 = ORIENTED_EDGE ( 'NONE', *, *, #107, .F. ) ;
#102 = ORIENTED_EDGE ( 'NONE', *, *, #310, .F. ) ;
#103 = DIRECTION ( 'NONE',  ( 1.000000000000000000, 0.000000000000000000, 0.000000000000000000 ) ) ;
#104 = CIRCLE ( 'NONE', #182, 5.000000000000000000 ) ;
#105 = DIRECTION ( 'NONE',  ( 1.000000000000000000, 0.000000000000000000, 0.000000000000000000 ) ) ;
#106 = DATE_AND_TIME ( #166, #367 ) ;
#107 = EDGE_CURVE ( 'NONE', #244, #361, #212, .T. ) ;
#108 = APPROVAL_DATE_TIME ( #106, #323 ) ;
#109 = AXIS2_PLACEMENT_3D ( 'NONE', #56, #161, #81 ) ;
#110 = DIRECTION ( 'NONE',  ( 1.000000000000000000, 0.000000000000000000, 0.000000000000000000 ) ) ;
#111 = EDGE_CURVE ( 'NONE', #118, #167, #245, .T. ) ;
#112 = AXIS2_PLACEMENT_3D ( 'NONE', #49, #247, #122 ) ;
#113 = CARTESIAN_POINT ( 'NONE',  ( -3.000000000000000444, 0.000000000000000000, 0.000000000000000000 ) ) ;
#114 = FACE_BOUND ( 'NONE', #338, .T. ) ;
#115 = EDGE_CURVE ( 'NONE', #265, #361, #51, .T. ) ;
#116 = ORIENTED_EDGE ( 'NONE', *, *, #170, .F. ) ;
#117 = CYLINDRICAL_SURFACE ( 'NONE', #295, 8.000000000000000000 ) ;
#118 = VERTEX_POINT ( 'NONE', #190 ) ;
#119 = APPROVAL_DATE_TIME ( #318, #292 ) ;
#120 = CALENDAR_DATE ( 2022, 8, 7 ) ;
#121 = ORIENTED_EDGE ( 'NONE', *, *, #273, .F. ) ;
#122 = DIRECTION ( 'NONE',  ( 1.000000000000000000, 0.000000000000000000, 0.000000000000000000 ) ) ;
#123 = APPROVAL ( #312, 'NEURÈENÝ' ) ;
#124 = AXIS2_PLACEMENT_3D ( 'NONE', #262, #204, #169 ) ;
#125 = CIRCLE ( 'NONE', #374, 5.000000000000000000 ) ;
#126 = APPROVAL_PERSON_ORGANIZATION ( #68, #123, #45 ) ;
#127 = DIRECTION ( 'NONE',  ( 0.000000000000000000, 0.000000000000000000, 1.000000000000000000 ) ) ;
#128 = ORIENTED_EDGE ( 'NONE', *, *, #107, .T. ) ;
#129 = MECHANICAL_CONTEXT ( 'NONE', #251, 'mechanical' ) ;
#130 = CARTESIAN_POINT ( 'NONE',  ( 0.000000000000000000, 0.000000000000000000, 0.000000000000000000 ) ) ;
#131 = ORIENTED_EDGE ( 'NONE', *, *, #202, .F. ) ;
#132 = CARTESIAN_POINT ( 'NONE',  ( 0.000000000000000000, 0.000000000000000000, 5.500000000000005329 ) ) ;
#133 = ORIENTED_EDGE ( 'NONE', *, *, #256, .T. ) ;
#134 = VECTOR ( 'NONE', #46, 1000.000000000000000 ) ;
#135 = CC_DESIGN_PERSON_AND_ORGANIZATION_ASSIGNMENT ( #239, #72, ( #232 ) ) ;
#136 = CARTESIAN_POINT ( 'NONE',  ( 5.000000000000000000, 6.123233995736766282E-16, 5.500000000000005329 ) ) ;
#137 = ORIENTED_EDGE ( 'NONE', *, *, #360, .F. ) ;
#138 = ADVANCED_FACE ( 'NONE', ( #21, #157 ), #317, .T. ) ;
#139 = AXIS2_PLACEMENT_3D ( 'NONE', #381, #219, #96 ) ;
#140 = FACE_OUTER_BOUND ( 'NONE', #302, .T. ) ;
#141 = DIRECTION ( 'NONE',  ( -1.000000000000000000, 0.000000000000000000, 0.000000000000000000 ) ) ;
#142 = DIRECTION ( 'NONE',  ( 0.000000000000000000, 0.000000000000000000, -1.000000000000000000 ) ) ;
#143 = DIRECTION ( 'NONE',  ( 0.000000000000000000, 0.000000000000000000, 1.000000000000000000 ) ) ;
#144 = PRODUCT_RELATED_PRODUCT_CATEGORY ( 'detail', '', ( #44 ) ) ;
#145 = AXIS2_PLACEMENT_3D ( 'NONE', #362, #94, #336 ) ;
#146 = DIRECTION ( 'NONE',  ( -1.000000000000000000, 0.000000000000000000, 0.000000000000000000 ) ) ;
#147 = CC_DESIGN_SECURITY_CLASSIFICATION ( #17, ( #243 ) ) ;
#148 = EDGE_LOOP ( 'NONE', ( #379, #209, #259, #268 ) ) ;
#149 = CARTESIAN_POINT ( 'NONE',  ( -5.000000000000000000, 0.000000000000000000, 5.500000000000005329 ) ) ;
#150 = ORIENTED_EDGE ( 'NONE', *, *, #1, .F. ) ;
#151 =( NAMED_UNIT ( * ) PLANE_ANGLE_UNIT ( ) SI_UNIT ( $, .RADIAN. ) );
#152 = CIRCLE ( 'NONE', #82, 5.000000000000000000 ) ;
#153 = PERSON_AND_ORGANIZATION ( #42, #8 ) ;
#154 = EDGE_LOOP ( 'NONE', ( #131, #222, #203, #236 ) ) ;
#155 = DIRECTION ( 'NONE',  ( -0.000000000000000000, -0.000000000000000000, -1.000000000000000000 ) ) ;
#156 = ORIENTED_EDGE ( 'NONE', *, *, #235, .T. ) ;
#157 = FACE_OUTER_BOUND ( 'NONE', #296, .T. ) ;
#158 = COORDINATED_UNIVERSAL_TIME_OFFSET ( 1, 0, .AHEAD. ) ;
#159 = CC_DESIGN_DATE_AND_TIME_ASSIGNMENT ( #370, #210, ( #232 ) ) ;
#160 = VERTEX_POINT ( 'NONE', #181 ) ;
#161 = DIRECTION ( 'NONE',  ( 0.000000000000000000, 0.000000000000000000, -1.000000000000000000 ) ) ;
#162 = AXIS2_PLACEMENT_3D ( 'NONE', #194, #224, #6 ) ;
#163 = CC_DESIGN_APPROVAL ( #292, ( #232 ) ) ;
#164 = DIRECTION ( 'NONE',  ( 0.000000000000000000, 0.000000000000000000, 1.000000000000000000 ) ) ;
#165 = DIRECTION ( 'NONE',  ( -0.000000000000000000, -0.000000000000000000, -1.000000000000000000 ) ) ;
#166 = CALENDAR_DATE ( 2022, 8, 7 ) ;
#167 = VERTEX_POINT ( 'NONE', #25 ) ;
#168 = VECTOR ( 'NONE', #62, 1000.000000000000000 ) ;
#169 = DIRECTION ( 'NONE',  ( 1.000000000000000000, 0.000000000000000000, 0.000000000000000000 ) ) ;
#170 = EDGE_CURVE ( 'NONE', #369, #355, #335, .T. ) ;
#171 = ORIENTED_EDGE ( 'NONE', *, *, #115, .T. ) ;
#172 = VECTOR ( 'NONE', #155, 1000.000000000000000 ) ;
#173 = CARTESIAN_POINT ( 'NONE',  ( 3.000000000000000444, 3.673940397442059868E-16, 0.000000000000000000 ) ) ;
#174 = LOCAL_TIME ( 16, 58, 11.00000000000000000, #18 ) ;
#175 = DIRECTION ( 'NONE',  ( 1.000000000000000000, 0.000000000000000000, 0.000000000000000000 ) ) ;
#176 = ADVANCED_FACE ( 'NONE', ( #287 ), #278, .T. ) ;
#177 = VERTEX_POINT ( 'NONE', #346 ) ;
#178 = DIRECTION ( 'NONE',  ( -0.000000000000000000, -0.000000000000000000, -1.000000000000000000 ) ) ;
#179 = EDGE_LOOP ( 'NONE', ( #195, #22 ) ) ;
#180 = APPROVAL_ROLE ( '' ) ;
#181 = CARTESIAN_POINT ( 'NONE',  ( -8.000000000000000000, 0.000000000000000000, 0.000000000000000000 ) ) ;
#182 = AXIS2_PLACEMENT_3D ( 'NONE', #206, #331, #60 ) ;
#183 = DIRECTION ( 'NONE',  ( 0.000000000000000000, 0.000000000000000000, 1.000000000000000000 ) ) ;
#184 = EDGE_LOOP ( 'NONE', ( #137, #311, #128, #230 ) ) ;
#185 = EDGE_CURVE ( 'NONE', #160, #167, #242, .T. ) ;
#186 = PERSON_AND_ORGANIZATION_ROLE ( 'design_supplier' ) ;
#187 = DIRECTION ( 'NONE',  ( 1.000000000000000000, 0.000000000000000000, -0.000000000000000000 ) ) ;
#188 = ORIENTED_EDGE ( 'NONE', *, *, #14, .T. ) ;
#189 = APPROVAL_STATUS ( 'not_yet_approved' ) ;
#190 = CARTESIAN_POINT ( 'NONE',  ( 8.000000000000000000, 9.797174393178825657E-16, 5.000000000000000000 ) ) ;
#191 = CIRCLE ( 'NONE', #237, 3.000000000000000444 ) ;
#192 = ORIENTED_EDGE ( 'NONE', *, *, #1, .T. ) ;
#193 = DIRECTION ( 'NONE',  ( 0.000000000000000000, 0.000000000000000000, 1.000000000000000000 ) ) ;
#194 = CARTESIAN_POINT ( 'NONE',  ( 0.000000000000000000, 0.000000000000000000, 0.000000000000000000 ) ) ;
#195 = ORIENTED_EDGE ( 'NONE', *, *, #14, .F. ) ;
#196 = CARTESIAN_POINT ( 'NONE',  ( 0.000000000000000000, 0.000000000000000000, 5.500000000000005329 ) ) ;
#197 = CIRCLE ( 'NONE', #225, 3.000000000000000444 ) ;
#198 = CC_DESIGN_PERSON_AND_ORGANIZATION_ASSIGNMENT ( #216, #95, ( #44 ) ) ;
#199 = DATE_AND_TIME ( #83, #24 ) ;
#200 = VECTOR ( 'NONE', #238, 1000.000000000000000 ) ;
#201 = FACE_OUTER_BOUND ( 'NONE', #148, .T. ) ;
#202 = EDGE_CURVE ( 'NONE', #348, #369, #211, .T. ) ;
#203 = ORIENTED_EDGE ( 'NONE', *, *, #333, .T. ) ;
#204 = DIRECTION ( 'NONE',  ( 0.000000000000000000, 0.000000000000000000, 1.000000000000000000 ) ) ;
#205 = DIRECTION ( 'NONE',  ( 0.000000000000000000, -1.000000000000000000, 0.000000000000000000 ) ) ;
#206 = CARTESIAN_POINT ( 'NONE',  ( 0.000000000000000000, 0.000000000000000000, 180.0000000000000000 ) ) ;
#207 = APPROVAL_PERSON_ORGANIZATION ( #53, #323, #80 ) ;
#208 = CARTESIAN_POINT ( 'NONE',  ( 0.000000000000000000, 0.000000000000000000, 180.0000000000000000 ) ) ;
#209 = ORIENTED_EDGE ( 'NONE', *, *, #273, .T. ) ;
#210 = DATE_TIME_ROLE ( 'creation_date' ) ;
#211 = LINE ( 'NONE', #314, #134 ) ;
#212 = CIRCLE ( 'NONE', #301, 5.000000000000000000 ) ;
#213 = CC_DESIGN_PERSON_AND_ORGANIZATION_ASSIGNMENT ( #257, #354, ( #17 ) ) ;
#214 = DIRECTION ( 'NONE',  ( 1.000000000000000000, 0.000000000000000000, 0.000000000000000000 ) ) ;
#215 = ORIENTED_EDGE ( 'NONE', *, *, #280, .F. ) ;
#216 = PERSON_AND_ORGANIZATION ( #42, #8 ) ;
#217 = EDGE_LOOP ( 'NONE', ( #4, #102, #28, #37 ) ) ;
#218 = CARTESIAN_POINT ( 'NONE',  ( 0.000000000000000000, 0.000000000000000000, 0.000000000000000000 ) ) ;
#219 = DIRECTION ( 'NONE',  ( -0.000000000000000000, -0.000000000000000000, -1.000000000000000000 ) ) ;
#220 = CLOSED_SHELL ( 'NONE', ( #59, #340, #85, #328, #378, #246, #100, #176, #138, #226, #47 ) ) ;
#221 = COORDINATED_UNIVERSAL_TIME_OFFSET ( 1, 0, .AHEAD. ) ;
#222 = ORIENTED_EDGE ( 'NONE', *, *, #303, .T. ) ;
#223 = FACE_OUTER_BOUND ( 'NONE', #154, .T. ) ;
#224 = DIRECTION ( 'NONE',  ( 0.000000000000000000, 0.000000000000000000, 1.000000000000000000 ) ) ;
#225 = AXIS2_PLACEMENT_3D ( 'NONE', #250, #227, #105 ) ;
#226 = ADVANCED_FACE ( 'NONE', ( #140 ), #329, .F. ) ;
#227 = DIRECTION ( 'NONE',  ( 0.000000000000000000, 0.000000000000000000, 1.000000000000000000 ) ) ;
#228 = ORIENTED_EDGE ( 'NONE', *, *, #333, .F. ) ;
#229 = CARTESIAN_POINT ( 'NONE',  ( 0.000000000000000000, 0.000000000000000000, 5.000000000000000000 ) ) ;
#230 = ORIENTED_EDGE ( 'NONE', *, *, #115, .F. ) ;
#231 = DIRECTION ( 'NONE',  ( 0.000000000000000000, 0.000000000000000000, 1.000000000000000000 ) ) ;
#232 = PRODUCT_DEFINITION ( 'NEZNÁMÝ', '', #243, #293 ) ;
#233 = ORIENTED_EDGE ( 'NONE', *, *, #360, .T. ) ;
#234 = CARTESIAN_POINT ( 'NONE',  ( 5.500000000000000000, 0.000000000000000000, 5.000000000000002665 ) ) ;
#235 = EDGE_CURVE ( 'NONE', #364, #52, #16, .T. ) ;
#236 = ORIENTED_EDGE ( 'NONE', *, *, #64, .T. ) ;
#237 = AXIS2_PLACEMENT_3D ( 'NONE', #208, #231, #309 ) ;
#238 = DIRECTION ( 'NONE',  ( -0.000000000000000000, -0.000000000000000000, -1.000000000000000000 ) ) ;
#239 = PERSON_AND_ORGANIZATION ( #42, #8 ) ;
#240 = CALENDAR_DATE ( 2022, 8, 7 ) ;
#241 = FACE_OUTER_BOUND ( 'NONE', #322, .T. ) ;
#242 = CIRCLE ( 'NONE', #339, 8.000000000000000000 ) ;
#243 = PRODUCT_DEFINITION_FORMATION_WITH_SPECIFIED_SOURCE ( 'LIBOVOLNÝ', '', #44, .NOT_KNOWN. ) ;
#244 = VERTEX_POINT ( 'NONE', #136 ) ;
#245 = LINE ( 'NONE', #248, #58 ) ;
#246 = ADVANCED_FACE ( 'NONE', ( #31, #260 ), #3, .T. ) ;
#247 = DIRECTION ( 'NONE',  ( -0.000000000000000000, -0.000000000000000000, -1.000000000000000000 ) ) ;
#248 = CARTESIAN_POINT ( 'NONE',  ( 8.000000000000000000, 9.797174393178825657E-16, 5.000000000000000000 ) ) ;
#249 = EDGE_LOOP ( 'NONE', ( #61, #283, #192, #15 ) ) ;
#250 = CARTESIAN_POINT ( 'NONE',  ( 0.000000000000000000, 0.000000000000000000, 180.0000000000000000 ) ) ;
#251 = APPLICATION_CONTEXT ( 'configuration controlled 3d designs of mechanical parts and assemblies' ) ;
#252 = SHAPE_DEFINITION_REPRESENTATION ( #13, #307 ) ;
#253 = DIRECTION ( 'NONE',  ( 1.000000000000000000, 0.000000000000000000, -0.000000000000000000 ) ) ;
#254 = SECURITY_CLASSIFICATION_LEVEL ( 'unclassified' ) ;
#255 = LINE ( 'NONE', #84, #319 ) ;
#256 = EDGE_CURVE ( 'NONE', #361, #244, #152, .T. ) ;
#257 = PERSON_AND_ORGANIZATION ( #42, #8 ) ;
#258 = AXIS2_PLACEMENT_3D ( 'NONE', #19, #205, #142 ) ;
#259 = ORIENTED_EDGE ( 'NONE', *, *, #235, .F. ) ;
#260 = FACE_OUTER_BOUND ( 'NONE', #343, .T. ) ;
#261 = EDGE_CURVE ( 'NONE', #315, #160, #255, .T. ) ;
#262 = CARTESIAN_POINT ( 'NONE',  ( 0.000000000000000000, 0.000000000000000000, 5.000000000000000000 ) ) ;
#263 = CARTESIAN_POINT ( 'NONE',  ( 0.000000000000000000, 0.000000000000000000, 5.000000000000000000 ) ) ;
#264 = AXIS2_PLACEMENT_3D ( 'NONE', #305, #178, #66 ) ;
#265 = VERTEX_POINT ( 'NONE', #57 ) ;
#266 = CARTESIAN_POINT ( 'NONE',  ( 0.000000000000000000, 0.000000000000000000, 5.000000000000000000 ) ) ;
#267 = EDGE_CURVE ( 'NONE', #52, #364, #29, .T. ) ;
#268 = ORIENTED_EDGE ( 'NONE', *, *, #75, .F. ) ;
#269 = DIRECTION ( 'NONE',  ( 1.000000000000000000, 0.000000000000000000, 0.000000000000000000 ) ) ;
#270 = ORIENTED_EDGE ( 'NONE', *, *, #64, .F. ) ;
#271 =( LENGTH_UNIT ( ) NAMED_UNIT ( * ) SI_UNIT ( .MILLI., .METRE. ) );
#272 = CIRCLE ( 'NONE', #124, 8.000000000000000000 ) ;
#273 = EDGE_CURVE ( 'NONE', #361, #52, #325, .T. ) ;
#274 = COORDINATED_UNIVERSAL_TIME_OFFSET ( 1, 0, .AHEAD. ) ;
#275 = DIRECTION ( 'NONE',  ( -0.000000000000000000, -0.000000000000000000, -1.000000000000000000 ) ) ;
#276 = PERSON_AND_ORGANIZATION ( #42, #8 ) ;
#277 = CIRCLE ( 'NONE', #351, 3.000000000000000444 ) ;
#278 = CYLINDRICAL_SURFACE ( 'NONE', #139, 5.000000000000000000 ) ;
#279 = APPROVAL_PERSON_ORGANIZATION ( #276, #292, #180 ) ;
#280 = EDGE_CURVE ( 'NONE', #265, #34, #125, .T. ) ;
#281 = EDGE_LOOP ( 'NONE', ( #188, #98, #308, #228 ) ) ;
#282 = CARTESIAN_POINT ( 'NONE',  ( 0.000000000000000000, 0.000000000000000000, 180.0000000000000000 ) ) ;
#283 = ORIENTED_EDGE ( 'NONE', *, *, #111, .T. ) ;
#284 = UNCERTAINTY_MEASURE_WITH_UNIT (LENGTH_MEASURE( 1.000000000000000082E-05 ), #271, 'distance_accuracy_value', 'NONE');
#285 = ORIENTED_EDGE ( 'NONE', *, *, #280, .T. ) ;
#286 = APPROVAL_STATUS ( 'not_yet_approved' ) ;
#287 = FACE_OUTER_BOUND ( 'NONE', #11, .T. ) ;
#288 = DIRECTION ( 'NONE',  ( 1.000000000000000000, 0.000000000000000000, 0.000000000000000000 ) ) ;
#289 = CIRCLE ( 'NONE', #258, 0.5000000000000004441 ) ;
#290 = LOCAL_TIME ( 16, 58, 11.00000000000000000, #20 ) ;
#291 = FACE_OUTER_BOUND ( 'NONE', #281, .T. ) ;
#292 = APPROVAL ( #189, 'NEURÈENÝ' ) ;
#293 = DESIGN_CONTEXT ( 'detailed design', #350, 'design' ) ;
#294 = CARTESIAN_POINT ( 'NONE',  ( 0.000000000000000000, 0.000000000000000000, 5.000000000000000000 ) ) ;
#295 = AXIS2_PLACEMENT_3D ( 'NONE', #40, #35, #92 ) ;
#296 = EDGE_LOOP ( 'NONE', ( #285, #233 ) ) ;
#297 = CARTESIAN_POINT ( 'NONE',  ( 3.000000000000000444, 3.673940397442059868E-16, 180.0000000000000000 ) ) ;
#298 = DIRECTION ( 'NONE',  ( 0.000000000000000000, 0.000000000000000000, -1.000000000000000000 ) ) ;
#299 = CARTESIAN_POINT ( 'NONE',  ( 0.000000000000000000, 0.000000000000000000, 5.500000000000005329 ) ) ;
#300 = DIRECTION ( 'NONE',  ( -0.000000000000000000, -0.000000000000000000, -1.000000000000000000 ) ) ;
#301 = AXIS2_PLACEMENT_3D ( 'NONE', #132, #342, #214 ) ;
#302 = EDGE_LOOP ( 'NONE', ( #121, #101, #347, #371 ) ) ;
#303 = EDGE_CURVE ( 'NONE', #348, #177, #191, .T. ) ;
#304 = ORIENTED_EDGE ( 'NONE', *, *, #185, .F. ) ;
#305 = CARTESIAN_POINT ( 'NONE',  ( 0.000000000000000000, 0.000000000000000000, 5.000000000000000000 ) ) ;
#306 = FACE_OUTER_BOUND ( 'NONE', #184, .T. ) ;
#307 = ADVANCED_BREP_SHAPE_REPRESENTATION ( 'a8d2', ( #377, #88 ), #43 ) ;
#308 = ORIENTED_EDGE ( 'NONE', *, *, #170, .T. ) ;
#309 = DIRECTION ( 'NONE',  ( 1.000000000000000000, 0.000000000000000000, 0.000000000000000000 ) ) ;
#310 = EDGE_CURVE ( 'NONE', #315, #118, #272, .T. ) ;
#311 = ORIENTED_EDGE ( 'NONE', *, *, #349, .T. ) ;
#312 = APPROVAL_STATUS ( 'not_yet_approved' ) ;
#313 = CC_DESIGN_APPROVAL ( #323, ( #17 ) ) ;
#314 = CARTESIAN_POINT ( 'NONE',  ( 3.000000000000000444, 3.673940397442059868E-16, 180.0000000000000000 ) ) ;
#315 = VERTEX_POINT ( 'NONE', #357 ) ;
#316 = APPROVAL_DATE_TIME ( #372, #123 ) ;
#317 = PLANE ( 'NONE',  #97 ) ;
#318 = DATE_AND_TIME ( #71, #174 ) ;
#319 = VECTOR ( 'NONE', #327, 1000.000000000000000 ) ;
#320 = DIRECTION ( 'NONE',  ( 1.000000000000000000, 0.000000000000000000, 0.000000000000000000 ) ) ;
#321 = CARTESIAN_POINT ( 'NONE',  ( 0.000000000000000000, 0.000000000000000000, 5.500000000000005329 ) ) ;
#322 = EDGE_LOOP ( 'NONE', ( #304, #150 ) ) ;
#323 = APPROVAL ( #286, 'NEURÈENÝ' ) ;
#324 = CARTESIAN_POINT ( 'NONE',  ( -5.500000000000000000, 6.735557395310442023E-16, 5.000000000000002665 ) ) ;
#325 = CIRCLE ( 'NONE', #145, 0.5000000000000004441 ) ;
#326 = CYLINDRICAL_SURFACE ( 'NONE', #109, 3.000000000000000444 ) ;
#327 = DIRECTION ( 'NONE',  ( -0.000000000000000000, -0.000000000000000000, -1.000000000000000000 ) ) ;
#328 = ADVANCED_FACE ( 'NONE', ( #89 ), #117, .T. ) ;
#329 = TOROIDAL_SURFACE ( 'NONE', #50, 5.500000000000000000, 0.5000000000000000000 ) ;
#330 = LOCAL_TIME ( 16, 58, 11.00000000000000000, #274 ) ;
#331 = DIRECTION ( 'NONE',  ( 0.000000000000000000, 0.000000000000000000, 1.000000000000000000 ) ) ;
#332 = CARTESIAN_POINT ( 'NONE',  ( -3.000000000000000444, 0.000000000000000000, 180.0000000000000000 ) ) ;
#333 = EDGE_CURVE ( 'NONE', #177, #355, #86, .T. ) ;
#334 = LINE ( 'NONE', #32, #200 ) ;
#335 = CIRCLE ( 'NONE', #112, 3.000000000000000444 ) ;
#336 = DIRECTION ( 'NONE',  ( -1.000000000000000000, 1.224646799147351482E-16, 0.000000000000000000 ) ) ;
#337 = EDGE_CURVE ( 'NONE', #118, #315, #358, .T. ) ;
#338 = EDGE_LOOP ( 'NONE', ( #270, #116 ) ) ;
#339 = AXIS2_PLACEMENT_3D ( 'NONE', #79, #193, #320 ) ;
#340 = ADVANCED_FACE ( 'NONE', ( #201 ), #345, .F. ) ;
#341 =( NAMED_UNIT ( * ) SI_UNIT ( $, .STERADIAN. ) SOLID_ANGLE_UNIT ( ) );
#342 = DIRECTION ( 'NONE',  ( 0.000000000000000000, 0.000000000000000000, 1.000000000000000000 ) ) ;
#343 = EDGE_LOOP ( 'NONE', ( #78, #91 ) ) ;
#344 = APPLICATION_PROTOCOL_DEFINITION ( 'international standard', 'config_control_design', 1994, #350 ) ;
#345 = TOROIDAL_SURFACE ( 'NONE', #23, 5.500000000000000000, 0.5000000000000000000 ) ;
#346 = CARTESIAN_POINT ( 'NONE',  ( -3.000000000000000444, 0.000000000000000000, 180.0000000000000000 ) ) ;
#347 = ORIENTED_EDGE ( 'NONE', *, *, #75, .T. ) ;
#348 = VERTEX_POINT ( 'NONE', #297 ) ;
#349 = EDGE_CURVE ( 'NONE', #34, #244, #334, .T. ) ;
#350 = APPLICATION_CONTEXT ( 'configuration controlled 3d designs of mechanical parts and assemblies' ) ;
#351 = AXIS2_PLACEMENT_3D ( 'NONE', #33, #300, #359 ) ;
#352 = CIRCLE ( 'NONE', #162, 8.000000000000000000 ) ;
#353 = CARTESIAN_POINT ( 'NONE',  ( 5.000000000000000000, 6.123233995736766282E-16, 180.0000000000000000 ) ) ;
#354 = PERSON_AND_ORGANIZATION_ROLE ( 'classification_officer' ) ;
#355 = VERTEX_POINT ( 'NONE', #113 ) ;
#356 = DIRECTION ( 'NONE',  ( 0.000000000000000000, 0.000000000000000000, 1.000000000000000000 ) ) ;
#357 = CARTESIAN_POINT ( 'NONE',  ( -8.000000000000000000, 0.000000000000000000, 5.000000000000000000 ) ) ;
#358 = CIRCLE ( 'NONE', #2, 8.000000000000000000 ) ;
#359 = DIRECTION ( 'NONE',  ( 1.000000000000000000, 0.000000000000000000, 0.000000000000000000 ) ) ;
#360 = EDGE_CURVE ( 'NONE', #34, #265, #104, .T. ) ;
#361 = VERTEX_POINT ( 'NONE', #149 ) ;
#362 = CARTESIAN_POINT ( 'NONE',  ( -5.500000000000000000, 6.735557395310442023E-16, 5.500000000000005329 ) ) ;
#363 = DIRECTION ( 'NONE',  ( -0.000000000000000000, -0.000000000000000000, -1.000000000000000000 ) ) ;
#364 = VERTEX_POINT ( 'NONE', #234 ) ;
#365 = DIRECTION ( 'NONE',  ( -1.000000000000000000, 0.000000000000000000, 0.000000000000000000 ) ) ;
#366 = AXIS2_PLACEMENT_3D ( 'NONE', #90, #363, #146 ) ;
#367 = LOCAL_TIME ( 16, 58, 11.00000000000000000, #158 ) ;
#368 = CC_DESIGN_DATE_AND_TIME_ASSIGNMENT ( #199, #54, ( #17 ) ) ;
#369 = VERTEX_POINT ( 'NONE', #173 ) ;
#370 = DATE_AND_TIME ( #120, #290 ) ;
#371 = ORIENTED_EDGE ( 'NONE', *, *, #267, .F. ) ;
#372 = DATE_AND_TIME ( #240, #330 ) ;
#373 = EDGE_LOOP ( 'NONE', ( #156, #77 ) ) ;
#374 = AXIS2_PLACEMENT_3D ( 'NONE', #10, #38, #269 ) ;
#375 = PERSON_AND_ORGANIZATION_ROLE ( 'creator' ) ;
#376 = DIRECTION ( 'NONE',  ( 1.000000000000000000, 0.000000000000000000, -0.000000000000000000 ) ) ;
#377 = MANIFOLD_SOLID_BREP ( 'Odebrat vysunutím3', #220 ) ;
#378 = ADVANCED_FACE ( 'NONE', ( #67 ), #65, .T. ) ;
#379 = ORIENTED_EDGE ( 'NONE', *, *, #256, .F. ) ;
#380 = APPLICATION_PROTOCOL_DEFINITION ( 'international standard', 'config_control_design', 1994, #251 ) ;
#381 = CARTESIAN_POINT ( 'NONE',  ( 0.000000000000000000, 0.000000000000000000, 180.0000000000000000 ) ) ;
ENDSEC;
END-ISO-10303-21;
