ISO-10303-21;
HEADER;
FILE_DESCRIPTION (( 'STEP AP203' ),
    '1' );
FILE_NAME ('4f5a.STEP',
    '2022-07-08T15:15:01',
    ( '' ),
    ( '' ),
    'SwSTEP 2.0',
    'SolidWorks 2019',
    '' );
FILE_SCHEMA (( 'CONFIG_CONTROL_DESIGN' ));
ENDSEC;

DATA;
#1 = AXIS2_PLACEMENT_3D ( 'NONE', #87, #260, #381 ) ;
#2 = CYLINDRICAL_SURFACE ( 'NONE', #131, 8.000000000000000000 ) ;
#3 = DIRECTION ( 'NONE',  ( 1.000000000000000000, 0.000000000000000000, 0.000000000000000000 ) ) ;
#4 = DIRECTION ( 'NONE',  ( 0.000000000000000000, 0.000000000000000000, -1.000000000000000000 ) ) ;
#5 = CARTESIAN_POINT ( 'NONE',  ( 0.000000000000000000, 0.000000000000000000, 605.0000000000000000 ) ) ;
#6 = DIRECTION ( 'NONE',  ( -0.000000000000000000, -0.000000000000000000, -1.000000000000000000 ) ) ;
#7 = AXIS2_PLACEMENT_3D ( 'NONE', #128, #158, #223 ) ;
#8 = FACE_OUTER_BOUND ( 'NONE', #353, .T. ) ;
#9 = DIRECTION ( 'NONE',  ( 0.000000000000000000, 0.000000000000000000, -1.000000000000000000 ) ) ;
#10 = APPROVAL ( #364, 'NEURÈENÝ' ) ;
#11 =( NAMED_UNIT ( * ) PLANE_ANGLE_UNIT ( ) SI_UNIT ( $, .RADIAN. ) );
#12 = ORIENTED_EDGE ( 'NONE', *, *, #145, .T. ) ;
#13 = CARTESIAN_POINT ( 'NONE',  ( 0.000000000000000000, 0.000000000000000000, 5.499999999999949374 ) ) ;
#14 = AXIS2_PLACEMENT_3D ( 'NONE', #13, #308, #39 ) ;
#15 = PERSON_AND_ORGANIZATION ( #85, #285 ) ;
#16 = EDGE_LOOP ( 'NONE', ( #307, #291 ) ) ;
#17 = UNCERTAINTY_MEASURE_WITH_UNIT (LENGTH_MEASURE( 1.000000000000000082E-05 ), #271, 'distance_accuracy_value', 'NONE');
#18 = ORIENTED_EDGE ( 'NONE', *, *, #196, .F. ) ;
#19 = AXIS2_PLACEMENT_3D ( 'NONE', #276, #359, #367 ) ;
#20 = CALENDAR_DATE ( 2022, 8, 7 ) ;
#21 = ORIENTED_EDGE ( 'NONE', *, *, #166, .F. ) ;
#22 = VERTEX_POINT ( 'NONE', #138 ) ;
#23 = FACE_OUTER_BOUND ( 'NONE', #67, .T. ) ;
#24 = ORIENTED_EDGE ( 'NONE', *, *, #81, .T. ) ;
#25 = AXIS2_PLACEMENT_3D ( 'NONE', #240, #179, #178 ) ;
#26 = EDGE_LOOP ( 'NONE', ( #317, #283 ) ) ;
#27 = PLANE ( 'NONE',  #326 ) ;
#28 = EDGE_CURVE ( 'NONE', #22, #171, #267, .T. ) ;
#29 = DIRECTION ( 'NONE',  ( 1.000000000000000000, 0.000000000000000000, 0.000000000000000000 ) ) ;
#30 = AXIS2_PLACEMENT_3D ( 'NONE', #348, #76, #231 ) ;
#31 = CARTESIAN_POINT ( 'NONE',  ( 0.000000000000000000, 0.000000000000000000, 605.0000000000000000 ) ) ;
#32 = CARTESIAN_POINT ( 'NONE',  ( 0.000000000000000000, 0.000000000000000000, 605.0000000000000000 ) ) ;
#33 = DIRECTION ( 'NONE',  ( 0.000000000000000000, 0.000000000000000000, -1.000000000000000000 ) ) ;
#34 = DIRECTION ( 'NONE',  ( 0.000000000000000000, 0.000000000000000000, 1.000000000000000000 ) ) ;
#35 = ADVANCED_FACE ( 'NONE', ( #23 ), #201, .T. ) ;
#36 = CARTESIAN_POINT ( 'NONE',  ( 0.000000000000000000, 0.000000000000000000, 5.000000000000000000 ) ) ;
#37 = CC_DESIGN_APPROVAL ( #10, ( #111 ) ) ;
#38 = ORIENTED_EDGE ( 'NONE', *, *, #132, .F. ) ;
#39 = DIRECTION ( 'NONE',  ( 1.000000000000000000, 0.000000000000000000, 0.000000000000000000 ) ) ;
#40 = PERSON_AND_ORGANIZATION ( #85, #285 ) ;
#41 = ORIENTED_EDGE ( 'NONE', *, *, #263, .T. ) ;
#42 = CYLINDRICAL_SURFACE ( 'NONE', #325, 2.500000000000000000 ) ;
#43 = CC_DESIGN_PERSON_AND_ORGANIZATION_ASSIGNMENT ( #369, #230, ( #261 ) ) ;
#44 = PERSON_AND_ORGANIZATION ( #85, #285 ) ;
#45 = ORIENTED_EDGE ( 'NONE', *, *, #247, .T. ) ;
#46 = ORIENTED_EDGE ( 'NONE', *, *, #319, .F. ) ;
#47 = EDGE_LOOP ( 'NONE', ( #352, #134, #169, #375 ) ) ;
#48 = AXIS2_PLACEMENT_3D ( 'NONE', #55, #147, #150 ) ;
#49 = APPROVAL_ROLE ( '' ) ;
#50 = DIRECTION ( 'NONE',  ( -0.000000000000000000, -0.000000000000000000, -1.000000000000000000 ) ) ;
#51 = ADVANCED_BREP_SHAPE_REPRESENTATION ( '4f5a', ( #148, #206 ), #372 ) ;
#52 = VERTEX_POINT ( 'NONE', #174 ) ;
#53 = EDGE_LOOP ( 'NONE', ( #253, #286 ) ) ;
#54 = AXIS2_PLACEMENT_3D ( 'NONE', #184, #60, #82 ) ;
#55 = CARTESIAN_POINT ( 'NONE',  ( 0.000000000000000000, 0.000000000000000000, 5.000000000000000000 ) ) ;
#56 = APPROVAL ( #246, 'NEURÈENÝ' ) ;
#57 = DIRECTION ( 'NONE',  ( -0.000000000000000000, -0.000000000000000000, -1.000000000000000000 ) ) ;
#58 = LINE ( 'NONE', #268, #83 ) ;
#59 = APPROVAL_PERSON_ORGANIZATION ( #40, #10, #280 ) ;
#60 = DIRECTION ( 'NONE',  ( 0.000000000000000000, 0.000000000000000000, 1.000000000000000000 ) ) ;
#61 = DIRECTION ( 'NONE',  ( 0.000000000000000000, 0.000000000000000000, 1.000000000000000000 ) ) ;
#62 = CC_DESIGN_PERSON_AND_ORGANIZATION_ASSIGNMENT ( #15, #186, ( #209 ) ) ;
#63 = FACE_OUTER_BOUND ( 'NONE', #47, .T. ) ;
#64 = FACE_OUTER_BOUND ( 'NONE', #112, .T. ) ;
#65 = DIRECTION ( 'NONE',  ( -0.000000000000000000, -0.000000000000000000, -1.000000000000000000 ) ) ;
#66 = AXIS2_PLACEMENT_3D ( 'NONE', #69, #127, #90 ) ;
#67 = EDGE_LOOP ( 'NONE', ( #172, #344, #287, #162 ) ) ;
#68 = CC_DESIGN_PERSON_AND_ORGANIZATION_ASSIGNMENT ( #281, #347, ( #111 ) ) ;
#69 = CARTESIAN_POINT ( 'NONE',  ( 0.000000000000000000, 0.000000000000000000, 5.499999999999949374 ) ) ;
#70 = CIRCLE ( 'NONE', #7, 5.000000000000000000 ) ;
#71 = VERTEX_POINT ( 'NONE', #322 ) ;
#72 = EDGE_CURVE ( 'NONE', #374, #258, #256, .T. ) ;
#73 = COORDINATED_UNIVERSAL_TIME_OFFSET ( 1, 0, .AHEAD. ) ;
#74 = ORIENTED_EDGE ( 'NONE', *, *, #166, .T. ) ;
#75 = PERSON_AND_ORGANIZATION ( #85, #285 ) ;
#76 = DIRECTION ( 'NONE',  ( 0.000000000000000000, 0.000000000000000000, 1.000000000000000000 ) ) ;
#77 = VECTOR ( 'NONE', #92, 1000.000000000000000 ) ;
#78 = PERSON_AND_ORGANIZATION ( #85, #285 ) ;
#79 = VERTEX_POINT ( 'NONE', #311 ) ;
#80 = ORIENTED_EDGE ( 'NONE', *, *, #145, .F. ) ;
#81 = EDGE_CURVE ( 'NONE', #373, #376, #349, .T. ) ;
#82 = DIRECTION ( 'NONE',  ( 1.000000000000000000, 0.000000000000000000, 0.000000000000000000 ) ) ;
#83 = VECTOR ( 'NONE', #330, 1000.000000000000000 ) ;
#84 = LOCAL_TIME ( 17, 15, 1.000000000000000000, #93 ) ;
#85 = PERSON ( 'NEURÈENÝ', 'NEURÈENÝ', 'NEURÈENÝ', ('NEURÈENÝ'), ('NEURÈENÝ'), ('NEURÈENÝ') ) ;
#86 = DIRECTION ( 'NONE',  ( 0.000000000000000000, 0.000000000000000000, 1.000000000000000000 ) ) ;
#87 = CARTESIAN_POINT ( 'NONE',  ( 5.500000000000000000, 0.000000000000000000, 5.499999999999949374 ) ) ;
#88 = DIRECTION ( 'NONE',  ( 1.000000000000000000, 0.000000000000000000, -0.000000000000000000 ) ) ;
#89 = CIRCLE ( 'NONE', #205, 5.500000000000000000 ) ;
#90 = DIRECTION ( 'NONE',  ( 1.000000000000000000, 0.000000000000000000, 0.000000000000000000 ) ) ;
#91 = CARTESIAN_POINT ( 'NONE',  ( 0.000000000000000000, 0.000000000000000000, 0.000000000000000000 ) ) ;
#92 = DIRECTION ( 'NONE',  ( -0.000000000000000000, -0.000000000000000000, -1.000000000000000000 ) ) ;
#93 = COORDINATED_UNIVERSAL_TIME_OFFSET ( 1, 0, .AHEAD. ) ;
#94 = CARTESIAN_POINT ( 'NONE',  ( 2.500000000000000000, 3.061616997868383141E-16, 605.0000000000000000 ) ) ;
#95 = MECHANICAL_CONTEXT ( 'NONE', #203, 'mechanical' ) ;
#96 = DIRECTION ( 'NONE',  ( -1.000000000000000000, 1.224646799147351482E-16, 0.000000000000000000 ) ) ;
#97 = LOCAL_TIME ( 17, 15, 1.000000000000000000, #73 ) ;
#98 = DIRECTION ( 'NONE',  ( 0.000000000000000000, 0.000000000000000000, 1.000000000000000000 ) ) ;
#99 = ADVANCED_FACE ( 'NONE', ( #216 ), #180, .F. ) ;
#100 = AXIS2_PLACEMENT_3D ( 'NONE', #321, #50, #173 ) ;
#101 = EDGE_CURVE ( 'NONE', #376, #373, #211, .T. ) ;
#102 = CIRCLE ( 'NONE', #122, 5.000000000000000000 ) ;
#103 = ORIENTED_EDGE ( 'NONE', *, *, #247, .F. ) ;
#104 = APPROVAL_DATE_TIME ( #316, #10 ) ;
#105 = ORIENTED_EDGE ( 'NONE', *, *, #299, .T. ) ;
#106 = SHAPE_DEFINITION_REPRESENTATION ( #323, #51 ) ;
#107 = ORIENTED_EDGE ( 'NONE', *, *, #332, .T. ) ;
#108 = EDGE_LOOP ( 'NONE', ( #275, #370, #228, #324 ) ) ;
#109 = ORIENTED_EDGE ( 'NONE', *, *, #346, .T. ) ;
#110 = AXIS2_PLACEMENT_3D ( 'NONE', #336, #368, #125 ) ;
#111 = PRODUCT_DEFINITION_FORMATION_WITH_SPECIFIED_SOURCE ( 'LIBOVOLNÝ', '', #292, .NOT_KNOWN. ) ;
#112 = EDGE_LOOP ( 'NONE', ( #46, #190, #137, #144 ) ) ;
#113 = ADVANCED_FACE ( 'NONE', ( #241, #339 ), #183, .T. ) ;
#114 = CIRCLE ( 'NONE', #1, 0.5000000000000004441 ) ;
#115 = DIRECTION ( 'NONE',  ( 0.000000000000000000, 0.000000000000000000, 1.000000000000000000 ) ) ;
#116 = LOCAL_TIME ( 17, 15, 1.000000000000000000, #343 ) ;
#117 = CARTESIAN_POINT ( 'NONE',  ( 0.000000000000000000, 0.000000000000000000, 0.000000000000000000 ) ) ;
#118 = CARTESIAN_POINT ( 'NONE',  ( 0.000000000000000000, 0.000000000000000000, 5.000000000000000000 ) ) ;
#119 = CARTESIAN_POINT ( 'NONE',  ( 5.500000000000000000, 0.000000000000000000, 4.999999999999975131 ) ) ;
#120 = DIRECTION ( 'NONE',  ( 0.000000000000000000, 0.000000000000000000, 1.000000000000000000 ) ) ;
#121 = CIRCLE ( 'NONE', #110, 8.000000000000000000 ) ;
#122 = AXIS2_PLACEMENT_3D ( 'NONE', #362, #86, #29 ) ;
#123 = DIRECTION ( 'NONE',  ( -1.000000000000000000, 0.000000000000000000, 0.000000000000000000 ) ) ;
#124 = CARTESIAN_POINT ( 'NONE',  ( -8.000000000000000000, 0.000000000000000000, 5.000000000000000000 ) ) ;
#125 = DIRECTION ( 'NONE',  ( 1.000000000000000000, 0.000000000000000000, 0.000000000000000000 ) ) ;
#126 = EDGE_LOOP ( 'NONE', ( #221, #249, #226, #168 ) ) ;
#127 = DIRECTION ( 'NONE',  ( 0.000000000000000000, 0.000000000000000000, 1.000000000000000000 ) ) ;
#128 = CARTESIAN_POINT ( 'NONE',  ( 0.000000000000000000, 0.000000000000000000, 5.499999999999949374 ) ) ;
#129 = CARTESIAN_POINT ( 'NONE',  ( 0.000000000000000000, 0.000000000000000000, 605.0000000000000000 ) ) ;
#130 = AXIS2_PLACEMENT_3D ( 'NONE', #243, #6, #156 ) ;
#131 = AXIS2_PLACEMENT_3D ( 'NONE', #358, #357, #152 ) ;
#132 = EDGE_CURVE ( 'NONE', #258, #338, #135, .T. ) ;
#133 = DATE_AND_TIME ( #20, #116 ) ;
#134 = ORIENTED_EDGE ( 'NONE', *, *, #294, .F. ) ;
#135 = CIRCLE ( 'NONE', #14, 5.000000000000000000 ) ;
#136 = CIRCLE ( 'NONE', #306, 5.000000000000000000 ) ;
#137 = ORIENTED_EDGE ( 'NONE', *, *, #72, .T. ) ;
#138 = CARTESIAN_POINT ( 'NONE',  ( 8.000000000000000000, 9.797174393178825657E-16, 5.000000000000000000 ) ) ;
#139 = ADVANCED_FACE ( 'NONE', ( #191 ), #42, .F. ) ;
#140 = CALENDAR_DATE ( 2022, 8, 7 ) ;
#141 = EDGE_LOOP ( 'NONE', ( #109, #105 ) ) ;
#142 = EDGE_LOOP ( 'NONE', ( #74, #41 ) ) ;
#143 = AXIS2_PLACEMENT_3D ( 'NONE', #91, #115, #331 ) ;
#144 = ORIENTED_EDGE ( 'NONE', *, *, #132, .T. ) ;
#145 = EDGE_CURVE ( 'NONE', #258, #79, #229, .T. ) ;
#146 = CARTESIAN_POINT ( 'NONE',  ( -5.000000000000000000, 0.000000000000000000, 5.499999999999949374 ) ) ;
#147 = DIRECTION ( 'NONE',  ( -0.000000000000000000, -0.000000000000000000, -1.000000000000000000 ) ) ;
#148 = MANIFOLD_SOLID_BREP ( 'Odebrat vysunutím3', #250 ) ;
#149 = DIRECTION ( 'NONE',  ( 1.000000000000000000, 0.000000000000000000, 0.000000000000000000 ) ) ;
#150 = DIRECTION ( 'NONE',  ( -1.000000000000000000, 0.000000000000000000, 0.000000000000000000 ) ) ;
#151 = CARTESIAN_POINT ( 'NONE',  ( 0.000000000000000000, 0.000000000000000000, 5.000000000000000000 ) ) ;
#152 = DIRECTION ( 'NONE',  ( -1.000000000000000000, 0.000000000000000000, 0.000000000000000000 ) ) ;
#153 = AXIS2_PLACEMENT_3D ( 'NONE', #151, #334, #266 ) ;
#154 = CIRCLE ( 'NONE', #195, 8.000000000000000000 ) ;
#155 = EDGE_CURVE ( 'NONE', #52, #373, #272, .T. ) ;
#156 = DIRECTION ( 'NONE',  ( 1.000000000000000000, 0.000000000000000000, 0.000000000000000000 ) ) ;
#157 = ADVANCED_FACE ( 'NONE', ( #303 ), #270, .F. ) ;
#158 = DIRECTION ( 'NONE',  ( 0.000000000000000000, 0.000000000000000000, 1.000000000000000000 ) ) ;
#159 = CARTESIAN_POINT ( 'NONE',  ( -8.000000000000000000, 0.000000000000000000, 5.000000000000000000 ) ) ;
#160 = PRODUCT_RELATED_PRODUCT_CATEGORY ( 'detail', '', ( #292 ) ) ;
#161 =( NAMED_UNIT ( * ) SI_UNIT ( $, .STERADIAN. ) SOLID_ANGLE_UNIT ( ) );
#162 = ORIENTED_EDGE ( 'NONE', *, *, #72, .F. ) ;
#163 = CARTESIAN_POINT ( 'NONE',  ( -5.500000000000000000, 6.735557395310442023E-16, 5.499999999999949374 ) ) ;
#164 = COORDINATED_UNIVERSAL_TIME_OFFSET ( 1, 0, .AHEAD. ) ;
#165 = DATE_AND_TIME ( #309, #170 ) ;
#166 = EDGE_CURVE ( 'NONE', #176, #79, #284, .T. ) ;
#167 = CALENDAR_DATE ( 2022, 8, 7 ) ;
#168 = ORIENTED_EDGE ( 'NONE', *, *, #155, .F. ) ;
#169 = ORIENTED_EDGE ( 'NONE', *, *, #329, .T. ) ;
#170 = LOCAL_TIME ( 17, 15, 1.000000000000000000, #242 ) ;
#171 = VERTEX_POINT ( 'NONE', #159 ) ;
#172 = ORIENTED_EDGE ( 'NONE', *, *, #299, .F. ) ;
#173 = DIRECTION ( 'NONE',  ( -1.000000000000000000, 0.000000000000000000, 0.000000000000000000 ) ) ;
#174 = CARTESIAN_POINT ( 'NONE',  ( -2.500000000000000000, 0.000000000000000000, 605.0000000000000000 ) ) ;
#175 = EDGE_CURVE ( 'NONE', #379, #71, #121, .T. ) ;
#176 = VERTEX_POINT ( 'NONE', #119 ) ;
#177 = AXIS2_PLACEMENT_3D ( 'NONE', #117, #34, #234 ) ;
#178 = DIRECTION ( 'NONE',  ( 1.000000000000000000, 0.000000000000000000, 0.000000000000000000 ) ) ;
#179 = DIRECTION ( 'NONE',  ( 0.000000000000000000, 0.000000000000000000, 1.000000000000000000 ) ) ;
#180 = TOROIDAL_SURFACE ( 'NONE', #66, 5.500000000000000000, 0.5000000000000000000 ) ;
#181 = CARTESIAN_POINT ( 'NONE',  ( 5.000000000000000000, 6.123233995736766282E-16, 5.499999999999949374 ) ) ;
#182 = DIRECTION ( 'NONE',  ( -0.000000000000000000, -0.000000000000000000, -1.000000000000000000 ) ) ;
#183 = PLANE ( 'NONE',  #304 ) ;
#184 = CARTESIAN_POINT ( 'NONE',  ( 0.000000000000000000, 0.000000000000000000, 5.499999999999949374 ) ) ;
#185 = CARTESIAN_POINT ( 'NONE',  ( -2.500000000000000000, 0.000000000000000000, 605.0000000000000000 ) ) ;
#186 = PERSON_AND_ORGANIZATION_ROLE ( 'creator' ) ;
#187 = CC_DESIGN_APPROVAL ( #56, ( #209 ) ) ;
#188 = FACE_BOUND ( 'NONE', #204, .T. ) ;
#189 = CARTESIAN_POINT ( 'NONE',  ( 0.000000000000000000, 0.000000000000000000, 0.000000000000000000 ) ) ;
#190 = ORIENTED_EDGE ( 'NONE', *, *, #346, .F. ) ;
#191 = FACE_OUTER_BOUND ( 'NONE', #225, .T. ) ;
#192 = APPLICATION_CONTEXT ( 'configuration controlled 3d designs of mechanical parts and assemblies' ) ;
#193 = DATE_AND_TIME ( #337, #342 ) ;
#194 = AXIS2_PLACEMENT_3D ( 'NONE', #218, #65, #341 ) ;
#195 = AXIS2_PLACEMENT_3D ( 'NONE', #208, #302, #264 ) ;
#196 = EDGE_CURVE ( 'NONE', #199, #376, #236, .T. ) ;
#197 = ORIENTED_EDGE ( 'NONE', *, *, #378, .F. ) ;
#198 = SECURITY_CLASSIFICATION_LEVEL ( 'unclassified' ) ;
#199 = VERTEX_POINT ( 'NONE', #94 ) ;
#200 = APPROVAL_DATE_TIME ( #351, #380 ) ;
#201 = CYLINDRICAL_SURFACE ( 'NONE', #100, 5.000000000000000000 ) ;
#202 = ADVANCED_FACE ( 'NONE', ( #64 ), #222, .T. ) ;
#203 = APPLICATION_CONTEXT ( 'configuration controlled 3d designs of mechanical parts and assemblies' ) ;
#204 = EDGE_LOOP ( 'NONE', ( #310, #288 ) ) ;
#205 = AXIS2_PLACEMENT_3D ( 'NONE', #118, #212, #210 ) ;
#206 = AXIS2_PLACEMENT_3D ( 'NONE', #189, #98, #224 ) ;
#207 = DIRECTION ( 'NONE',  ( 0.000000000000000000, 0.000000000000000000, 1.000000000000000000 ) ) ;
#208 = CARTESIAN_POINT ( 'NONE',  ( 0.000000000000000000, 0.000000000000000000, 5.000000000000000000 ) ) ;
#209 = PRODUCT_DEFINITION ( 'NEZNÁMÝ', '', #111, #265 ) ;
#210 = DIRECTION ( 'NONE',  ( 1.000000000000000000, 0.000000000000000000, 0.000000000000000000 ) ) ;
#211 = CIRCLE ( 'NONE', #130, 2.500000000000000000 ) ;
#212 = DIRECTION ( 'NONE',  ( -0.000000000000000000, -0.000000000000000000, -1.000000000000000000 ) ) ;
#213 = DIRECTION ( 'NONE',  ( 1.224646799147353207E-16, 1.000000000000000000, -0.000000000000000000 ) ) ;
#214 = LINE ( 'NONE', #124, #238 ) ;
#215 = ADVANCED_FACE ( 'NONE', ( #188, #335 ), #235, .F. ) ;
#216 = FACE_OUTER_BOUND ( 'NONE', #254, .T. ) ;
#217 = CARTESIAN_POINT ( 'NONE',  ( 2.500000000000000000, 3.061616997868383141E-16, 0.000000000000000000 ) ) ;
#218 = CARTESIAN_POINT ( 'NONE',  ( 0.000000000000000000, 0.000000000000000000, 605.0000000000000000 ) ) ;
#219 = APPLICATION_PROTOCOL_DEFINITION ( 'international standard', 'config_control_design', 1994, #192 ) ;
#220 = TOROIDAL_SURFACE ( 'NONE', #54, 5.500000000000000000, 0.5000000000000000000 ) ;
#221 = ORIENTED_EDGE ( 'NONE', *, *, #345, .T. ) ;
#222 = CYLINDRICAL_SURFACE ( 'NONE', #194, 5.000000000000000000 ) ;
#223 = DIRECTION ( 'NONE',  ( 1.000000000000000000, 0.000000000000000000, 0.000000000000000000 ) ) ;
#224 = DIRECTION ( 'NONE',  ( 1.000000000000000000, 0.000000000000000000, 0.000000000000000000 ) ) ;
#225 = EDGE_LOOP ( 'NONE', ( #18, #107, #282, #24 ) ) ;
#226 = ORIENTED_EDGE ( 'NONE', *, *, #101, .T. ) ;
#227 = CC_DESIGN_DATE_AND_TIME_ASSIGNMENT ( #133, #248, ( #261 ) ) ;
#228 = ORIENTED_EDGE ( 'NONE', *, *, #314, .T. ) ;
#229 = CIRCLE ( 'NONE', #313, 0.5000000000000004441 ) ;
#230 = PERSON_AND_ORGANIZATION_ROLE ( 'classification_officer' ) ;
#231 = DIRECTION ( 'NONE',  ( 1.000000000000000000, 0.000000000000000000, 0.000000000000000000 ) ) ;
#232 = ORIENTED_EDGE ( 'NONE', *, *, #263, .F. ) ;
#233 = FACE_OUTER_BOUND ( 'NONE', #108, .T. ) ;
#234 = DIRECTION ( 'NONE',  ( 1.000000000000000000, 0.000000000000000000, -0.000000000000000000 ) ) ;
#235 = PLANE ( 'NONE',  #177 ) ;
#236 = LINE ( 'NONE', #239, #360 ) ;
#237 = CARTESIAN_POINT ( 'NONE',  ( -2.500000000000000000, 0.000000000000000000, 0.000000000000000000 ) ) ;
#238 = VECTOR ( 'NONE', #57, 1000.000000000000000 ) ;
#239 = CARTESIAN_POINT ( 'NONE',  ( 2.500000000000000000, 3.061616997868383141E-16, 605.0000000000000000 ) ) ;
#240 = CARTESIAN_POINT ( 'NONE',  ( 0.000000000000000000, 0.000000000000000000, 605.0000000000000000 ) ) ;
#241 = FACE_BOUND ( 'NONE', #142, .T. ) ;
#242 = COORDINATED_UNIVERSAL_TIME_OFFSET ( 1, 0, .AHEAD. ) ;
#243 = CARTESIAN_POINT ( 'NONE',  ( 0.000000000000000000, 0.000000000000000000, 0.000000000000000000 ) ) ;
#244 = CARTESIAN_POINT ( 'NONE',  ( -8.000000000000000000, 0.000000000000000000, 0.000000000000000000 ) ) ;
#245 = DIRECTION ( 'NONE',  ( -1.000000000000000000, 0.000000000000000000, 0.000000000000000000 ) ) ;
#246 = APPROVAL_STATUS ( 'not_yet_approved' ) ;
#247 = EDGE_CURVE ( 'NONE', #338, #176, #114, .T. ) ;
#248 = DATE_TIME_ROLE ( 'classification_date' ) ;
#249 = ORIENTED_EDGE ( 'NONE', *, *, #196, .T. ) ;
#250 = CLOSED_SHELL ( 'NONE', ( #157, #273, #35, #315, #298, #113, #215, #202, #354, #99, #139 ) ) ;
#251 = CIRCLE ( 'NONE', #25, 2.500000000000000000 ) ;
#252 = VERTEX_POINT ( 'NONE', #356 ) ;
#253 = ORIENTED_EDGE ( 'NONE', *, *, #175, .F. ) ;
#254 = EDGE_LOOP ( 'NONE', ( #80, #197, #45, #232 ) ) ;
#255 = APPROVAL_STATUS ( 'not_yet_approved' ) ;
#256 = LINE ( 'NONE', #289, #77 ) ;
#257 = CC_DESIGN_PERSON_AND_ORGANIZATION_ASSIGNMENT ( #78, #320, ( #111 ) ) ;
#258 = VERTEX_POINT ( 'NONE', #146 ) ;
#259 = EDGE_CURVE ( 'NONE', #22, #71, #297, .T. ) ;
#260 = DIRECTION ( 'NONE',  ( 0.000000000000000000, -1.000000000000000000, 0.000000000000000000 ) ) ;
#261 = SECURITY_CLASSIFICATION ( '', '', #198 ) ;
#262 = CARTESIAN_POINT ( 'NONE',  ( 8.000000000000000000, 9.797174393178825657E-16, 5.000000000000000000 ) ) ;
#263 = EDGE_CURVE ( 'NONE', #79, #176, #89, .T. ) ;
#264 = DIRECTION ( 'NONE',  ( 1.000000000000000000, 0.000000000000000000, 0.000000000000000000 ) ) ;
#265 = DESIGN_CONTEXT ( 'detailed design', #192, 'design' ) ;
#266 = DIRECTION ( 'NONE',  ( 1.000000000000000000, 0.000000000000000000, 0.000000000000000000 ) ) ;
#267 = CIRCLE ( 'NONE', #30, 8.000000000000000000 ) ;
#268 = CARTESIAN_POINT ( 'NONE',  ( 5.000000000000000000, 6.123233995736766282E-16, 605.0000000000000000 ) ) ;
#269 = CC_DESIGN_SECURITY_CLASSIFICATION ( #261, ( #111 ) ) ;
#270 = CYLINDRICAL_SURFACE ( 'NONE', #318, 2.500000000000000000 ) ;
#271 =( LENGTH_UNIT ( ) NAMED_UNIT ( * ) SI_UNIT ( .MILLI., .METRE. ) );
#272 = LINE ( 'NONE', #185, #278 ) ;
#273 = ADVANCED_FACE ( 'NONE', ( #8 ), #220, .F. ) ;
#274 = PERSON_AND_ORGANIZATION_ROLE ( 'design_owner' ) ;
#275 = ORIENTED_EDGE ( 'NONE', *, *, #28, .F. ) ;
#276 = CARTESIAN_POINT ( 'NONE',  ( 0.000000000000000000, 0.000000000000000000, 0.000000000000000000 ) ) ;
#277 = APPROVAL_DATE_TIME ( #193, #56 ) ;
#278 = VECTOR ( 'NONE', #4, 1000.000000000000000 ) ;
#279 = CIRCLE ( 'NONE', #377, 2.500000000000000000 ) ;
#280 = APPROVAL_ROLE ( '' ) ;
#281 = PERSON_AND_ORGANIZATION ( #85, #285 ) ;
#282 = ORIENTED_EDGE ( 'NONE', *, *, #155, .T. ) ;
#283 = ORIENTED_EDGE ( 'NONE', *, *, #28, .T. ) ;
#284 = CIRCLE ( 'NONE', #153, 5.500000000000000000 ) ;
#285 = ORGANIZATION ( 'NEURÈENÝ', 'NEURÈENÝ', '' ) ;
#286 = ORIENTED_EDGE ( 'NONE', *, *, #314, .F. ) ;
#287 = ORIENTED_EDGE ( 'NONE', *, *, #378, .T. ) ;
#288 = ORIENTED_EDGE ( 'NONE', *, *, #101, .F. ) ;
#289 = CARTESIAN_POINT ( 'NONE',  ( -5.000000000000000000, 0.000000000000000000, 605.0000000000000000 ) ) ;
#290 = APPROVAL_PERSON_ORGANIZATION ( #44, #56, #340 ) ;
#291 = ORIENTED_EDGE ( 'NONE', *, *, #332, .F. ) ;
#292 = PRODUCT ( '4f5a', '4f5a', '', ( #95 ) ) ;
#293 = FACE_BOUND ( 'NONE', #16, .T. ) ;
#294 = EDGE_CURVE ( 'NONE', #171, #22, #154, .T. ) ;
#295 = FACE_OUTER_BOUND ( 'NONE', #141, .T. ) ;
#296 = CC_DESIGN_APPROVAL ( #380, ( #261 ) ) ;
#297 = LINE ( 'NONE', #262, #371 ) ;
#298 = ADVANCED_FACE ( 'NONE', ( #63 ), #2, .T. ) ;
#299 = EDGE_CURVE ( 'NONE', #252, #374, #102, .T. ) ;
#300 = CYLINDRICAL_SURFACE ( 'NONE', #48, 8.000000000000000000 ) ;
#301 = DIRECTION ( 'NONE',  ( 1.000000000000000000, 0.000000000000000000, -0.000000000000000000 ) ) ;
#302 = DIRECTION ( 'NONE',  ( 0.000000000000000000, 0.000000000000000000, 1.000000000000000000 ) ) ;
#303 = FACE_OUTER_BOUND ( 'NONE', #126, .T. ) ;
#304 = AXIS2_PLACEMENT_3D ( 'NONE', #36, #61, #301 ) ;
#305 = APPLICATION_PROTOCOL_DEFINITION ( 'international standard', 'config_control_design', 1994, #203 ) ;
#306 = AXIS2_PLACEMENT_3D ( 'NONE', #31, #207, #149 ) ;
#307 = ORIENTED_EDGE ( 'NONE', *, *, #345, .F. ) ;
#308 = DIRECTION ( 'NONE',  ( 0.000000000000000000, 0.000000000000000000, 1.000000000000000000 ) ) ;
#309 = CALENDAR_DATE ( 2022, 8, 7 ) ;
#310 = ORIENTED_EDGE ( 'NONE', *, *, #81, .F. ) ;
#311 = CARTESIAN_POINT ( 'NONE',  ( -5.500000000000000000, 6.735557395310442023E-16, 4.999999999999975131 ) ) ;
#312 = PERSON_AND_ORGANIZATION ( #85, #285 ) ;
#313 = AXIS2_PLACEMENT_3D ( 'NONE', #163, #213, #96 ) ;
#314 = EDGE_CURVE ( 'NONE', #71, #379, #361, .T. ) ;
#315 = ADVANCED_FACE ( 'NONE', ( #233 ), #300, .T. ) ;
#316 = DATE_AND_TIME ( #140, #84 ) ;
#317 = ORIENTED_EDGE ( 'NONE', *, *, #294, .T. ) ;
#318 = AXIS2_PLACEMENT_3D ( 'NONE', #129, #9, #245 ) ;
#319 = EDGE_CURVE ( 'NONE', #252, #338, #58, .T. ) ;
#320 = PERSON_AND_ORGANIZATION_ROLE ( 'design_supplier' ) ;
#321 = CARTESIAN_POINT ( 'NONE',  ( 0.000000000000000000, 0.000000000000000000, 605.0000000000000000 ) ) ;
#322 = CARTESIAN_POINT ( 'NONE',  ( 8.000000000000000000, 9.797174393178825657E-16, 0.000000000000000000 ) ) ;
#323 = PRODUCT_DEFINITION_SHAPE ( 'NONE', 'NONE',  #209 ) ;
#324 = ORIENTED_EDGE ( 'NONE', *, *, #329, .F. ) ;
#325 = AXIS2_PLACEMENT_3D ( 'NONE', #365, #33, #123 ) ;
#326 = AXIS2_PLACEMENT_3D ( 'NONE', #5, #120, #88 ) ;
#327 = CC_DESIGN_DATE_AND_TIME_ASSIGNMENT ( #165, #366, ( #209 ) ) ;
#328 = DIRECTION ( 'NONE',  ( 0.000000000000000000, 0.000000000000000000, 1.000000000000000000 ) ) ;
#329 = EDGE_CURVE ( 'NONE', #171, #379, #214, .T. ) ;
#330 = DIRECTION ( 'NONE',  ( -0.000000000000000000, -0.000000000000000000, -1.000000000000000000 ) ) ;
#331 = DIRECTION ( 'NONE',  ( 1.000000000000000000, 0.000000000000000000, 0.000000000000000000 ) ) ;
#332 = EDGE_CURVE ( 'NONE', #199, #52, #279, .T. ) ;
#333 = CARTESIAN_POINT ( 'NONE',  ( -5.000000000000000000, 0.000000000000000000, 605.0000000000000000 ) ) ;
#334 = DIRECTION ( 'NONE',  ( -0.000000000000000000, -0.000000000000000000, -1.000000000000000000 ) ) ;
#335 = FACE_OUTER_BOUND ( 'NONE', #53, .T. ) ;
#336 = CARTESIAN_POINT ( 'NONE',  ( 0.000000000000000000, 0.000000000000000000, 0.000000000000000000 ) ) ;
#337 = CALENDAR_DATE ( 2022, 8, 7 ) ;
#338 = VERTEX_POINT ( 'NONE', #181 ) ;
#339 = FACE_OUTER_BOUND ( 'NONE', #26, .T. ) ;
#340 = APPROVAL_ROLE ( '' ) ;
#341 = DIRECTION ( 'NONE',  ( -1.000000000000000000, 0.000000000000000000, 0.000000000000000000 ) ) ;
#342 = LOCAL_TIME ( 17, 15, 1.000000000000000000, #164 ) ;
#343 = COORDINATED_UNIVERSAL_TIME_OFFSET ( 1, 0, .AHEAD. ) ;
#344 = ORIENTED_EDGE ( 'NONE', *, *, #319, .T. ) ;
#345 = EDGE_CURVE ( 'NONE', #52, #199, #251, .T. ) ;
#346 = EDGE_CURVE ( 'NONE', #374, #252, #136, .T. ) ;
#347 = PERSON_AND_ORGANIZATION_ROLE ( 'creator' ) ;
#348 = CARTESIAN_POINT ( 'NONE',  ( 0.000000000000000000, 0.000000000000000000, 5.000000000000000000 ) ) ;
#349 = CIRCLE ( 'NONE', #19, 2.500000000000000000 ) ;
#350 = APPROVAL_PERSON_ORGANIZATION ( #75, #380, #49 ) ;
#351 = DATE_AND_TIME ( #167, #97 ) ;
#352 = ORIENTED_EDGE ( 'NONE', *, *, #259, .F. ) ;
#353 = EDGE_LOOP ( 'NONE', ( #38, #12, #21, #103 ) ) ;
#354 = ADVANCED_FACE ( 'NONE', ( #293, #295 ), #27, .T. ) ;
#355 = CC_DESIGN_PERSON_AND_ORGANIZATION_ASSIGNMENT ( #312, #274, ( #292 ) ) ;
#356 = CARTESIAN_POINT ( 'NONE',  ( 5.000000000000000000, 6.123233995736766282E-16, 605.0000000000000000 ) ) ;
#357 = DIRECTION ( 'NONE',  ( -0.000000000000000000, -0.000000000000000000, -1.000000000000000000 ) ) ;
#358 = CARTESIAN_POINT ( 'NONE',  ( 0.000000000000000000, 0.000000000000000000, 5.000000000000000000 ) ) ;
#359 = DIRECTION ( 'NONE',  ( -0.000000000000000000, -0.000000000000000000, -1.000000000000000000 ) ) ;
#360 = VECTOR ( 'NONE', #363, 1000.000000000000000 ) ;
#361 = CIRCLE ( 'NONE', #143, 8.000000000000000000 ) ;
#362 = CARTESIAN_POINT ( 'NONE',  ( 0.000000000000000000, 0.000000000000000000, 605.0000000000000000 ) ) ;
#363 = DIRECTION ( 'NONE',  ( 0.000000000000000000, 0.000000000000000000, -1.000000000000000000 ) ) ;
#364 = APPROVAL_STATUS ( 'not_yet_approved' ) ;
#365 = CARTESIAN_POINT ( 'NONE',  ( 0.000000000000000000, 0.000000000000000000, 605.0000000000000000 ) ) ;
#366 = DATE_TIME_ROLE ( 'creation_date' ) ;
#367 = DIRECTION ( 'NONE',  ( 1.000000000000000000, 0.000000000000000000, 0.000000000000000000 ) ) ;
#368 = DIRECTION ( 'NONE',  ( 0.000000000000000000, 0.000000000000000000, 1.000000000000000000 ) ) ;
#369 = PERSON_AND_ORGANIZATION ( #85, #285 ) ;
#370 = ORIENTED_EDGE ( 'NONE', *, *, #259, .T. ) ;
#371 = VECTOR ( 'NONE', #182, 1000.000000000000000 ) ;
#372 =( GEOMETRIC_REPRESENTATION_CONTEXT ( 3 ) GLOBAL_UNCERTAINTY_ASSIGNED_CONTEXT ( ( #17 ) ) GLOBAL_UNIT_ASSIGNED_CONTEXT ( ( #271, #11, #161 ) ) REPRESENTATION_CONTEXT ( 'NONE', 'WORKASPACE' ) );
#373 = VERTEX_POINT ( 'NONE', #237 ) ;
#374 = VERTEX_POINT ( 'NONE', #333 ) ;
#375 = ORIENTED_EDGE ( 'NONE', *, *, #175, .T. ) ;
#376 = VERTEX_POINT ( 'NONE', #217 ) ;
#377 = AXIS2_PLACEMENT_3D ( 'NONE', #32, #328, #3 ) ;
#378 = EDGE_CURVE ( 'NONE', #338, #258, #70, .T. ) ;
#379 = VERTEX_POINT ( 'NONE', #244 ) ;
#380 = APPROVAL ( #255, 'NEURÈENÝ' ) ;
#381 = DIRECTION ( 'NONE',  ( 0.000000000000000000, 0.000000000000000000, -1.000000000000000000 ) ) ;
ENDSEC;
END-ISO-10303-21;
