ISO-10303-21;
HEADER;
FILE_DESCRIPTION (( 'STEP AP203' ),
    '1' );
FILE_NAME ('4a43.STEP',
    '2022-07-08T14:41:32',
    ( '' ),
    ( '' ),
    'SwSTEP 2.0',
    'SolidWorks 2019',
    '' );
FILE_SCHEMA (( 'CONFIG_CONTROL_DESIGN' ));
ENDSEC;

DATA;
#1 = ORIENTED_EDGE ( 'NONE', *, *, #175, .T. ) ;
#2 = CARTESIAN_POINT ( 'NONE',  ( 6.000000000000000888, 7.347880794884120722E-16, 407.0000000000000000 ) ) ;
#3 = EDGE_CURVE ( 'NONE', #374, #85, #184, .T. ) ;
#4 = DIRECTION ( 'NONE',  ( 1.000000000000000000, 0.000000000000000000, 0.000000000000000000 ) ) ;
#5 = DIRECTION ( 'NONE',  ( 1.000000000000000000, 0.000000000000000000, -0.000000000000000000 ) ) ;
#6 = CARTESIAN_POINT ( 'NONE',  ( 3.250000000000000444, 3.980102097228898231E-16, 407.0000000000000000 ) ) ;
#7 = LINE ( 'NONE', #60, #119 ) ;
#8 = DIRECTION ( 'NONE',  ( 1.000000000000000000, 0.000000000000000000, 0.000000000000000000 ) ) ;
#9 = CIRCLE ( 'NONE', #97, 6.000000000000000888 ) ;
#10 = DIRECTION ( 'NONE',  ( -0.000000000000000000, -0.000000000000000000, -1.000000000000000000 ) ) ;
#11 = AXIS2_PLACEMENT_3D ( 'NONE', #62, #208, #356 ) ;
#12 = ORIENTED_EDGE ( 'NONE', *, *, #303, .T. ) ;
#13 = CARTESIAN_POINT ( 'NONE',  ( 0.000000000000000000, 0.000000000000000000, 407.0000000000000000 ) ) ;
#14 = EDGE_CURVE ( 'NONE', #289, #83, #134, .T. ) ;
#15 = CARTESIAN_POINT ( 'NONE',  ( 0.000000000000000000, 0.000000000000000000, 0.000000000000000000 ) ) ;
#16 =( GEOMETRIC_REPRESENTATION_CONTEXT ( 3 ) GLOBAL_UNCERTAINTY_ASSIGNED_CONTEXT ( ( #354 ) ) GLOBAL_UNIT_ASSIGNED_CONTEXT ( ( #167, #280, #106 ) ) REPRESENTATION_CONTEXT ( 'NONE', 'WORKASPACE' ) );
#17 = PLANE ( 'NONE',  #67 ) ;
#18 = PRODUCT_DEFINITION_SHAPE ( 'NONE', 'NONE',  #333 ) ;
#19 = EDGE_LOOP ( 'NONE', ( #345, #202, #139, #222 ) ) ;
#20 = ADVANCED_FACE ( 'NONE', ( #296 ), #186, .T. ) ;
#21 = VERTEX_POINT ( 'NONE', #324 ) ;
#22 = CIRCLE ( 'NONE', #178, 0.5000000000000004441 ) ;
#23 = ORIENTED_EDGE ( 'NONE', *, *, #175, .F. ) ;
#24 = ORIENTED_EDGE ( 'NONE', *, *, #148, .T. ) ;
#25 = DATE_TIME_ROLE ( 'creation_date' ) ;
#26 = VERTEX_POINT ( 'NONE', #328 ) ;
#27 = CALENDAR_DATE ( 2022, 8, 7 ) ;
#28 = AXIS2_PLACEMENT_3D ( 'NONE', #187, #36, #5 ) ;
#29 = CARTESIAN_POINT ( 'NONE',  ( 0.000000000000000000, 0.000000000000000000, 0.000000000000000000 ) ) ;
#30 = APPROVAL_ROLE ( '' ) ;
#31 = DIRECTION ( 'NONE',  ( 1.000000000000000000, 0.000000000000000000, 0.000000000000000000 ) ) ;
#32 = EDGE_CURVE ( 'NONE', #311, #85, #262, .T. ) ;
#33 = DIRECTION ( 'NONE',  ( 0.000000000000000000, 0.000000000000000000, -1.000000000000000000 ) ) ;
#34 = DIRECTION ( 'NONE',  ( 0.000000000000000000, 0.000000000000000000, -1.000000000000000000 ) ) ;
#35 = CARTESIAN_POINT ( 'NONE',  ( 6.500000000000000888, 0.000000000000000000, 7.500000000000007105 ) ) ;
#36 = DIRECTION ( 'NONE',  ( 0.000000000000000000, 0.000000000000000000, 1.000000000000000000 ) ) ;
#37 = CYLINDRICAL_SURFACE ( 'NONE', #255, 3.250000000000000444 ) ;
#38 = DIRECTION ( 'NONE',  ( 0.000000000000000000, 0.000000000000000000, 1.000000000000000000 ) ) ;
#39 = CIRCLE ( 'NONE', #59, 3.250000000000000444 ) ;
#40 = ORIENTED_EDGE ( 'NONE', *, *, #371, .F. ) ;
#41 = CARTESIAN_POINT ( 'NONE',  ( 0.000000000000000000, 0.000000000000000000, 0.000000000000000000 ) ) ;
#42 = DIRECTION ( 'NONE',  ( -1.000000000000000000, 0.000000000000000000, 0.000000000000000000 ) ) ;
#43 = EDGE_CURVE ( 'NONE', #289, #368, #126, .T. ) ;
#44 = CARTESIAN_POINT ( 'NONE',  ( 0.000000000000000000, 0.000000000000000000, 7.500000000000007105 ) ) ;
#45 = CARTESIAN_POINT ( 'NONE',  ( 0.000000000000000000, 0.000000000000000000, 407.0000000000000000 ) ) ;
#46 = CARTESIAN_POINT ( 'NONE',  ( 0.000000000000000000, 0.000000000000000000, 407.0000000000000000 ) ) ;
#47 = AXIS2_PLACEMENT_3D ( 'NONE', #334, #364, #163 ) ;
#48 = CC_DESIGN_PERSON_AND_ORGANIZATION_ASSIGNMENT ( #227, #373, ( #268 ) ) ;
#49 = ORIENTED_EDGE ( 'NONE', *, *, #32, .F. ) ;
#50 = VERTEX_POINT ( 'NONE', #63 ) ;
#51 = COORDINATED_UNIVERSAL_TIME_OFFSET ( 1, 0, .AHEAD. ) ;
#52 = ORIENTED_EDGE ( 'NONE', *, *, #191, .F. ) ;
#53 = PERSON_AND_ORGANIZATION_ROLE ( 'creator' ) ;
#54 = ORIENTED_EDGE ( 'NONE', *, *, #303, .F. ) ;
#55 = EDGE_CURVE ( 'NONE', #282, #26, #69, .T. ) ;
#56 = ORIENTED_EDGE ( 'NONE', *, *, #279, .F. ) ;
#57 = EDGE_LOOP ( 'NONE', ( #317, #145, #1, #88 ) ) ;
#58 = PERSON_AND_ORGANIZATION ( #230, #141 ) ;
#59 = AXIS2_PLACEMENT_3D ( 'NONE', #74, #361, #161 ) ;
#60 = CARTESIAN_POINT ( 'NONE',  ( 10.00000000000000000, 1.224646799147353256E-15, 7.000000000000000000 ) ) ;
#61 = ADVANCED_FACE ( 'NONE', ( #322 ), #342, .F. ) ;
#62 = CARTESIAN_POINT ( 'NONE',  ( 0.000000000000000000, 0.000000000000000000, 7.500000000000007105 ) ) ;
#63 = CARTESIAN_POINT ( 'NONE',  ( 6.500000000000000888, 0.000000000000000000, 7.000000000000002665 ) ) ;
#64 = CIRCLE ( 'NONE', #47, 3.250000000000000444 ) ;
#65 = CC_DESIGN_APPROVAL ( #77, ( #333 ) ) ;
#66 = CARTESIAN_POINT ( 'NONE',  ( 6.000000000000000888, 7.347880794884120722E-16, 407.0000000000000000 ) ) ;
#67 = AXIS2_PLACEMENT_3D ( 'NONE', #71, #302, #274 ) ;
#68 = EDGE_CURVE ( 'NONE', #21, #374, #131, .T. ) ;
#69 = CIRCLE ( 'NONE', #288, 10.00000000000000000 ) ;
#70 = CARTESIAN_POINT ( 'NONE',  ( 3.250000000000000444, 3.980102097228898231E-16, 0.000000000000000000 ) ) ;
#71 = CARTESIAN_POINT ( 'NONE',  ( 0.000000000000000000, 0.000000000000000000, 0.000000000000000000 ) ) ;
#72 = CARTESIAN_POINT ( 'NONE',  ( -6.500000000000000888, 7.960204194457796463E-16, 7.500000000000007105 ) ) ;
#73 = DIRECTION ( 'NONE',  ( 0.000000000000000000, 0.000000000000000000, 1.000000000000000000 ) ) ;
#74 = CARTESIAN_POINT ( 'NONE',  ( 0.000000000000000000, 0.000000000000000000, 0.000000000000000000 ) ) ;
#75 = VECTOR ( 'NONE', #127, 1000.000000000000000 ) ;
#76 = CARTESIAN_POINT ( 'NONE',  ( 3.250000000000000444, 3.980102097228898231E-16, 407.0000000000000000 ) ) ;
#77 = APPROVAL ( #219, 'NEURÈENÝ' ) ;
#78 = AXIS2_PLACEMENT_3D ( 'NONE', #336, #10, #305 ) ;
#79 = EDGE_LOOP ( 'NONE', ( #224, #228 ) ) ;
#80 = SECURITY_CLASSIFICATION ( '', '', #144 ) ;
#81 = ORIENTED_EDGE ( 'NONE', *, *, #293, .T. ) ;
#82 = DATE_AND_TIME ( #151, #352 ) ;
#83 = VERTEX_POINT ( 'NONE', #66 ) ;
#84 = APPROVAL_DATE_TIME ( #348, #77 ) ;
#85 = VERTEX_POINT ( 'NONE', #70 ) ;
#86 = EDGE_CURVE ( 'NONE', #140, #200, #281, .T. ) ;
#87 = PERSON_AND_ORGANIZATION ( #230, #141 ) ;
#88 = ORIENTED_EDGE ( 'NONE', *, *, #237, .F. ) ;
#89 = CALENDAR_DATE ( 2022, 8, 7 ) ;
#90 = ORIENTED_EDGE ( 'NONE', *, *, #68, .T. ) ;
#91 = PERSON_AND_ORGANIZATION_ROLE ( 'design_owner' ) ;
#92 = DIRECTION ( 'NONE',  ( -1.000000000000000000, 0.000000000000000000, 0.000000000000000000 ) ) ;
#93 = DIRECTION ( 'NONE',  ( -0.000000000000000000, -0.000000000000000000, -1.000000000000000000 ) ) ;
#94 = CARTESIAN_POINT ( 'NONE',  ( 10.00000000000000000, 1.224646799147353256E-15, 7.000000000000000000 ) ) ;
#95 = CIRCLE ( 'NONE', #310, 10.00000000000000000 ) ;
#96 = DIRECTION ( 'NONE',  ( 0.000000000000000000, 0.000000000000000000, 1.000000000000000000 ) ) ;
#97 = AXIS2_PLACEMENT_3D ( 'NONE', #44, #100, #338 ) ;
#98 = FACE_OUTER_BOUND ( 'NONE', #196, .T. ) ;
#99 = APPLICATION_CONTEXT ( 'configuration controlled 3d designs of mechanical parts and assemblies' ) ;
#100 = DIRECTION ( 'NONE',  ( 0.000000000000000000, 0.000000000000000000, 1.000000000000000000 ) ) ;
#101 = DIRECTION ( 'NONE',  ( -1.000000000000000000, 0.000000000000000000, 0.000000000000000000 ) ) ;
#102 = FACE_OUTER_BOUND ( 'NONE', #168, .T. ) ;
#103 = APPROVAL_PERSON_ORGANIZATION ( #295, #77, #284 ) ;
#104 = DIRECTION ( 'NONE',  ( -1.000000000000000000, 1.224646799147351482E-16, 0.000000000000000000 ) ) ;
#105 = CLOSED_SHELL ( 'NONE', ( #246, #61, #314, #201, #20, #211, #240, #380, #318, #133, #158 ) ) ;
#106 =( NAMED_UNIT ( * ) SI_UNIT ( $, .STERADIAN. ) SOLID_ANGLE_UNIT ( ) );
#107 = CIRCLE ( 'NONE', #78, 6.500000000000000888 ) ;
#108 = ORIENTED_EDGE ( 'NONE', *, *, #3, .F. ) ;
#109 = PERSON_AND_ORGANIZATION ( #230, #141 ) ;
#110 = ORIENTED_EDGE ( 'NONE', *, *, #309, .F. ) ;
#111 = AXIS2_PLACEMENT_3D ( 'NONE', #157, #358, #182 ) ;
#112 = CC_DESIGN_PERSON_AND_ORGANIZATION_ASSIGNMENT ( #291, #53, ( #268 ) ) ;
#113 = ORIENTED_EDGE ( 'NONE', *, *, #32, .T. ) ;
#114 = ADVANCED_BREP_SHAPE_REPRESENTATION ( '4a43', ( #325, #263 ), #16 ) ;
#115 = DATE_AND_TIME ( #89, #363 ) ;
#116 = EDGE_LOOP ( 'NONE', ( #52, #198, #312, #23 ) ) ;
#117 = AXIS2_PLACEMENT_3D ( 'NONE', #46, #169, #101 ) ;
#118 = DATE_AND_TIME ( #149, #238 ) ;
#119 = VECTOR ( 'NONE', #212, 1000.000000000000000 ) ;
#120 = ORIENTED_EDGE ( 'NONE', *, *, #216, .F. ) ;
#121 = COORDINATED_UNIVERSAL_TIME_OFFSET ( 1, 0, .AHEAD. ) ;
#122 = CC_DESIGN_PERSON_AND_ORGANIZATION_ASSIGNMENT ( #253, #375, ( #333 ) ) ;
#123 = CARTESIAN_POINT ( 'NONE',  ( 0.000000000000000000, 0.000000000000000000, 407.0000000000000000 ) ) ;
#124 = FACE_OUTER_BOUND ( 'NONE', #319, .T. ) ;
#125 = LOCAL_TIME ( 16, 41, 32.00000000000000000, #350 ) ;
#126 = LINE ( 'NONE', #235, #265 ) ;
#127 = DIRECTION ( 'NONE',  ( 0.000000000000000000, 0.000000000000000000, -1.000000000000000000 ) ) ;
#128 = EDGE_CURVE ( 'NONE', #200, #282, #204, .T. ) ;
#129 = CARTESIAN_POINT ( 'NONE',  ( -3.250000000000000444, 0.000000000000000000, 407.0000000000000000 ) ) ;
#130 = CIRCLE ( 'NONE', #132, 6.500000000000000888 ) ;
#131 = LINE ( 'NONE', #129, #366 ) ;
#132 = AXIS2_PLACEMENT_3D ( 'NONE', #264, #155, #266 ) ;
#133 = ADVANCED_FACE ( 'NONE', ( #297 ), #272, .F. ) ;
#134 = CIRCLE ( 'NONE', #206, 6.000000000000000888 ) ;
#135 = CARTESIAN_POINT ( 'NONE',  ( -6.000000000000000888, 0.000000000000000000, 407.0000000000000000 ) ) ;
#136 = DIRECTION ( 'NONE',  ( 1.000000000000000000, 0.000000000000000000, 0.000000000000000000 ) ) ;
#137 = DIRECTION ( 'NONE',  ( 0.000000000000000000, 0.000000000000000000, 1.000000000000000000 ) ) ;
#138 = CARTESIAN_POINT ( 'NONE',  ( 6.000000000000000888, 7.347880794884120722E-16, 7.500000000000007105 ) ) ;
#139 = ORIENTED_EDGE ( 'NONE', *, *, #43, .T. ) ;
#140 = VERTEX_POINT ( 'NONE', #94 ) ;
#141 = ORGANIZATION ( 'NEURÈENÝ', 'NEURÈENÝ', '' ) ;
#142 = COORDINATED_UNIVERSAL_TIME_OFFSET ( 1, 0, .AHEAD. ) ;
#143 = ORIENTED_EDGE ( 'NONE', *, *, #216, .T. ) ;
#144 = SECURITY_CLASSIFICATION_LEVEL ( 'unclassified' ) ;
#145 = ORIENTED_EDGE ( 'NONE', *, *, #293, .F. ) ;
#146 = APPROVAL_DATE_TIME ( #346, #343 ) ;
#147 = DIRECTION ( 'NONE',  ( 0.000000000000000000, 0.000000000000000000, 1.000000000000000000 ) ) ;
#148 = EDGE_CURVE ( 'NONE', #83, #271, #183, .T. ) ;
#149 = CALENDAR_DATE ( 2022, 8, 7 ) ;
#150 = DIRECTION ( 'NONE',  ( -0.000000000000000000, -0.000000000000000000, -1.000000000000000000 ) ) ;
#151 = CALENDAR_DATE ( 2022, 8, 7 ) ;
#152 = CARTESIAN_POINT ( 'NONE',  ( -6.500000000000000888, 7.960204194457796463E-16, 7.000000000000002665 ) ) ;
#153 = DIRECTION ( 'NONE',  ( 0.000000000000000000, 0.000000000000000000, 1.000000000000000000 ) ) ;
#154 = DIRECTION ( 'NONE',  ( -1.000000000000000000, 0.000000000000000000, 0.000000000000000000 ) ) ;
#155 = DIRECTION ( 'NONE',  ( -0.000000000000000000, -0.000000000000000000, -1.000000000000000000 ) ) ;
#156 = CARTESIAN_POINT ( 'NONE',  ( -6.000000000000000888, 0.000000000000000000, 7.500000000000007105 ) ) ;
#157 = CARTESIAN_POINT ( 'NONE',  ( 0.000000000000000000, 0.000000000000000000, 7.500000000000007105 ) ) ;
#158 = ADVANCED_FACE ( 'NONE', ( #203 ), #37, .F. ) ;
#159 = CIRCLE ( 'NONE', #209, 3.250000000000000444 ) ;
#160 = CC_DESIGN_APPROVAL ( #229, ( #268 ) ) ;
#161 = DIRECTION ( 'NONE',  ( 1.000000000000000000, 0.000000000000000000, 0.000000000000000000 ) ) ;
#162 = CARTESIAN_POINT ( 'NONE',  ( 0.000000000000000000, 0.000000000000000000, 407.0000000000000000 ) ) ;
#163 = DIRECTION ( 'NONE',  ( 1.000000000000000000, 0.000000000000000000, 0.000000000000000000 ) ) ;
#164 = CIRCLE ( 'NONE', #225, 6.000000000000000888 ) ;
#165 = CC_DESIGN_PERSON_AND_ORGANIZATION_ASSIGNMENT ( #58, #91, ( #298 ) ) ;
#166 = DIRECTION ( 'NONE',  ( -0.000000000000000000, -0.000000000000000000, -1.000000000000000000 ) ) ;
#167 =( LENGTH_UNIT ( ) NAMED_UNIT ( * ) SI_UNIT ( .MILLI., .METRE. ) );
#168 = EDGE_LOOP ( 'NONE', ( #258, #226 ) ) ;
#169 = DIRECTION ( 'NONE',  ( -0.000000000000000000, -0.000000000000000000, -1.000000000000000000 ) ) ;
#170 = ORIENTED_EDGE ( 'NONE', *, *, #68, .F. ) ;
#171 = ORIENTED_EDGE ( 'NONE', *, *, #43, .F. ) ;
#172 = SHAPE_DEFINITION_REPRESENTATION ( #18, #114 ) ;
#173 = ORIENTED_EDGE ( 'NONE', *, *, #273, .F. ) ;
#174 = EDGE_LOOP ( 'NONE', ( #49, #12, #90, #290 ) ) ;
#175 = EDGE_CURVE ( 'NONE', #271, #50, #369, .T. ) ;
#176 = EDGE_LOOP ( 'NONE', ( #248, #372 ) ) ;
#177 = APPLICATION_PROTOCOL_DEFINITION ( 'international standard', 'config_control_design', 1994, #99 ) ;
#178 = AXIS2_PLACEMENT_3D ( 'NONE', #72, #367, #104 ) ;
#179 = CARTESIAN_POINT ( 'NONE',  ( 0.000000000000000000, 0.000000000000000000, 7.000000000000000000 ) ) ;
#180 = CARTESIAN_POINT ( 'NONE',  ( 0.000000000000000000, 0.000000000000000000, 0.000000000000000000 ) ) ;
#181 = EDGE_CURVE ( 'NONE', #50, #194, #130, .T. ) ;
#182 = DIRECTION ( 'NONE',  ( 1.000000000000000000, 0.000000000000000000, 0.000000000000000000 ) ) ;
#183 = LINE ( 'NONE', #2, #323 ) ;
#184 = CIRCLE ( 'NONE', #355, 3.250000000000000444 ) ;
#185 = EDGE_CURVE ( 'NONE', #140, #26, #7, .T. ) ;
#186 = CYLINDRICAL_SURFACE ( 'NONE', #257, 10.00000000000000000 ) ;
#187 = CARTESIAN_POINT ( 'NONE',  ( 0.000000000000000000, 0.000000000000000000, 407.0000000000000000 ) ) ;
#188 = DIRECTION ( 'NONE',  ( -1.000000000000000000, 0.000000000000000000, 0.000000000000000000 ) ) ;
#189 = PLANE ( 'NONE',  #340 ) ;
#190 = FACE_BOUND ( 'NONE', #252, .T. ) ;
#191 = EDGE_CURVE ( 'NONE', #368, #271, #164, .T. ) ;
#192 = FACE_OUTER_BOUND ( 'NONE', #221, .T. ) ;
#193 = AXIS2_PLACEMENT_3D ( 'NONE', #45, #166, #214 ) ;
#194 = VERTEX_POINT ( 'NONE', #152 ) ;
#195 = CC_DESIGN_DATE_AND_TIME_ASSIGNMENT ( #115, #377, ( #80 ) ) ;
#196 = EDGE_LOOP ( 'NONE', ( #283, #110 ) ) ;
#197 = ORIENTED_EDGE ( 'NONE', *, *, #128, .T. ) ;
#198 = ORIENTED_EDGE ( 'NONE', *, *, #218, .T. ) ;
#199 = APPLICATION_CONTEXT ( 'configuration controlled 3d designs of mechanical parts and assemblies' ) ;
#200 = VERTEX_POINT ( 'NONE', #260 ) ;
#201 = ADVANCED_FACE ( 'NONE', ( #124 ), #231, .T. ) ;
#202 = ORIENTED_EDGE ( 'NONE', *, *, #14, .F. ) ;
#203 = FACE_OUTER_BOUND ( 'NONE', #174, .T. ) ;
#204 = LINE ( 'NONE', #233, #332 ) ;
#205 = PRODUCT_RELATED_PRODUCT_CATEGORY ( 'detail', '', ( #298 ) ) ;
#206 = AXIS2_PLACEMENT_3D ( 'NONE', #123, #147, #313 ) ;
#207 = DIRECTION ( 'NONE',  ( -0.000000000000000000, -0.000000000000000000, -1.000000000000000000 ) ) ;
#208 = DIRECTION ( 'NONE',  ( 0.000000000000000000, 0.000000000000000000, 1.000000000000000000 ) ) ;
#209 = AXIS2_PLACEMENT_3D ( 'NONE', #241, #213, #243 ) ;
#210 = APPROVAL_PERSON_ORGANIZATION ( #315, #229, #30 ) ;
#211 = ADVANCED_FACE ( 'NONE', ( #270, #102 ), #189, .T. ) ;
#212 = DIRECTION ( 'NONE',  ( -0.000000000000000000, -0.000000000000000000, -1.000000000000000000 ) ) ;
#213 = DIRECTION ( 'NONE',  ( 0.000000000000000000, 0.000000000000000000, 1.000000000000000000 ) ) ;
#214 = DIRECTION ( 'NONE',  ( -1.000000000000000000, 0.000000000000000000, 0.000000000000000000 ) ) ;
#215 = DIRECTION ( 'NONE',  ( 1.000000000000000000, 0.000000000000000000, -0.000000000000000000 ) ) ;
#216 = EDGE_CURVE ( 'NONE', #85, #374, #39, .T. ) ;
#217 = DIRECTION ( 'NONE',  ( 1.000000000000000000, 0.000000000000000000, 0.000000000000000000 ) ) ;
#218 = EDGE_CURVE ( 'NONE', #368, #194, #22, .T. ) ;
#219 = APPROVAL_STATUS ( 'not_yet_approved' ) ;
#220 = AXIS2_PLACEMENT_3D ( 'NONE', #267, #96, #8 ) ;
#221 = EDGE_LOOP ( 'NONE', ( #173, #24, #81, #171 ) ) ;
#222 = ORIENTED_EDGE ( 'NONE', *, *, #191, .T. ) ;
#223 = APPROVAL_ROLE ( '' ) ;
#224 = ORIENTED_EDGE ( 'NONE', *, *, #181, .T. ) ;
#225 = AXIS2_PLACEMENT_3D ( 'NONE', #236, #331, #31 ) ;
#226 = ORIENTED_EDGE ( 'NONE', *, *, #86, .T. ) ;
#227 = PERSON_AND_ORGANIZATION ( #230, #141 ) ;
#228 = ORIENTED_EDGE ( 'NONE', *, *, #237, .T. ) ;
#229 = APPROVAL ( #256, 'NEURÈENÝ' ) ;
#230 = PERSON ( 'NEURÈENÝ', 'NEURÈENÝ', 'NEURÈENÝ', ('NEURÈENÝ'), ('NEURÈENÝ'), ('NEURÈENÝ') ) ;
#231 = CYLINDRICAL_SURFACE ( 'NONE', #330, 10.00000000000000000 ) ;
#232 = CC_DESIGN_APPROVAL ( #343, ( #80 ) ) ;
#233 = CARTESIAN_POINT ( 'NONE',  ( -10.00000000000000000, 0.000000000000000000, 7.000000000000000000 ) ) ;
#234 = PLANE ( 'NONE',  #28 ) ;
#235 = CARTESIAN_POINT ( 'NONE',  ( -6.000000000000000888, 0.000000000000000000, 407.0000000000000000 ) ) ;
#236 = CARTESIAN_POINT ( 'NONE',  ( 0.000000000000000000, 0.000000000000000000, 7.500000000000007105 ) ) ;
#237 = EDGE_CURVE ( 'NONE', #194, #50, #107, .T. ) ;
#238 = LOCAL_TIME ( 16, 41, 32.00000000000000000, #287 ) ;
#239 = DIRECTION ( 'NONE',  ( 0.000000000000000000, 0.000000000000000000, 1.000000000000000000 ) ) ;
#240 = ADVANCED_FACE ( 'NONE', ( #190, #98 ), #17, .F. ) ;
#241 = CARTESIAN_POINT ( 'NONE',  ( 0.000000000000000000, 0.000000000000000000, 407.0000000000000000 ) ) ;
#242 = LOCAL_TIME ( 16, 41, 32.00000000000000000, #142 ) ;
#243 = DIRECTION ( 'NONE',  ( 1.000000000000000000, 0.000000000000000000, 0.000000000000000000 ) ) ;
#244 = CARTESIAN_POINT ( 'NONE',  ( -10.00000000000000000, 0.000000000000000000, 0.000000000000000000 ) ) ;
#245 = ORIENTED_EDGE ( 'NONE', *, *, #185, .F. ) ;
#246 = ADVANCED_FACE ( 'NONE', ( #275 ), #306, .F. ) ;
#247 = CARTESIAN_POINT ( 'NONE',  ( -3.250000000000000444, 0.000000000000000000, 0.000000000000000000 ) ) ;
#248 = ORIENTED_EDGE ( 'NONE', *, *, #14, .T. ) ;
#249 = APPROVAL_STATUS ( 'not_yet_approved' ) ;
#250 = ORIENTED_EDGE ( 'NONE', *, *, #279, .T. ) ;
#251 = DIRECTION ( 'NONE',  ( 1.000000000000000000, 0.000000000000000000, 0.000000000000000000 ) ) ;
#252 = EDGE_LOOP ( 'NONE', ( #108, #120 ) ) ;
#253 = PERSON_AND_ORGANIZATION ( #230, #141 ) ;
#254 = ORIENTED_EDGE ( 'NONE', *, *, #309, .T. ) ;
#255 = AXIS2_PLACEMENT_3D ( 'NONE', #326, #299, #92 ) ;
#256 = APPROVAL_STATUS ( 'not_yet_approved' ) ;
#257 = AXIS2_PLACEMENT_3D ( 'NONE', #179, #93, #154 ) ;
#258 = ORIENTED_EDGE ( 'NONE', *, *, #371, .T. ) ;
#259 = CC_DESIGN_PERSON_AND_ORGANIZATION_ASSIGNMENT ( #87, #381, ( #80 ) ) ;
#260 = CARTESIAN_POINT ( 'NONE',  ( -10.00000000000000000, 0.000000000000000000, 7.000000000000000000 ) ) ;
#261 = DIRECTION ( 'NONE',  ( 1.000000000000000000, 0.000000000000000000, 0.000000000000000000 ) ) ;
#262 = LINE ( 'NONE', #6, #75 ) ;
#263 = AXIS2_PLACEMENT_3D ( 'NONE', #41, #73, #251 ) ;
#264 = CARTESIAN_POINT ( 'NONE',  ( 0.000000000000000000, 0.000000000000000000, 7.000000000000000000 ) ) ;
#265 = VECTOR ( 'NONE', #301, 1000.000000000000000 ) ;
#266 = DIRECTION ( 'NONE',  ( 1.000000000000000000, 0.000000000000000000, 0.000000000000000000 ) ) ;
#267 = CARTESIAN_POINT ( 'NONE',  ( 0.000000000000000000, 0.000000000000000000, 7.000000000000000000 ) ) ;
#268 = PRODUCT_DEFINITION_FORMATION_WITH_SPECIFIED_SOURCE ( 'LIBOVOLNÝ', '', #298, .NOT_KNOWN. ) ;
#269 = CARTESIAN_POINT ( 'NONE',  ( 0.000000000000000000, 0.000000000000000000, 7.000000000000000000 ) ) ;
#270 = FACE_BOUND ( 'NONE', #79, .T. ) ;
#271 = VERTEX_POINT ( 'NONE', #138 ) ;
#272 = TOROIDAL_SURFACE ( 'NONE', #111, 6.500000000000000888, 0.5000000000000000000 ) ;
#273 = EDGE_CURVE ( 'NONE', #83, #289, #276, .T. ) ;
#274 = DIRECTION ( 'NONE',  ( 1.000000000000000000, 0.000000000000000000, -0.000000000000000000 ) ) ;
#275 = FACE_OUTER_BOUND ( 'NONE', #376, .T. ) ;
#276 = CIRCLE ( 'NONE', #378, 6.000000000000000888 ) ;
#277 = FACE_OUTER_BOUND ( 'NONE', #19, .T. ) ;
#278 = DIRECTION ( 'NONE',  ( 0.000000000000000000, 0.000000000000000000, -1.000000000000000000 ) ) ;
#279 = EDGE_CURVE ( 'NONE', #21, #311, #159, .T. ) ;
#280 =( NAMED_UNIT ( * ) PLANE_ANGLE_UNIT ( ) SI_UNIT ( $, .RADIAN. ) );
#281 = CIRCLE ( 'NONE', #220, 10.00000000000000000 ) ;
#282 = VERTEX_POINT ( 'NONE', #244 ) ;
#283 = ORIENTED_EDGE ( 'NONE', *, *, #55, .F. ) ;
#284 = APPROVAL_ROLE ( '' ) ;
#285 = CC_DESIGN_SECURITY_CLASSIFICATION ( #80, ( #268 ) ) ;
#286 = EDGE_LOOP ( 'NONE', ( #245, #40, #197, #347 ) ) ;
#287 = COORDINATED_UNIVERSAL_TIME_OFFSET ( 1, 0, .AHEAD. ) ;
#288 = AXIS2_PLACEMENT_3D ( 'NONE', #180, #357, #4 ) ;
#289 = VERTEX_POINT ( 'NONE', #135 ) ;
#290 = ORIENTED_EDGE ( 'NONE', *, *, #3, .T. ) ;
#291 = PERSON_AND_ORGANIZATION ( #230, #141 ) ;
#292 = ORIENTED_EDGE ( 'NONE', *, *, #185, .T. ) ;
#293 = EDGE_CURVE ( 'NONE', #271, #368, #9, .T. ) ;
#294 = AXIS2_PLACEMENT_3D ( 'NONE', #35, #300, #34 ) ;
#295 = PERSON_AND_ORGANIZATION ( #230, #141 ) ;
#296 = FACE_OUTER_BOUND ( 'NONE', #286, .T. ) ;
#297 = FACE_OUTER_BOUND ( 'NONE', #57, .T. ) ;
#298 = PRODUCT ( '4a43', '4a43', '', ( #320 ) ) ;
#299 = DIRECTION ( 'NONE',  ( 0.000000000000000000, 0.000000000000000000, -1.000000000000000000 ) ) ;
#300 = DIRECTION ( 'NONE',  ( 0.000000000000000000, -1.000000000000000000, 0.000000000000000000 ) ) ;
#301 = DIRECTION ( 'NONE',  ( -0.000000000000000000, -0.000000000000000000, -1.000000000000000000 ) ) ;
#302 = DIRECTION ( 'NONE',  ( 0.000000000000000000, 0.000000000000000000, 1.000000000000000000 ) ) ;
#303 = EDGE_CURVE ( 'NONE', #311, #21, #64, .T. ) ;
#304 = AXIS2_PLACEMENT_3D ( 'NONE', #269, #153, #261 ) ;
#305 = DIRECTION ( 'NONE',  ( 1.000000000000000000, 0.000000000000000000, 0.000000000000000000 ) ) ;
#306 = CYLINDRICAL_SURFACE ( 'NONE', #321, 3.250000000000000444 ) ;
#307 = CYLINDRICAL_SURFACE ( 'NONE', #193, 6.000000000000000888 ) ;
#308 = CYLINDRICAL_SURFACE ( 'NONE', #117, 6.000000000000000888 ) ;
#309 = EDGE_CURVE ( 'NONE', #26, #282, #95, .T. ) ;
#310 = AXIS2_PLACEMENT_3D ( 'NONE', #15, #137, #217 ) ;
#311 = VERTEX_POINT ( 'NONE', #76 ) ;
#312 = ORIENTED_EDGE ( 'NONE', *, *, #181, .F. ) ;
#313 = DIRECTION ( 'NONE',  ( 1.000000000000000000, 0.000000000000000000, 0.000000000000000000 ) ) ;
#314 = ADVANCED_FACE ( 'NONE', ( #192 ), #307, .T. ) ;
#315 = PERSON_AND_ORGANIZATION ( #230, #141 ) ;
#316 = ORIENTED_EDGE ( 'NONE', *, *, #128, .F. ) ;
#317 = ORIENTED_EDGE ( 'NONE', *, *, #218, .F. ) ;
#318 = ADVANCED_FACE ( 'NONE', ( #335, #327 ), #234, .T. ) ;
#319 = EDGE_LOOP ( 'NONE', ( #349, #292, #254, #316 ) ) ;
#320 = MECHANICAL_CONTEXT ( 'NONE', #199, 'mechanical' ) ;
#321 = AXIS2_PLACEMENT_3D ( 'NONE', #13, #278, #188 ) ;
#322 = FACE_OUTER_BOUND ( 'NONE', #116, .T. ) ;
#323 = VECTOR ( 'NONE', #207, 1000.000000000000000 ) ;
#324 = CARTESIAN_POINT ( 'NONE',  ( -3.250000000000000444, 0.000000000000000000, 407.0000000000000000 ) ) ;
#325 = MANIFOLD_SOLID_BREP ( 'Odebrat vysunutím3', #105 ) ;
#326 = CARTESIAN_POINT ( 'NONE',  ( 0.000000000000000000, 0.000000000000000000, 407.0000000000000000 ) ) ;
#327 = FACE_OUTER_BOUND ( 'NONE', #176, .T. ) ;
#328 = CARTESIAN_POINT ( 'NONE',  ( 10.00000000000000000, 1.224646799147353256E-15, 0.000000000000000000 ) ) ;
#329 = APPROVAL_PERSON_ORGANIZATION ( #109, #343, #223 ) ;
#330 = AXIS2_PLACEMENT_3D ( 'NONE', #353, #362, #42 ) ;
#331 = DIRECTION ( 'NONE',  ( 0.000000000000000000, 0.000000000000000000, 1.000000000000000000 ) ) ;
#332 = VECTOR ( 'NONE', #351, 1000.000000000000000 ) ;
#333 = PRODUCT_DEFINITION ( 'NEZNÁMÝ', '', #268, #360 ) ;
#334 = CARTESIAN_POINT ( 'NONE',  ( 0.000000000000000000, 0.000000000000000000, 407.0000000000000000 ) ) ;
#335 = FACE_BOUND ( 'NONE', #379, .T. ) ;
#336 = CARTESIAN_POINT ( 'NONE',  ( 0.000000000000000000, 0.000000000000000000, 7.000000000000000000 ) ) ;
#337 = APPLICATION_PROTOCOL_DEFINITION ( 'international standard', 'config_control_design', 1994, #199 ) ;
#338 = DIRECTION ( 'NONE',  ( 1.000000000000000000, 0.000000000000000000, 0.000000000000000000 ) ) ;
#339 = CIRCLE ( 'NONE', #304, 10.00000000000000000 ) ;
#340 = AXIS2_PLACEMENT_3D ( 'NONE', #359, #38, #215 ) ;
#341 = CALENDAR_DATE ( 2022, 8, 7 ) ;
#342 = TOROIDAL_SURFACE ( 'NONE', #11, 6.500000000000000888, 0.5000000000000000000 ) ;
#343 = APPROVAL ( #249, 'NEURÈENÝ' ) ;
#344 = DIRECTION ( 'NONE',  ( 1.000000000000000000, 0.000000000000000000, 0.000000000000000000 ) ) ;
#345 = ORIENTED_EDGE ( 'NONE', *, *, #148, .F. ) ;
#346 = DATE_AND_TIME ( #341, #125 ) ;
#347 = ORIENTED_EDGE ( 'NONE', *, *, #55, .T. ) ;
#348 = DATE_AND_TIME ( #27, #242 ) ;
#349 = ORIENTED_EDGE ( 'NONE', *, *, #86, .F. ) ;
#350 = COORDINATED_UNIVERSAL_TIME_OFFSET ( 1, 0, .AHEAD. ) ;
#351 = DIRECTION ( 'NONE',  ( -0.000000000000000000, -0.000000000000000000, -1.000000000000000000 ) ) ;
#352 = LOCAL_TIME ( 16, 41, 32.00000000000000000, #51 ) ;
#353 = CARTESIAN_POINT ( 'NONE',  ( 0.000000000000000000, 0.000000000000000000, 7.000000000000000000 ) ) ;
#354 = UNCERTAINTY_MEASURE_WITH_UNIT (LENGTH_MEASURE( 1.000000000000000082E-05 ), #167, 'distance_accuracy_value', 'NONE');
#355 = AXIS2_PLACEMENT_3D ( 'NONE', #29, #150, #344 ) ;
#356 = DIRECTION ( 'NONE',  ( 1.000000000000000000, 0.000000000000000000, 0.000000000000000000 ) ) ;
#357 = DIRECTION ( 'NONE',  ( 0.000000000000000000, 0.000000000000000000, 1.000000000000000000 ) ) ;
#358 = DIRECTION ( 'NONE',  ( 0.000000000000000000, 0.000000000000000000, 1.000000000000000000 ) ) ;
#359 = CARTESIAN_POINT ( 'NONE',  ( 0.000000000000000000, 0.000000000000000000, 7.000000000000000000 ) ) ;
#360 = DESIGN_CONTEXT ( 'detailed design', #99, 'design' ) ;
#361 = DIRECTION ( 'NONE',  ( -0.000000000000000000, -0.000000000000000000, -1.000000000000000000 ) ) ;
#362 = DIRECTION ( 'NONE',  ( -0.000000000000000000, -0.000000000000000000, -1.000000000000000000 ) ) ;
#363 = LOCAL_TIME ( 16, 41, 32.00000000000000000, #121 ) ;
#364 = DIRECTION ( 'NONE',  ( 0.000000000000000000, 0.000000000000000000, 1.000000000000000000 ) ) ;
#365 = CC_DESIGN_DATE_AND_TIME_ASSIGNMENT ( #118, #25, ( #333 ) ) ;
#366 = VECTOR ( 'NONE', #33, 1000.000000000000000 ) ;
#367 = DIRECTION ( 'NONE',  ( 1.224646799147353207E-16, 1.000000000000000000, -0.000000000000000000 ) ) ;
#368 = VERTEX_POINT ( 'NONE', #156 ) ;
#369 = CIRCLE ( 'NONE', #294, 0.5000000000000004441 ) ;
#370 = APPROVAL_DATE_TIME ( #82, #229 ) ;
#371 = EDGE_CURVE ( 'NONE', #200, #140, #339, .T. ) ;
#372 = ORIENTED_EDGE ( 'NONE', *, *, #273, .T. ) ;
#373 = PERSON_AND_ORGANIZATION_ROLE ( 'design_supplier' ) ;
#374 = VERTEX_POINT ( 'NONE', #247 ) ;
#375 = PERSON_AND_ORGANIZATION_ROLE ( 'creator' ) ;
#376 = EDGE_LOOP ( 'NONE', ( #250, #113, #143, #170 ) ) ;
#377 = DATE_TIME_ROLE ( 'classification_date' ) ;
#378 = AXIS2_PLACEMENT_3D ( 'NONE', #162, #239, #136 ) ;
#379 = EDGE_LOOP ( 'NONE', ( #56, #54 ) ) ;
#380 = ADVANCED_FACE ( 'NONE', ( #277 ), #308, .T. ) ;
#381 = PERSON_AND_ORGANIZATION_ROLE ( 'classification_officer' ) ;
ENDSEC;
END-ISO-10303-21;
