ISO-10303-21;
HEADER;
FILE_DESCRIPTION (( 'STEP AP203' ),
    '1' );
FILE_NAME ('1566.STEP',
    '2022-07-08T15:09:47',
    ( '' ),
    ( '' ),
    'SwSTEP 2.0',
    'SolidWorks 2019',
    '' );
FILE_SCHEMA (( 'CONFIG_CONTROL_DESIGN' ));
ENDSEC;

DATA;
#1 = DATE_AND_TIME ( #302, #370 ) ;
#2 = CIRCLE ( 'NONE', #114, 0.5000000000000004441 ) ;
#3 = EDGE_LOOP ( 'NONE', ( #55, #84 ) ) ;
#4 = APPROVAL_PERSON_ORGANIZATION ( #180, #377, #186 ) ;
#5 = CC_DESIGN_PERSON_AND_ORGANIZATION_ASSIGNMENT ( #328, #268, ( #109 ) ) ;
#6 = APPROVAL_DATE_TIME ( #35, #234 ) ;
#7 = CARTESIAN_POINT ( 'NONE',  ( 0.000000000000000000, 0.000000000000000000, 5.000000000000000000 ) ) ;
#8 = SECURITY_CLASSIFICATION_LEVEL ( 'unclassified' ) ;
#9 = CARTESIAN_POINT ( 'NONE',  ( 0.000000000000000000, 0.000000000000000000, 5.000000000000000000 ) ) ;
#10 = EDGE_CURVE ( 'NONE', #119, #18, #202, .T. ) ;
#11 = CALENDAR_DATE ( 2022, 8, 7 ) ;
#12 = DIRECTION ( 'NONE',  ( 1.000000000000000000, 0.000000000000000000, -0.000000000000000000 ) ) ;
#13 =( GEOMETRIC_REPRESENTATION_CONTEXT ( 3 ) GLOBAL_UNCERTAINTY_ASSIGNED_CONTEXT ( ( #360 ) ) GLOBAL_UNIT_ASSIGNED_CONTEXT ( ( #233, #236, #177 ) ) REPRESENTATION_CONTEXT ( 'NONE', 'WORKASPACE' ) );
#14 = DIRECTION ( 'NONE',  ( 1.000000000000000000, 0.000000000000000000, 0.000000000000000000 ) ) ;
#15 = FACE_OUTER_BOUND ( 'NONE', #137, .T. ) ;
#16 = DIRECTION ( 'NONE',  ( 0.000000000000000000, 0.000000000000000000, 1.000000000000000000 ) ) ;
#17 = DIRECTION ( 'NONE',  ( 1.000000000000000000, 0.000000000000000000, 0.000000000000000000 ) ) ;
#18 = VERTEX_POINT ( 'NONE', #272 ) ;
#19 = DIRECTION ( 'NONE',  ( 1.000000000000000000, 0.000000000000000000, 0.000000000000000000 ) ) ;
#20 = ORIENTED_EDGE ( 'NONE', *, *, #265, .T. ) ;
#21 = DIRECTION ( 'NONE',  ( -1.000000000000000000, 1.224646799147351482E-16, 0.000000000000000000 ) ) ;
#22 = LINE ( 'NONE', #176, #74 ) ;
#23 = EDGE_LOOP ( 'NONE', ( #140, #159, #128, #366 ) ) ;
#24 = DIRECTION ( 'NONE',  ( 0.000000000000000000, 0.000000000000000000, 1.000000000000000000 ) ) ;
#25 = AXIS2_PLACEMENT_3D ( 'NONE', #112, #376, #320 ) ;
#26 = PLANE ( 'NONE',  #343 ) ;
#27 = APPROVAL_PERSON_ORGANIZATION ( #297, #234, #71 ) ;
#28 = ORIENTED_EDGE ( 'NONE', *, *, #249, .F. ) ;
#29 = EDGE_CURVE ( 'NONE', #167, #254, #250, .T. ) ;
#30 = DIRECTION ( 'NONE',  ( 0.000000000000000000, 0.000000000000000000, 1.000000000000000000 ) ) ;
#31 = PERSON_AND_ORGANIZATION ( #374, #319 ) ;
#32 = CIRCLE ( 'NONE', #82, 2.600000000000000089 ) ;
#33 = FACE_OUTER_BOUND ( 'NONE', #99, .T. ) ;
#34 = LOCAL_TIME ( 17, 9, 47.00000000000000000, #264 ) ;
#35 = DATE_AND_TIME ( #299, #34 ) ;
#36 = EDGE_LOOP ( 'NONE', ( #355, #47, #96, #259 ) ) ;
#37 = ADVANCED_FACE ( 'NONE', ( #33 ), #352, .T. ) ;
#38 = DATE_AND_TIME ( #11, #173 ) ;
#39 = PLANE ( 'NONE',  #267 ) ;
#40 = ORIENTED_EDGE ( 'NONE', *, *, #80, .F. ) ;
#41 = AXIS2_PLACEMENT_3D ( 'NONE', #79, #283, #19 ) ;
#42 = DIRECTION ( 'NONE',  ( 1.224646799147353207E-16, 1.000000000000000000, -0.000000000000000000 ) ) ;
#43 = DIRECTION ( 'NONE',  ( -0.000000000000000000, -0.000000000000000000, -1.000000000000000000 ) ) ;
#44 = EDGE_CURVE ( 'NONE', #330, #238, #356, .T. ) ;
#45 = DIRECTION ( 'NONE',  ( -0.000000000000000000, -0.000000000000000000, -1.000000000000000000 ) ) ;
#46 = AXIS2_PLACEMENT_3D ( 'NONE', #353, #43, #131 ) ;
#47 = ORIENTED_EDGE ( 'NONE', *, *, #270, .T. ) ;
#48 = APPROVAL_PERSON_ORGANIZATION ( #100, #205, #354 ) ;
#49 = CYLINDRICAL_SURFACE ( 'NONE', #232, 7.000000000000000000 ) ;
#50 = EDGE_CURVE ( 'NONE', #269, #368, #312, .T. ) ;
#51 = APPLICATION_CONTEXT ( 'configuration controlled 3d designs of mechanical parts and assemblies' ) ;
#52 = CARTESIAN_POINT ( 'NONE',  ( 0.000000000000000000, 0.000000000000000000, 155.0000000000000000 ) ) ;
#53 = ORIENTED_EDGE ( 'NONE', *, *, #304, .T. ) ;
#54 = DIRECTION ( 'NONE',  ( 0.000000000000000000, -1.000000000000000000, 0.000000000000000000 ) ) ;
#55 = ORIENTED_EDGE ( 'NONE', *, *, #10, .F. ) ;
#56 = CIRCLE ( 'NONE', #25, 4.500000000000000888 ) ;
#57 = EDGE_LOOP ( 'NONE', ( #359, #40 ) ) ;
#58 = CYLINDRICAL_SURFACE ( 'NONE', #92, 2.600000000000000089 ) ;
#59 = ADVANCED_FACE ( 'NONE', ( #162, #179 ), #39, .F. ) ;
#60 = CARTESIAN_POINT ( 'NONE',  ( 4.000000000000000000, 4.898587196589412829E-16, 5.500000000000005329 ) ) ;
#61 = PERSON_AND_ORGANIZATION_ROLE ( 'classification_officer' ) ;
#62 = ORIENTED_EDGE ( 'NONE', *, *, #148, .T. ) ;
#63 = COORDINATED_UNIVERSAL_TIME_OFFSET ( 1, 0, .AHEAD. ) ;
#64 = DIRECTION ( 'NONE',  ( 1.000000000000000000, 0.000000000000000000, 0.000000000000000000 ) ) ;
#65 = APPLICATION_PROTOCOL_DEFINITION ( 'international standard', 'config_control_design', 1994, #113 ) ;
#66 = CIRCLE ( 'NONE', #120, 7.000000000000000000 ) ;
#67 = DIRECTION ( 'NONE',  ( -0.000000000000000000, -0.000000000000000000, -1.000000000000000000 ) ) ;
#68 = CC_DESIGN_DATE_AND_TIME_ASSIGNMENT ( #38, #332, ( #210 ) ) ;
#69 = EDGE_LOOP ( 'NONE', ( #281, #284, #72, #85 ) ) ;
#70 = CC_DESIGN_DATE_AND_TIME_ASSIGNMENT ( #183, #217, ( #75 ) ) ;
#71 = APPROVAL_ROLE ( '' ) ;
#72 = ORIENTED_EDGE ( 'NONE', *, *, #124, .T. ) ;
#73 = CARTESIAN_POINT ( 'NONE',  ( -7.000000000000000000, 0.000000000000000000, 5.000000000000000000 ) ) ;
#74 = VECTOR ( 'NONE', #379, 1000.000000000000000 ) ;
#75 = SECURITY_CLASSIFICATION ( '', '', #8 ) ;
#76 = EDGE_CURVE ( 'NONE', #167, #196, #275, .T. ) ;
#77 = DIRECTION ( 'NONE',  ( 0.000000000000000000, 0.000000000000000000, 1.000000000000000000 ) ) ;
#78 = CARTESIAN_POINT ( 'NONE',  ( -7.000000000000000000, 0.000000000000000000, 0.000000000000000000 ) ) ;
#79 = CARTESIAN_POINT ( 'NONE',  ( 0.000000000000000000, 0.000000000000000000, 155.0000000000000000 ) ) ;
#80 = EDGE_CURVE ( 'NONE', #216, #375, #32, .T. ) ;
#81 = VECTOR ( 'NONE', #335, 1000.000000000000000 ) ;
#82 = AXIS2_PLACEMENT_3D ( 'NONE', #181, #266, #14 ) ;
#83 = CARTESIAN_POINT ( 'NONE',  ( 0.000000000000000000, 0.000000000000000000, 5.500000000000005329 ) ) ;
#84 = ORIENTED_EDGE ( 'NONE', *, *, #270, .F. ) ;
#85 = ORIENTED_EDGE ( 'NONE', *, *, #148, .F. ) ;
#86 = CIRCLE ( 'NONE', #301, 7.000000000000000000 ) ;
#87 = ADVANCED_FACE ( 'NONE', ( #156 ), #248, .T. ) ;
#88 = DIRECTION ( 'NONE',  ( -1.000000000000000000, 0.000000000000000000, 0.000000000000000000 ) ) ;
#89 = CARTESIAN_POINT ( 'NONE',  ( 0.000000000000000000, 0.000000000000000000, 0.000000000000000000 ) ) ;
#90 = FACE_OUTER_BOUND ( 'NONE', #318, .T. ) ;
#91 = ADVANCED_FACE ( 'NONE', ( #193 ), #164, .F. ) ;
#92 = AXIS2_PLACEMENT_3D ( 'NONE', #172, #230, #294 ) ;
#93 = ORIENTED_EDGE ( 'NONE', *, *, #50, .F. ) ;
#94 = MECHANICAL_CONTEXT ( 'NONE', #51, 'mechanical' ) ;
#95 = CARTESIAN_POINT ( 'NONE',  ( 0.000000000000000000, 0.000000000000000000, 0.000000000000000000 ) ) ;
#96 = ORIENTED_EDGE ( 'NONE', *, *, #277, .T. ) ;
#97 = APPROVAL_DATE_TIME ( #1, #205 ) ;
#98 = AXIS2_PLACEMENT_3D ( 'NONE', #165, #192, #108 ) ;
#99 = EDGE_LOOP ( 'NONE', ( #169, #252, #273, #198 ) ) ;
#100 = PERSON_AND_ORGANIZATION ( #374, #319 ) ;
#101 = EDGE_LOOP ( 'NONE', ( #20, #257 ) ) ;
#102 = CARTESIAN_POINT ( 'NONE',  ( 0.000000000000000000, 0.000000000000000000, 0.000000000000000000 ) ) ;
#103 = CARTESIAN_POINT ( 'NONE',  ( 0.000000000000000000, 0.000000000000000000, 5.000000000000000000 ) ) ;
#104 = DIRECTION ( 'NONE',  ( 0.000000000000000000, 0.000000000000000000, -1.000000000000000000 ) ) ;
#105 = EDGE_CURVE ( 'NONE', #18, #216, #313, .T. ) ;
#106 = DIRECTION ( 'NONE',  ( 0.000000000000000000, 0.000000000000000000, 1.000000000000000000 ) ) ;
#107 = ORIENTED_EDGE ( 'NONE', *, *, #329, .F. ) ;
#108 = DIRECTION ( 'NONE',  ( 1.000000000000000000, 0.000000000000000000, 0.000000000000000000 ) ) ;
#109 = PRODUCT ( '1566', '1566', '', ( #94 ) ) ;
#110 = AXIS2_PLACEMENT_3D ( 'NONE', #219, #42, #21 ) ;
#111 = FACE_BOUND ( 'NONE', #3, .T. ) ;
#112 = CARTESIAN_POINT ( 'NONE',  ( 0.000000000000000000, 0.000000000000000000, 5.000000000000000000 ) ) ;
#113 = APPLICATION_CONTEXT ( 'configuration controlled 3d designs of mechanical parts and assemblies' ) ;
#114 = AXIS2_PLACEMENT_3D ( 'NONE', #116, #54, #206 ) ;
#115 = DIRECTION ( 'NONE',  ( 0.000000000000000000, 0.000000000000000000, -1.000000000000000000 ) ) ;
#116 = CARTESIAN_POINT ( 'NONE',  ( 4.500000000000000888, 0.000000000000000000, 5.500000000000005329 ) ) ;
#117 = ADVANCED_FACE ( 'NONE', ( #336 ), #182, .F. ) ;
#118 = APPROVAL_STATUS ( 'not_yet_approved' ) ;
#119 = VERTEX_POINT ( 'NONE', #197 ) ;
#120 = AXIS2_PLACEMENT_3D ( 'NONE', #251, #106, #365 ) ;
#121 = PERSON_AND_ORGANIZATION ( #374, #319 ) ;
#122 = DIRECTION ( 'NONE',  ( 0.000000000000000000, 0.000000000000000000, 1.000000000000000000 ) ) ;
#123 = DIRECTION ( 'NONE',  ( 0.000000000000000000, 0.000000000000000000, 1.000000000000000000 ) ) ;
#124 = EDGE_CURVE ( 'NONE', #368, #269, #324, .T. ) ;
#125 = DIRECTION ( 'NONE',  ( 1.000000000000000000, 0.000000000000000000, 0.000000000000000000 ) ) ;
#126 = COORDINATED_UNIVERSAL_TIME_OFFSET ( 1, 0, .AHEAD. ) ;
#127 = CC_DESIGN_APPROVAL ( #234, ( #75 ) ) ;
#128 = ORIENTED_EDGE ( 'NONE', *, *, #80, .T. ) ;
#129 = DIRECTION ( 'NONE',  ( 1.000000000000000000, 0.000000000000000000, 0.000000000000000000 ) ) ;
#130 = EDGE_CURVE ( 'NONE', #196, #350, #378, .T. ) ;
#131 = DIRECTION ( 'NONE',  ( -1.000000000000000000, 0.000000000000000000, 0.000000000000000000 ) ) ;
#132 = LINE ( 'NONE', #222, #208 ) ;
#133 = AXIS2_PLACEMENT_3D ( 'NONE', #7, #67, #184 ) ;
#134 = CC_DESIGN_SECURITY_CLASSIFICATION ( #75, ( #296 ) ) ;
#135 = CC_DESIGN_PERSON_AND_ORGANIZATION_ASSIGNMENT ( #121, #178, ( #210 ) ) ;
#136 = DIRECTION ( 'NONE',  ( -1.000000000000000000, 0.000000000000000000, 0.000000000000000000 ) ) ;
#137 = EDGE_LOOP ( 'NONE', ( #292, #342, #325, #327 ) ) ;
#138 = PRODUCT_RELATED_PRODUCT_CATEGORY ( 'detail', '', ( #109 ) ) ;
#139 = DIRECTION ( 'NONE',  ( 1.000000000000000000, 0.000000000000000000, 0.000000000000000000 ) ) ;
#140 = ORIENTED_EDGE ( 'NONE', *, *, #10, .T. ) ;
#141 = LINE ( 'NONE', #204, #331 ) ;
#142 = AXIS2_PLACEMENT_3D ( 'NONE', #199, #373, #317 ) ;
#143 = EDGE_LOOP ( 'NONE', ( #321, #187 ) ) ;
#144 = CARTESIAN_POINT ( 'NONE',  ( -4.500000000000000888, 5.510910596163088569E-16, 5.000000000000002665 ) ) ;
#145 = ADVANCED_FACE ( 'NONE', ( #315, #309 ), #163, .T. ) ;
#146 = ORIENTED_EDGE ( 'NONE', *, *, #329, .T. ) ;
#147 = DIRECTION ( 'NONE',  ( 1.000000000000000000, 0.000000000000000000, 0.000000000000000000 ) ) ;
#148 = EDGE_CURVE ( 'NONE', #238, #269, #132, .T. ) ;
#149 = ADVANCED_BREP_SHAPE_REPRESENTATION ( '1566', ( #200, #142 ), #13 ) ;
#150 = CARTESIAN_POINT ( 'NONE',  ( 4.000000000000000000, 4.898587196589412829E-16, 155.0000000000000000 ) ) ;
#151 = DIRECTION ( 'NONE',  ( 0.000000000000000000, 0.000000000000000000, 1.000000000000000000 ) ) ;
#152 = CC_DESIGN_PERSON_AND_ORGANIZATION_ASSIGNMENT ( #155, #213, ( #296 ) ) ;
#153 = DIRECTION ( 'NONE',  ( 0.000000000000000000, 0.000000000000000000, 1.000000000000000000 ) ) ;
#154 = AXIS2_PLACEMENT_3D ( 'NONE', #158, #122, #64 ) ;
#155 = PERSON_AND_ORGANIZATION ( #374, #319 ) ;
#156 = FACE_OUTER_BOUND ( 'NONE', #69, .T. ) ;
#157 = EDGE_CURVE ( 'NONE', #254, #167, #86, .T. ) ;
#158 = CARTESIAN_POINT ( 'NONE',  ( 0.000000000000000000, 0.000000000000000000, 155.0000000000000000 ) ) ;
#159 = ORIENTED_EDGE ( 'NONE', *, *, #105, .T. ) ;
#160 = CIRCLE ( 'NONE', #110, 0.5000000000000004441 ) ;
#161 = CC_DESIGN_APPROVAL ( #377, ( #296 ) ) ;
#162 = FACE_BOUND ( 'NONE', #57, .T. ) ;
#163 = PLANE ( 'NONE',  #239 ) ;
#164 = CYLINDRICAL_SURFACE ( 'NONE', #166, 2.600000000000000089 ) ;
#165 = CARTESIAN_POINT ( 'NONE',  ( 0.000000000000000000, 0.000000000000000000, 5.000000000000000000 ) ) ;
#166 = AXIS2_PLACEMENT_3D ( 'NONE', #364, #104, #253 ) ;
#167 = VERTEX_POINT ( 'NONE', #73 ) ;
#168 = DIRECTION ( 'NONE',  ( 1.000000000000000000, 0.000000000000000000, 0.000000000000000000 ) ) ;
#169 = ORIENTED_EDGE ( 'NONE', *, *, #157, .F. ) ;
#170 = DIRECTION ( 'NONE',  ( 0.000000000000000000, 0.000000000000000000, 1.000000000000000000 ) ) ;
#171 = EDGE_LOOP ( 'NONE', ( #214, #28 ) ) ;
#172 = CARTESIAN_POINT ( 'NONE',  ( 0.000000000000000000, 0.000000000000000000, 155.0000000000000000 ) ) ;
#173 = LOCAL_TIME ( 17, 9, 47.00000000000000000, #271 ) ;
#174 = EDGE_LOOP ( 'NONE', ( #358, #53 ) ) ;
#175 = CARTESIAN_POINT ( 'NONE',  ( 0.000000000000000000, 0.000000000000000000, 155.0000000000000000 ) ) ;
#176 = CARTESIAN_POINT ( 'NONE',  ( 7.000000000000000000, 8.572527594031473190E-16, 5.000000000000000000 ) ) ;
#177 =( NAMED_UNIT ( * ) SI_UNIT ( $, .STERADIAN. ) SOLID_ANGLE_UNIT ( ) );
#178 = PERSON_AND_ORGANIZATION_ROLE ( 'creator' ) ;
#179 = FACE_OUTER_BOUND ( 'NONE', #171, .T. ) ;
#180 = PERSON_AND_ORGANIZATION ( #374, #319 ) ;
#181 = CARTESIAN_POINT ( 'NONE',  ( 0.000000000000000000, 0.000000000000000000, 0.000000000000000000 ) ) ;
#182 = TOROIDAL_SURFACE ( 'NONE', #295, 4.500000000000000888, 0.5000000000000000000 ) ;
#183 = DATE_AND_TIME ( #326, #203 ) ;
#184 = DIRECTION ( 'NONE',  ( -1.000000000000000000, 0.000000000000000000, 0.000000000000000000 ) ) ;
#185 = EDGE_CURVE ( 'NONE', #269, #314, #160, .T. ) ;
#186 = APPROVAL_ROLE ( '' ) ;
#187 = ORIENTED_EDGE ( 'NONE', *, *, #157, .T. ) ;
#188 = DESIGN_CONTEXT ( 'detailed design', #113, 'design' ) ;
#189 = AXIS2_PLACEMENT_3D ( 'NONE', #175, #347, #88 ) ;
#190 = CARTESIAN_POINT ( 'NONE',  ( 2.600000000000000089, 3.184081677783118191E-16, 155.0000000000000000 ) ) ;
#191 = CARTESIAN_POINT ( 'NONE',  ( 4.500000000000000888, 0.000000000000000000, 5.000000000000002665 ) ) ;
#192 = DIRECTION ( 'NONE',  ( -0.000000000000000000, -0.000000000000000000, -1.000000000000000000 ) ) ;
#193 = FACE_OUTER_BOUND ( 'NONE', #23, .T. ) ;
#194 = CIRCLE ( 'NONE', #215, 2.600000000000000089 ) ;
#195 = CC_DESIGN_APPROVAL ( #205, ( #210 ) ) ;
#196 = VERTEX_POINT ( 'NONE', #78 ) ;
#197 = CARTESIAN_POINT ( 'NONE',  ( -2.600000000000000089, 0.000000000000000000, 155.0000000000000000 ) ) ;
#198 = ORIENTED_EDGE ( 'NONE', *, *, #76, .F. ) ;
#199 = CARTESIAN_POINT ( 'NONE',  ( 0.000000000000000000, 0.000000000000000000, 0.000000000000000000 ) ) ;
#200 = MANIFOLD_SOLID_BREP ( 'Odebrat vysunutím3', #362 ) ;
#201 = APPLICATION_PROTOCOL_DEFINITION ( 'international standard', 'config_control_design', 1994, #51 ) ;
#202 = CIRCLE ( 'NONE', #154, 2.600000000000000089 ) ;
#203 = LOCAL_TIME ( 17, 9, 47.00000000000000000, #357 ) ;
#204 = CARTESIAN_POINT ( 'NONE',  ( -2.600000000000000089, 0.000000000000000000, 155.0000000000000000 ) ) ;
#205 = APPROVAL ( #306, 'NEURÈENÝ' ) ;
#206 = DIRECTION ( 'NONE',  ( 0.000000000000000000, 0.000000000000000000, -1.000000000000000000 ) ) ;
#207 = CARTESIAN_POINT ( 'NONE',  ( 7.000000000000000000, 8.572527594031473190E-16, 0.000000000000000000 ) ) ;
#208 = VECTOR ( 'NONE', #338, 1000.000000000000000 ) ;
#209 = ORIENTED_EDGE ( 'NONE', *, *, #304, .F. ) ;
#210 = PRODUCT_DEFINITION ( 'NEZNÁMÝ', '', #296, #188 ) ;
#211 = DATE_AND_TIME ( #246, #221 ) ;
#212 = ORIENTED_EDGE ( 'NONE', *, *, #185, .F. ) ;
#213 = PERSON_AND_ORGANIZATION_ROLE ( 'design_supplier' ) ;
#214 = ORIENTED_EDGE ( 'NONE', *, *, #130, .F. ) ;
#215 = AXIS2_PLACEMENT_3D ( 'NONE', #89, #263, #322 ) ;
#216 = VERTEX_POINT ( 'NONE', #276 ) ;
#217 = DATE_TIME_ROLE ( 'classification_date' ) ;
#218 = CARTESIAN_POINT ( 'NONE',  ( -7.000000000000000000, 0.000000000000000000, 5.000000000000000000 ) ) ;
#219 = CARTESIAN_POINT ( 'NONE',  ( -4.500000000000000888, 5.510910596163089556E-16, 5.500000000000005329 ) ) ;
#220 = VECTOR ( 'NONE', #289, 1000.000000000000000 ) ;
#221 = LOCAL_TIME ( 17, 9, 47.00000000000000000, #126 ) ;
#222 = CARTESIAN_POINT ( 'NONE',  ( -4.000000000000000000, 0.000000000000000000, 155.0000000000000000 ) ) ;
#223 = ADVANCED_FACE ( 'NONE', ( #15 ), #49, .T. ) ;
#224 = DIRECTION ( 'NONE',  ( 0.000000000000000000, 0.000000000000000000, -1.000000000000000000 ) ) ;
#225 = DIRECTION ( 'NONE',  ( 1.000000000000000000, 0.000000000000000000, -0.000000000000000000 ) ) ;
#226 = ORIENTED_EDGE ( 'NONE', *, *, #50, .T. ) ;
#227 = CARTESIAN_POINT ( 'NONE',  ( -4.000000000000000000, 0.000000000000000000, 5.500000000000005329 ) ) ;
#228 = EDGE_CURVE ( 'NONE', #247, #314, #245, .T. ) ;
#229 = LINE ( 'NONE', #150, #220 ) ;
#230 = DIRECTION ( 'NONE',  ( 0.000000000000000000, 0.000000000000000000, -1.000000000000000000 ) ) ;
#231 = CYLINDRICAL_SURFACE ( 'NONE', #189, 4.000000000000000000 ) ;
#232 = AXIS2_PLACEMENT_3D ( 'NONE', #367, #45, #136 ) ;
#233 =( LENGTH_UNIT ( ) NAMED_UNIT ( * ) SI_UNIT ( .MILLI., .METRE. ) );
#234 = APPROVAL ( #351, 'NEURÈENÝ' ) ;
#235 = PRODUCT_DEFINITION_SHAPE ( 'NONE', 'NONE',  #210 ) ;
#236 =( NAMED_UNIT ( * ) PLANE_ANGLE_UNIT ( ) SI_UNIT ( $, .RADIAN. ) );
#237 = SHAPE_DEFINITION_REPRESENTATION ( #235, #149 ) ;
#238 = VERTEX_POINT ( 'NONE', #280 ) ;
#239 = AXIS2_PLACEMENT_3D ( 'NONE', #103, #16, #225 ) ;
#240 = APPROVAL_DATE_TIME ( #211, #377 ) ;
#241 = ORIENTED_EDGE ( 'NONE', *, *, #310, .F. ) ;
#242 = DIRECTION ( 'NONE',  ( 0.000000000000000000, 0.000000000000000000, 1.000000000000000000 ) ) ;
#243 = CARTESIAN_POINT ( 'NONE',  ( 0.000000000000000000, 0.000000000000000000, 5.500000000000005329 ) ) ;
#244 = TOROIDAL_SURFACE ( 'NONE', #279, 4.500000000000000888, 0.5000000000000000000 ) ;
#245 = CIRCLE ( 'NONE', #98, 4.500000000000000888 ) ;
#246 = CALENDAR_DATE ( 2022, 8, 7 ) ;
#247 = VERTEX_POINT ( 'NONE', #191 ) ;
#248 = CYLINDRICAL_SURFACE ( 'NONE', #46, 4.000000000000000000 ) ;
#249 = EDGE_CURVE ( 'NONE', #350, #196, #66, .T. ) ;
#250 = CIRCLE ( 'NONE', #363, 7.000000000000000000 ) ;
#251 = CARTESIAN_POINT ( 'NONE',  ( 0.000000000000000000, 0.000000000000000000, 0.000000000000000000 ) ) ;
#252 = ORIENTED_EDGE ( 'NONE', *, *, #345, .T. ) ;
#253 = DIRECTION ( 'NONE',  ( -1.000000000000000000, 0.000000000000000000, 0.000000000000000000 ) ) ;
#254 = VERTEX_POINT ( 'NONE', #341 ) ;
#255 = AXIS2_PLACEMENT_3D ( 'NONE', #52, #170, #287 ) ;
#256 = CARTESIAN_POINT ( 'NONE',  ( 0.000000000000000000, 0.000000000000000000, 5.000000000000000000 ) ) ;
#257 = ORIENTED_EDGE ( 'NONE', *, *, #44, .T. ) ;
#258 = FACE_OUTER_BOUND ( 'NONE', #101, .T. ) ;
#259 = ORIENTED_EDGE ( 'NONE', *, *, #282, .T. ) ;
#260 = CARTESIAN_POINT ( 'NONE',  ( 0.000000000000000000, 0.000000000000000000, 155.0000000000000000 ) ) ;
#261 = DIRECTION ( 'NONE',  ( 1.000000000000000000, 0.000000000000000000, -0.000000000000000000 ) ) ;
#262 = AXIS2_PLACEMENT_3D ( 'NONE', #102, #340, #278 ) ;
#263 = DIRECTION ( 'NONE',  ( -0.000000000000000000, -0.000000000000000000, -1.000000000000000000 ) ) ;
#264 = COORDINATED_UNIVERSAL_TIME_OFFSET ( 1, 0, .AHEAD. ) ;
#265 = EDGE_CURVE ( 'NONE', #238, #330, #369, .T. ) ;
#266 = DIRECTION ( 'NONE',  ( -0.000000000000000000, -0.000000000000000000, -1.000000000000000000 ) ) ;
#267 = AXIS2_PLACEMENT_3D ( 'NONE', #95, #30, #12 ) ;
#268 = PERSON_AND_ORGANIZATION_ROLE ( 'design_owner' ) ;
#269 = VERTEX_POINT ( 'NONE', #227 ) ;
#270 = EDGE_CURVE ( 'NONE', #18, #119, #337, .T. ) ;
#271 = COORDINATED_UNIVERSAL_TIME_OFFSET ( 1, 0, .AHEAD. ) ;
#272 = CARTESIAN_POINT ( 'NONE',  ( 2.600000000000000089, 3.184081677783118191E-16, 155.0000000000000000 ) ) ;
#273 = ORIENTED_EDGE ( 'NONE', *, *, #249, .T. ) ;
#274 = AXIS2_PLACEMENT_3D ( 'NONE', #243, #242, #305 ) ;
#275 = LINE ( 'NONE', #218, #81 ) ;
#276 = CARTESIAN_POINT ( 'NONE',  ( 2.600000000000000089, 3.184081677783118191E-16, 0.000000000000000000 ) ) ;
#277 = EDGE_CURVE ( 'NONE', #119, #375, #141, .T. ) ;
#278 = DIRECTION ( 'NONE',  ( 1.000000000000000000, 0.000000000000000000, 0.000000000000000000 ) ) ;
#279 = AXIS2_PLACEMENT_3D ( 'NONE', #323, #24, #147 ) ;
#280 = CARTESIAN_POINT ( 'NONE',  ( -4.000000000000000000, 0.000000000000000000, 155.0000000000000000 ) ) ;
#281 = ORIENTED_EDGE ( 'NONE', *, *, #44, .F. ) ;
#282 = EDGE_CURVE ( 'NONE', #375, #216, #194, .T. ) ;
#283 = DIRECTION ( 'NONE',  ( 0.000000000000000000, 0.000000000000000000, 1.000000000000000000 ) ) ;
#284 = ORIENTED_EDGE ( 'NONE', *, *, #310, .T. ) ;
#285 = CC_DESIGN_PERSON_AND_ORGANIZATION_ASSIGNMENT ( #381, #61, ( #75 ) ) ;
#286 = CC_DESIGN_PERSON_AND_ORGANIZATION_ASSIGNMENT ( #31, #334, ( #296 ) ) ;
#287 = DIRECTION ( 'NONE',  ( 1.000000000000000000, 0.000000000000000000, 0.000000000000000000 ) ) ;
#288 = AXIS2_PLACEMENT_3D ( 'NONE', #83, #308, #139 ) ;
#289 = DIRECTION ( 'NONE',  ( -0.000000000000000000, -0.000000000000000000, -1.000000000000000000 ) ) ;
#290 = FACE_OUTER_BOUND ( 'NONE', #311, .T. ) ;
#291 = ADVANCED_FACE ( 'NONE', ( #293 ), #58, .F. ) ;
#292 = ORIENTED_EDGE ( 'NONE', *, *, #345, .F. ) ;
#293 = FACE_OUTER_BOUND ( 'NONE', #36, .T. ) ;
#294 = DIRECTION ( 'NONE',  ( -1.000000000000000000, 0.000000000000000000, 0.000000000000000000 ) ) ;
#295 = AXIS2_PLACEMENT_3D ( 'NONE', #344, #361, #168 ) ;
#296 = PRODUCT_DEFINITION_FORMATION_WITH_SPECIFIED_SOURCE ( 'LIBOVOLNÝ', '', #109, .NOT_KNOWN. ) ;
#297 = PERSON_AND_ORGANIZATION ( #374, #319 ) ;
#298 = CARTESIAN_POINT ( 'NONE',  ( 0.000000000000000000, 0.000000000000000000, 155.0000000000000000 ) ) ;
#299 = CALENDAR_DATE ( 2022, 8, 7 ) ;
#300 = ORIENTED_EDGE ( 'NONE', *, *, #185, .T. ) ;
#301 = AXIS2_PLACEMENT_3D ( 'NONE', #256, #77, #17 ) ;
#302 = CALENDAR_DATE ( 2022, 8, 7 ) ;
#303 = ORIENTED_EDGE ( 'NONE', *, *, #265, .F. ) ;
#304 = EDGE_CURVE ( 'NONE', #314, #247, #56, .T. ) ;
#305 = DIRECTION ( 'NONE',  ( 1.000000000000000000, 0.000000000000000000, 0.000000000000000000 ) ) ;
#306 = APPROVAL_STATUS ( 'not_yet_approved' ) ;
#307 = ORIENTED_EDGE ( 'NONE', *, *, #228, .F. ) ;
#308 = DIRECTION ( 'NONE',  ( 0.000000000000000000, 0.000000000000000000, 1.000000000000000000 ) ) ;
#309 = FACE_OUTER_BOUND ( 'NONE', #143, .T. ) ;
#310 = EDGE_CURVE ( 'NONE', #330, #368, #229, .T. ) ;
#311 = EDGE_LOOP ( 'NONE', ( #93, #300, #307, #107 ) ) ;
#312 = CIRCLE ( 'NONE', #274, 4.000000000000000000 ) ;
#313 = LINE ( 'NONE', #190, #349 ) ;
#314 = VERTEX_POINT ( 'NONE', #144 ) ;
#315 = FACE_BOUND ( 'NONE', #174, .T. ) ;
#316 = ORIENTED_EDGE ( 'NONE', *, *, #124, .F. ) ;
#317 = DIRECTION ( 'NONE',  ( 1.000000000000000000, 0.000000000000000000, 0.000000000000000000 ) ) ;
#318 = EDGE_LOOP ( 'NONE', ( #241, #303, #62, #226 ) ) ;
#319 = ORGANIZATION ( 'NEURÈENÝ', 'NEURÈENÝ', '' ) ;
#320 = DIRECTION ( 'NONE',  ( 1.000000000000000000, 0.000000000000000000, 0.000000000000000000 ) ) ;
#321 = ORIENTED_EDGE ( 'NONE', *, *, #29, .T. ) ;
#322 = DIRECTION ( 'NONE',  ( 1.000000000000000000, 0.000000000000000000, 0.000000000000000000 ) ) ;
#323 = CARTESIAN_POINT ( 'NONE',  ( 0.000000000000000000, 0.000000000000000000, 5.500000000000005329 ) ) ;
#324 = CIRCLE ( 'NONE', #288, 4.000000000000000000 ) ;
#325 = ORIENTED_EDGE ( 'NONE', *, *, #76, .T. ) ;
#326 = CALENDAR_DATE ( 2022, 8, 7 ) ;
#327 = ORIENTED_EDGE ( 'NONE', *, *, #130, .T. ) ;
#328 = PERSON_AND_ORGANIZATION ( #374, #319 ) ;
#329 = EDGE_CURVE ( 'NONE', #368, #247, #2, .T. ) ;
#330 = VERTEX_POINT ( 'NONE', #380 ) ;
#331 = VECTOR ( 'NONE', #115, 1000.000000000000000 ) ;
#332 = DATE_TIME_ROLE ( 'creation_date' ) ;
#333 = EDGE_LOOP ( 'NONE', ( #212, #316, #146, #209 ) ) ;
#334 = PERSON_AND_ORGANIZATION_ROLE ( 'creator' ) ;
#335 = DIRECTION ( 'NONE',  ( -0.000000000000000000, -0.000000000000000000, -1.000000000000000000 ) ) ;
#336 = FACE_OUTER_BOUND ( 'NONE', #333, .T. ) ;
#337 = CIRCLE ( 'NONE', #255, 2.600000000000000089 ) ;
#338 = DIRECTION ( 'NONE',  ( -0.000000000000000000, -0.000000000000000000, -1.000000000000000000 ) ) ;
#339 = ADVANCED_FACE ( 'NONE', ( #90 ), #231, .T. ) ;
#340 = DIRECTION ( 'NONE',  ( 0.000000000000000000, 0.000000000000000000, 1.000000000000000000 ) ) ;
#341 = CARTESIAN_POINT ( 'NONE',  ( 7.000000000000000000, 8.572527594031473190E-16, 5.000000000000000000 ) ) ;
#342 = ORIENTED_EDGE ( 'NONE', *, *, #29, .F. ) ;
#343 = AXIS2_PLACEMENT_3D ( 'NONE', #260, #151, #261 ) ;
#344 = CARTESIAN_POINT ( 'NONE',  ( 0.000000000000000000, 0.000000000000000000, 5.500000000000005329 ) ) ;
#345 = EDGE_CURVE ( 'NONE', #254, #350, #22, .T. ) ;
#346 = AXIS2_PLACEMENT_3D ( 'NONE', #298, #123, #125 ) ;
#347 = DIRECTION ( 'NONE',  ( -0.000000000000000000, -0.000000000000000000, -1.000000000000000000 ) ) ;
#348 = ADVANCED_FACE ( 'NONE', ( #290 ), #244, .F. ) ;
#349 = VECTOR ( 'NONE', #224, 1000.000000000000000 ) ;
#350 = VERTEX_POINT ( 'NONE', #207 ) ;
#351 = APPROVAL_STATUS ( 'not_yet_approved' ) ;
#352 = CYLINDRICAL_SURFACE ( 'NONE', #133, 7.000000000000000000 ) ;
#353 = CARTESIAN_POINT ( 'NONE',  ( 0.000000000000000000, 0.000000000000000000, 155.0000000000000000 ) ) ;
#354 = APPROVAL_ROLE ( '' ) ;
#355 = ORIENTED_EDGE ( 'NONE', *, *, #105, .F. ) ;
#356 = CIRCLE ( 'NONE', #346, 4.000000000000000000 ) ;
#357 = COORDINATED_UNIVERSAL_TIME_OFFSET ( 1, 0, .AHEAD. ) ;
#358 = ORIENTED_EDGE ( 'NONE', *, *, #228, .T. ) ;
#359 = ORIENTED_EDGE ( 'NONE', *, *, #282, .F. ) ;
#360 = UNCERTAINTY_MEASURE_WITH_UNIT (LENGTH_MEASURE( 1.000000000000000082E-05 ), #233, 'distance_accuracy_value', 'NONE');
#361 = DIRECTION ( 'NONE',  ( 0.000000000000000000, 0.000000000000000000, 1.000000000000000000 ) ) ;
#362 = CLOSED_SHELL ( 'NONE', ( #91, #348, #87, #37, #223, #145, #59, #339, #372, #117, #291 ) ) ;
#363 = AXIS2_PLACEMENT_3D ( 'NONE', #9, #153, #129 ) ;
#364 = CARTESIAN_POINT ( 'NONE',  ( 0.000000000000000000, 0.000000000000000000, 155.0000000000000000 ) ) ;
#365 = DIRECTION ( 'NONE',  ( 1.000000000000000000, 0.000000000000000000, 0.000000000000000000 ) ) ;
#366 = ORIENTED_EDGE ( 'NONE', *, *, #277, .F. ) ;
#367 = CARTESIAN_POINT ( 'NONE',  ( 0.000000000000000000, 0.000000000000000000, 5.000000000000000000 ) ) ;
#368 = VERTEX_POINT ( 'NONE', #60 ) ;
#369 = CIRCLE ( 'NONE', #41, 4.000000000000000000 ) ;
#370 = LOCAL_TIME ( 17, 9, 47.00000000000000000, #63 ) ;
#371 = CARTESIAN_POINT ( 'NONE',  ( -2.600000000000000089, 0.000000000000000000, 0.000000000000000000 ) ) ;
#372 = ADVANCED_FACE ( 'NONE', ( #111, #258 ), #26, .T. ) ;
#373 = DIRECTION ( 'NONE',  ( 0.000000000000000000, 0.000000000000000000, 1.000000000000000000 ) ) ;
#374 = PERSON ( 'NEURÈENÝ', 'NEURÈENÝ', 'NEURÈENÝ', ('NEURÈENÝ'), ('NEURÈENÝ'), ('NEURÈENÝ') ) ;
#375 = VERTEX_POINT ( 'NONE', #371 ) ;
#376 = DIRECTION ( 'NONE',  ( -0.000000000000000000, -0.000000000000000000, -1.000000000000000000 ) ) ;
#377 = APPROVAL ( #118, 'NEURÈENÝ' ) ;
#378 = CIRCLE ( 'NONE', #262, 7.000000000000000000 ) ;
#379 = DIRECTION ( 'NONE',  ( -0.000000000000000000, -0.000000000000000000, -1.000000000000000000 ) ) ;
#380 = CARTESIAN_POINT ( 'NONE',  ( 4.000000000000000000, 4.898587196589412829E-16, 155.0000000000000000 ) ) ;
#381 = PERSON_AND_ORGANIZATION ( #374, #319 ) ;
ENDSEC;
END-ISO-10303-21;
