ISO-10303-21;
HEADER;
FILE_DESCRIPTION (( 'STEP AP203' ),
    '1' );
FILE_NAME ('4b57.STEP',
    '2022-07-08T15:36:34',
    ( '' ),
    ( '' ),
    'SwSTEP 2.0',
    'SolidWorks 2019',
    '' );
FILE_SCHEMA (( 'CONFIG_CONTROL_DESIGN' ));
ENDSEC;

DATA;
#1 = ORIENTED_EDGE ( 'NONE', *, *, #152, .F. ) ;
#2 = AXIS2_PLACEMENT_3D ( 'NONE', #343, #260, #45 ) ;
#3 = COORDINATED_UNIVERSAL_TIME_OFFSET ( 1, 0, .AHEAD. ) ;
#4 = APPROVAL ( #211, 'NEURÈENÝ' ) ;
#5 = EDGE_LOOP ( 'NONE', ( #213, #337, #333, #341 ) ) ;
#6 = DIRECTION ( 'NONE',  ( 0.000000000000000000, 0.000000000000000000, 1.000000000000000000 ) ) ;
#7 = CARTESIAN_POINT ( 'NONE',  ( 0.000000000000000000, 0.000000000000000000, 130.0000000000000000 ) ) ;
#8 = VERTEX_POINT ( 'NONE', #66 ) ;
#9 = DIRECTION ( 'NONE',  ( 0.000000000000000000, 0.000000000000000000, 1.000000000000000000 ) ) ;
#10 = AXIS2_PLACEMENT_3D ( 'NONE', #57, #345, #176 ) ;
#11 = ORIENTED_EDGE ( 'NONE', *, *, #282, .F. ) ;
#12 = CARTESIAN_POINT ( 'NONE',  ( 0.000000000000000000, 0.000000000000000000, 5.000000000000000000 ) ) ;
#13 = VERTEX_POINT ( 'NONE', #369 ) ;
#14 = DIRECTION ( 'NONE',  ( -1.000000000000000000, 0.000000000000000000, 0.000000000000000000 ) ) ;
#15 = DIRECTION ( 'NONE',  ( 0.000000000000000000, 0.000000000000000000, 1.000000000000000000 ) ) ;
#16 = CYLINDRICAL_SURFACE ( 'NONE', #98, 3.000000000000000444 ) ;
#17 = CARTESIAN_POINT ( 'NONE',  ( 2.000000000000000000, 2.449293598294706414E-16, 130.0000000000000000 ) ) ;
#18 = FACE_OUTER_BOUND ( 'NONE', #273, .T. ) ;
#19 = FACE_OUTER_BOUND ( 'NONE', #60, .T. ) ;
#20 = APPROVAL ( #100, 'NEURÈENÝ' ) ;
#21 = FACE_BOUND ( 'NONE', #242, .T. ) ;
#22 = AXIS2_PLACEMENT_3D ( 'NONE', #292, #200, #142 ) ;
#23 =( NAMED_UNIT ( * ) SI_UNIT ( $, .STERADIAN. ) SOLID_ANGLE_UNIT ( ) );
#24 = DIRECTION ( 'NONE',  ( 1.000000000000000000, 0.000000000000000000, 0.000000000000000000 ) ) ;
#25 = ADVANCED_FACE ( 'NONE', ( #186 ), #35, .T. ) ;
#26 = ORIENTED_EDGE ( 'NONE', *, *, #79, .T. ) ;
#27 = AXIS2_PLACEMENT_3D ( 'NONE', #274, #6, #243 ) ;
#28 = AXIS2_PLACEMENT_3D ( 'NONE', #324, #350, #141 ) ;
#29 = CIRCLE ( 'NONE', #268, 3.500000000000000444 ) ;
#30 = ORIENTED_EDGE ( 'NONE', *, *, #367, .F. ) ;
#31 = CALENDAR_DATE ( 2022, 8, 7 ) ;
#32 = PRODUCT_DEFINITION_SHAPE ( 'NONE', 'NONE',  #223 ) ;
#33 = CALENDAR_DATE ( 2022, 8, 7 ) ;
#34 = EDGE_CURVE ( 'NONE', #145, #13, #277, .T. ) ;
#35 = CYLINDRICAL_SURFACE ( 'NONE', #171, 6.000000000000000888 ) ;
#36 = CARTESIAN_POINT ( 'NONE',  ( 3.000000000000000444, 3.673940397442060361E-16, 130.0000000000000000 ) ) ;
#37 = ADVANCED_FACE ( 'NONE', ( #364 ), #161, .F. ) ;
#38 = CARTESIAN_POINT ( 'NONE',  ( 0.000000000000000000, 0.000000000000000000, 5.500000000000005329 ) ) ;
#39 = FACE_OUTER_BOUND ( 'NONE', #237, .T. ) ;
#40 = VERTEX_POINT ( 'NONE', #157 ) ;
#41 = CC_DESIGN_APPROVAL ( #20, ( #223 ) ) ;
#42 = TOROIDAL_SURFACE ( 'NONE', #205, 3.500000000000000444, 0.5000000000000000000 ) ;
#43 = FACE_BOUND ( 'NONE', #335, .T. ) ;
#44 = ORIENTED_EDGE ( 'NONE', *, *, #344, .T. ) ;
#45 = DIRECTION ( 'NONE',  ( 1.000000000000000000, 0.000000000000000000, 0.000000000000000000 ) ) ;
#46 = APPLICATION_CONTEXT ( 'configuration controlled 3d designs of mechanical parts and assemblies' ) ;
#47 = DIRECTION ( 'NONE',  ( -0.000000000000000000, -0.000000000000000000, -1.000000000000000000 ) ) ;
#48 = CIRCLE ( 'NONE', #247, 0.4999999999999995559 ) ;
#49 = FACE_OUTER_BOUND ( 'NONE', #129, .T. ) ;
#50 = AXIS2_PLACEMENT_3D ( 'NONE', #202, #230, #120 ) ;
#51 =( LENGTH_UNIT ( ) NAMED_UNIT ( * ) SI_UNIT ( .MILLI., .METRE. ) );
#52 = DIRECTION ( 'NONE',  ( 1.000000000000000000, 0.000000000000000000, 0.000000000000000000 ) ) ;
#53 = EDGE_CURVE ( 'NONE', #192, #70, #246, .T. ) ;
#54 = DIRECTION ( 'NONE',  ( 0.000000000000000000, 0.000000000000000000, -1.000000000000000000 ) ) ;
#55 = CYLINDRICAL_SURFACE ( 'NONE', #272, 3.000000000000000444 ) ;
#56 = CARTESIAN_POINT ( 'NONE',  ( -2.000000000000000000, 0.000000000000000000, 130.0000000000000000 ) ) ;
#57 = CARTESIAN_POINT ( 'NONE',  ( 3.500000000000000444, 0.000000000000000000, 5.500000000000005329 ) ) ;
#58 = EDGE_CURVE ( 'NONE', #8, #70, #296, .T. ) ;
#59 = PERSON_AND_ORGANIZATION ( #334, #236 ) ;
#60 = EDGE_LOOP ( 'NONE', ( #248, #298, #281, #315 ) ) ;
#61 = VECTOR ( 'NONE', #118, 1000.000000000000000 ) ;
#62 = PERSON_AND_ORGANIZATION ( #334, #236 ) ;
#63 = AXIS2_PLACEMENT_3D ( 'NONE', #336, #308, #159 ) ;
#64 = PERSON_AND_ORGANIZATION_ROLE ( 'design_supplier' ) ;
#65 = COORDINATED_UNIVERSAL_TIME_OFFSET ( 1, 0, .AHEAD. ) ;
#66 = CARTESIAN_POINT ( 'NONE',  ( -3.000000000000000444, 0.000000000000000000, 5.500000000000005329 ) ) ;
#67 = CC_DESIGN_PERSON_AND_ORGANIZATION_ASSIGNMENT ( #59, #295, ( #104 ) ) ;
#68 = DIRECTION ( 'NONE',  ( 1.000000000000000000, 0.000000000000000000, 0.000000000000000000 ) ) ;
#69 = LOCAL_TIME ( 17, 36, 34.00000000000000000, #3 ) ;
#70 = VERTEX_POINT ( 'NONE', #285 ) ;
#71 = CIRCLE ( 'NONE', #288, 2.000000000000000000 ) ;
#72 = UNCERTAINTY_MEASURE_WITH_UNIT (LENGTH_MEASURE( 1.000000000000000082E-05 ), #51, 'distance_accuracy_value', 'NONE');
#73 = FACE_OUTER_BOUND ( 'NONE', #239, .T. ) ;
#74 = PLANE ( 'NONE',  #314 ) ;
#75 = ORIENTED_EDGE ( 'NONE', *, *, #219, .F. ) ;
#76 = CIRCLE ( 'NONE', #311, 2.000000000000000000 ) ;
#77 = PLANE ( 'NONE',  #372 ) ;
#78 = ORIENTED_EDGE ( 'NONE', *, *, #34, .T. ) ;
#79 = EDGE_CURVE ( 'NONE', #370, #111, #76, .T. ) ;
#80 = DIRECTION ( 'NONE',  ( 1.000000000000000000, 0.000000000000000000, 0.000000000000000000 ) ) ;
#81 = CARTESIAN_POINT ( 'NONE',  ( 3.500000000000000444, 0.000000000000000000, 5.000000000000002665 ) ) ;
#82 = CARTESIAN_POINT ( 'NONE',  ( 6.000000000000000888, 7.347880794884120722E-16, 5.000000000000000000 ) ) ;
#83 = DIRECTION ( 'NONE',  ( 1.000000000000000000, 0.000000000000000000, 0.000000000000000000 ) ) ;
#84 = AXIS2_PLACEMENT_3D ( 'NONE', #38, #366, #275 ) ;
#85 = DIRECTION ( 'NONE',  ( 0.000000000000000000, 0.000000000000000000, 1.000000000000000000 ) ) ;
#86 = AXIS2_PLACEMENT_3D ( 'NONE', #365, #368, #128 ) ;
#87 = CARTESIAN_POINT ( 'NONE',  ( 0.000000000000000000, 0.000000000000000000, 130.0000000000000000 ) ) ;
#88 = APPLICATION_CONTEXT ( 'configuration controlled 3d designs of mechanical parts and assemblies' ) ;
#89 = EDGE_LOOP ( 'NONE', ( #214, #78 ) ) ;
#90 =( GEOMETRIC_REPRESENTATION_CONTEXT ( 3 ) GLOBAL_UNCERTAINTY_ASSIGNED_CONTEXT ( ( #72 ) ) GLOBAL_UNIT_ASSIGNED_CONTEXT ( ( #51, #255, #23 ) ) REPRESENTATION_CONTEXT ( 'NONE', 'WORKASPACE' ) );
#91 = PERSON_AND_ORGANIZATION_ROLE ( 'creator' ) ;
#92 = ORIENTED_EDGE ( 'NONE', *, *, #376, .T. ) ;
#93 = APPROVAL_DATE_TIME ( #354, #4 ) ;
#94 = ORIENTED_EDGE ( 'NONE', *, *, #53, .F. ) ;
#95 = DATE_AND_TIME ( #33, #286 ) ;
#96 = ORIENTED_EDGE ( 'NONE', *, *, #125, .T. ) ;
#97 = DATE_AND_TIME ( #31, #355 ) ;
#98 = AXIS2_PLACEMENT_3D ( 'NONE', #245, #137, #338 ) ;
#99 = VERTEX_POINT ( 'NONE', #258 ) ;
#100 = APPROVAL_STATUS ( 'not_yet_approved' ) ;
#101 = ORIENTED_EDGE ( 'NONE', *, *, #58, .F. ) ;
#102 = ADVANCED_FACE ( 'NONE', ( #19 ), #373, .T. ) ;
#103 = CARTESIAN_POINT ( 'NONE',  ( -3.500000000000000444, 4.286263797015737088E-16, 5.000000000000002665 ) ) ;
#104 = PRODUCT_DEFINITION_FORMATION_WITH_SPECIFIED_SOURCE ( 'LIBOVOLNÝ', '', #155, .NOT_KNOWN. ) ;
#105 = ORIENTED_EDGE ( 'NONE', *, *, #79, .F. ) ;
#106 = CIRCLE ( 'NONE', #149, 6.000000000000000888 ) ;
#107 = DIRECTION ( 'NONE',  ( 0.000000000000000000, 0.000000000000000000, 1.000000000000000000 ) ) ;
#108 = DIRECTION ( 'NONE',  ( -1.000000000000000000, 0.000000000000000000, 0.000000000000000000 ) ) ;
#109 = DIRECTION ( 'NONE',  ( -0.000000000000000000, -0.000000000000000000, -1.000000000000000000 ) ) ;
#110 = ADVANCED_FACE ( 'NONE', ( #170 ), #55, .T. ) ;
#111 = VERTEX_POINT ( 'NONE', #17 ) ;
#112 = LINE ( 'NONE', #199, #130 ) ;
#113 = CARTESIAN_POINT ( 'NONE',  ( 0.000000000000000000, 0.000000000000000000, 130.0000000000000000 ) ) ;
#114 = AXIS2_PLACEMENT_3D ( 'NONE', #119, #232, #291 ) ;
#115 = APPLICATION_PROTOCOL_DEFINITION ( 'international standard', 'config_control_design', 1994, #46 ) ;
#116 = DIRECTION ( 'NONE',  ( 1.000000000000000000, 0.000000000000000000, 0.000000000000000000 ) ) ;
#117 = APPROVAL ( #215, 'NEURÈENÝ' ) ;
#118 = DIRECTION ( 'NONE',  ( -0.000000000000000000, -0.000000000000000000, -1.000000000000000000 ) ) ;
#119 = CARTESIAN_POINT ( 'NONE',  ( 0.000000000000000000, 0.000000000000000000, 130.0000000000000000 ) ) ;
#120 = DIRECTION ( 'NONE',  ( 1.000000000000000000, 0.000000000000000000, 0.000000000000000000 ) ) ;
#121 = CIRCLE ( 'NONE', #305, 6.000000000000000888 ) ;
#122 = APPROVAL_ROLE ( '' ) ;
#123 = ORIENTED_EDGE ( 'NONE', *, *, #212, .F. ) ;
#124 = ORIENTED_EDGE ( 'NONE', *, *, #313, .F. ) ;
#125 = EDGE_CURVE ( 'NONE', #111, #370, #352, .T. ) ;
#126 = EDGE_LOOP ( 'NONE', ( #94, #11, #278, #178 ) ) ;
#127 = DIRECTION ( 'NONE',  ( -0.000000000000000000, -0.000000000000000000, -1.000000000000000000 ) ) ;
#128 = DIRECTION ( 'NONE',  ( 1.000000000000000000, 0.000000000000000000, 0.000000000000000000 ) ) ;
#129 = EDGE_LOOP ( 'NONE', ( #26, #309, #377, #164 ) ) ;
#130 = VECTOR ( 'NONE', #193, 1000.000000000000000 ) ;
#131 = CARTESIAN_POINT ( 'NONE',  ( -3.000000000000000444, 0.000000000000000000, 130.0000000000000000 ) ) ;
#132 = ORIENTED_EDGE ( 'NONE', *, *, #313, .T. ) ;
#133 = ADVANCED_FACE ( 'NONE', ( #49 ), #140, .F. ) ;
#134 = DIRECTION ( 'NONE',  ( 1.000000000000000000, 0.000000000000000000, -0.000000000000000000 ) ) ;
#135 = CARTESIAN_POINT ( 'NONE',  ( 0.000000000000000000, 0.000000000000000000, 0.000000000000000000 ) ) ;
#136 = DIRECTION ( 'NONE',  ( 1.224646799147353207E-16, 1.000000000000000000, -0.000000000000000000 ) ) ;
#137 = DIRECTION ( 'NONE',  ( -0.000000000000000000, -0.000000000000000000, -1.000000000000000000 ) ) ;
#138 = CARTESIAN_POINT ( 'NONE',  ( 0.000000000000000000, 0.000000000000000000, 130.0000000000000000 ) ) ;
#139 = EDGE_CURVE ( 'NONE', #8, #284, #48, .T. ) ;
#140 = CYLINDRICAL_SURFACE ( 'NONE', #114, 2.000000000000000000 ) ;
#141 = DIRECTION ( 'NONE',  ( 1.000000000000000000, 0.000000000000000000, -0.000000000000000000 ) ) ;
#142 = DIRECTION ( 'NONE',  ( -1.000000000000000000, 0.000000000000000000, 0.000000000000000000 ) ) ;
#143 = CC_DESIGN_APPROVAL ( #4, ( #104 ) ) ;
#144 = EDGE_CURVE ( 'NONE', #192, #294, #300, .T. ) ;
#145 = VERTEX_POINT ( 'NONE', #82 ) ;
#146 = PERSON_AND_ORGANIZATION ( #334, #236 ) ;
#147 = VERTEX_POINT ( 'NONE', #204 ) ;
#148 = PERSON_AND_ORGANIZATION ( #334, #236 ) ;
#149 = AXIS2_PLACEMENT_3D ( 'NONE', #173, #190, #80 ) ;
#150 = APPROVAL_DATE_TIME ( #97, #117 ) ;
#151 = APPROVAL_ROLE ( '' ) ;
#152 = EDGE_CURVE ( 'NONE', #70, #8, #153, .T. ) ;
#153 = CIRCLE ( 'NONE', #50, 3.000000000000000444 ) ;
#154 = CARTESIAN_POINT ( 'NONE',  ( 0.000000000000000000, 0.000000000000000000, 5.000000000000000000 ) ) ;
#155 = PRODUCT ( '4b57', '4b57', '', ( #172 ) ) ;
#156 = CARTESIAN_POINT ( 'NONE',  ( 0.000000000000000000, 0.000000000000000000, 0.000000000000000000 ) ) ;
#157 = CARTESIAN_POINT ( 'NONE',  ( 2.000000000000000000, 2.449293598294706414E-16, 0.000000000000000000 ) ) ;
#158 = DESIGN_CONTEXT ( 'detailed design', #88, 'design' ) ;
#159 = DIRECTION ( 'NONE',  ( 1.000000000000000000, 0.000000000000000000, 0.000000000000000000 ) ) ;
#160 = ORIENTED_EDGE ( 'NONE', *, *, #125, .F. ) ;
#161 = TOROIDAL_SURFACE ( 'NONE', #84, 3.500000000000000444, 0.5000000000000000000 ) ;
#162 = EDGE_CURVE ( 'NONE', #312, #284, #29, .T. ) ;
#163 = CARTESIAN_POINT ( 'NONE',  ( 0.000000000000000000, 0.000000000000000000, 130.0000000000000000 ) ) ;
#164 = ORIENTED_EDGE ( 'NONE', *, *, #344, .F. ) ;
#165 = AXIS2_PLACEMENT_3D ( 'NONE', #163, #280, #68 ) ;
#166 = DIRECTION ( 'NONE',  ( 0.000000000000000000, 0.000000000000000000, 1.000000000000000000 ) ) ;
#167 = ORIENTED_EDGE ( 'NONE', *, *, #162, .F. ) ;
#168 = DIRECTION ( 'NONE',  ( 0.000000000000000000, 0.000000000000000000, -1.000000000000000000 ) ) ;
#169 = EDGE_CURVE ( 'NONE', #234, #99, #106, .T. ) ;
#170 = FACE_OUTER_BOUND ( 'NONE', #126, .T. ) ;
#171 = AXIS2_PLACEMENT_3D ( 'NONE', #154, #127, #108 ) ;
#172 = MECHANICAL_CONTEXT ( 'NONE', #46, 'mechanical' ) ;
#173 = CARTESIAN_POINT ( 'NONE',  ( 0.000000000000000000, 0.000000000000000000, 0.000000000000000000 ) ) ;
#174 = DIRECTION ( 'NONE',  ( -0.000000000000000000, -0.000000000000000000, -1.000000000000000000 ) ) ;
#175 = PRODUCT_RELATED_PRODUCT_CATEGORY ( 'detail', '', ( #155 ) ) ;
#176 = DIRECTION ( 'NONE',  ( 0.000000000000000000, 0.000000000000000000, -1.000000000000000000 ) ) ;
#177 = CARTESIAN_POINT ( 'NONE',  ( 0.000000000000000000, 0.000000000000000000, 0.000000000000000000 ) ) ;
#178 = ORIENTED_EDGE ( 'NONE', *, *, #58, .T. ) ;
#179 = CC_DESIGN_PERSON_AND_ORGANIZATION_ASSIGNMENT ( #148, #91, ( #223 ) ) ;
#180 = PERSON_AND_ORGANIZATION ( #334, #236 ) ;
#181 = VECTOR ( 'NONE', #261, 1000.000000000000000 ) ;
#182 = APPROVAL_PERSON_ORGANIZATION ( #332, #4, #122 ) ;
#183 = COORDINATED_UNIVERSAL_TIME_OFFSET ( 1, 0, .AHEAD. ) ;
#184 = DATE_TIME_ROLE ( 'creation_date' ) ;
#185 = ADVANCED_FACE ( 'NONE', ( #43, #316 ), #74, .T. ) ;
#186 = FACE_OUTER_BOUND ( 'NONE', #5, .T. ) ;
#187 = CC_DESIGN_APPROVAL ( #117, ( #262 ) ) ;
#188 = DIRECTION ( 'NONE',  ( 0.000000000000000000, 0.000000000000000000, 1.000000000000000000 ) ) ;
#189 = ORIENTED_EDGE ( 'NONE', *, *, #139, .F. ) ;
#190 = DIRECTION ( 'NONE',  ( 0.000000000000000000, 0.000000000000000000, 1.000000000000000000 ) ) ;
#191 = EDGE_CURVE ( 'NONE', #145, #234, #112, .T. ) ;
#192 = VERTEX_POINT ( 'NONE', #36 ) ;
#193 = DIRECTION ( 'NONE',  ( -0.000000000000000000, -0.000000000000000000, -1.000000000000000000 ) ) ;
#194 = ORIENTED_EDGE ( 'NONE', *, *, #376, .F. ) ;
#195 = VECTOR ( 'NONE', #289, 1000.000000000000000 ) ;
#196 = CARTESIAN_POINT ( 'NONE',  ( 6.000000000000000888, 7.347880794884120722E-16, 0.000000000000000000 ) ) ;
#197 = ORIENTED_EDGE ( 'NONE', *, *, #152, .T. ) ;
#198 = CIRCLE ( 'NONE', #348, 2.000000000000000000 ) ;
#199 = CARTESIAN_POINT ( 'NONE',  ( 6.000000000000000888, 7.347880794884120722E-16, 5.000000000000000000 ) ) ;
#200 = DIRECTION ( 'NONE',  ( -0.000000000000000000, -0.000000000000000000, -1.000000000000000000 ) ) ;
#201 = LINE ( 'NONE', #259, #181 ) ;
#202 = CARTESIAN_POINT ( 'NONE',  ( 0.000000000000000000, 0.000000000000000000, 5.500000000000005329 ) ) ;
#203 = LOCAL_TIME ( 17, 36, 34.00000000000000000, #65 ) ;
#204 = CARTESIAN_POINT ( 'NONE',  ( -2.000000000000000000, 0.000000000000000000, 0.000000000000000000 ) ) ;
#205 = AXIS2_PLACEMENT_3D ( 'NONE', #310, #107, #283 ) ;
#206 = DIRECTION ( 'NONE',  ( 0.000000000000000000, 0.000000000000000000, 1.000000000000000000 ) ) ;
#207 = EDGE_CURVE ( 'NONE', #284, #312, #233, .T. ) ;
#208 = LINE ( 'NONE', #56, #361 ) ;
#209 = DIRECTION ( 'NONE',  ( 1.000000000000000000, 0.000000000000000000, 0.000000000000000000 ) ) ;
#210 = AXIS2_PLACEMENT_3D ( 'NONE', #7, #168, #14 ) ;
#211 = APPROVAL_STATUS ( 'not_yet_approved' ) ;
#212 = EDGE_CURVE ( 'NONE', #99, #234, #121, .T. ) ;
#213 = ORIENTED_EDGE ( 'NONE', *, *, #34, .F. ) ;
#214 = ORIENTED_EDGE ( 'NONE', *, *, #228, .T. ) ;
#215 = APPROVAL_STATUS ( 'not_yet_approved' ) ;
#216 = ORIENTED_EDGE ( 'NONE', *, *, #144, .F. ) ;
#217 = AXIS2_PLACEMENT_3D ( 'NONE', #177, #293, #24 ) ;
#218 = APPLICATION_PROTOCOL_DEFINITION ( 'international standard', 'config_control_design', 1994, #88 ) ;
#219 = EDGE_CURVE ( 'NONE', #294, #8, #306, .T. ) ;
#220 = APPROVAL_DATE_TIME ( #381, #20 ) ;
#221 = EDGE_LOOP ( 'NONE', ( #216, #250, #197, #75 ) ) ;
#222 = CARTESIAN_POINT ( 'NONE',  ( -6.000000000000000888, 0.000000000000000000, 5.000000000000000000 ) ) ;
#223 = PRODUCT_DEFINITION ( 'NEZNÁMÝ', '', #104, #158 ) ;
#224 = ORIENTED_EDGE ( 'NONE', *, *, #351, .F. ) ;
#225 = CYLINDRICAL_SURFACE ( 'NONE', #210, 2.000000000000000000 ) ;
#226 = FACE_OUTER_BOUND ( 'NONE', #264, .T. ) ;
#227 = ORIENTED_EDGE ( 'NONE', *, *, #207, .F. ) ;
#228 = EDGE_CURVE ( 'NONE', #13, #145, #325, .T. ) ;
#229 = CARTESIAN_POINT ( 'NONE',  ( 3.000000000000000444, 3.673940397442060361E-16, 130.0000000000000000 ) ) ;
#230 = DIRECTION ( 'NONE',  ( 0.000000000000000000, 0.000000000000000000, 1.000000000000000000 ) ) ;
#231 = ADVANCED_FACE ( 'NONE', ( #39 ), #42, .F. ) ;
#232 = DIRECTION ( 'NONE',  ( 0.000000000000000000, 0.000000000000000000, -1.000000000000000000 ) ) ;
#233 = CIRCLE ( 'NONE', #63, 3.500000000000000444 ) ;
#234 = VERTEX_POINT ( 'NONE', #196 ) ;
#235 = AXIS2_PLACEMENT_3D ( 'NONE', #319, #15, #116 ) ;
#236 = ORGANIZATION ( 'NEURÈENÝ', 'NEURÈENÝ', '' ) ;
#237 = EDGE_LOOP ( 'NONE', ( #101, #356, #167, #194 ) ) ;
#238 = CIRCLE ( 'NONE', #165, 3.000000000000000444 ) ;
#239 = EDGE_LOOP ( 'NONE', ( #30, #96, #44, #132 ) ) ;
#240 = DATE_TIME_ROLE ( 'classification_date' ) ;
#241 = CC_DESIGN_PERSON_AND_ORGANIZATION_ASSIGNMENT ( #180, #301, ( #262 ) ) ;
#242 = EDGE_LOOP ( 'NONE', ( #105, #160 ) ) ;
#243 = DIRECTION ( 'NONE',  ( 1.000000000000000000, 0.000000000000000000, 0.000000000000000000 ) ) ;
#244 = CC_DESIGN_DATE_AND_TIME_ASSIGNMENT ( #328, #184, ( #223 ) ) ;
#245 = CARTESIAN_POINT ( 'NONE',  ( 0.000000000000000000, 0.000000000000000000, 130.0000000000000000 ) ) ;
#246 = LINE ( 'NONE', #229, #195 ) ;
#247 = AXIS2_PLACEMENT_3D ( 'NONE', #375, #136, #253 ) ;
#248 = ORIENTED_EDGE ( 'NONE', *, *, #191, .F. ) ;
#249 = FACE_BOUND ( 'NONE', #307, .T. ) ;
#250 = ORIENTED_EDGE ( 'NONE', *, *, #53, .T. ) ;
#251 = DIRECTION ( 'NONE',  ( 1.000000000000000000, 0.000000000000000000, -0.000000000000000000 ) ) ;
#252 = ADVANCED_FACE ( 'NONE', ( #73 ), #225, .F. ) ;
#253 = DIRECTION ( 'NONE',  ( -1.000000000000000000, 1.224646799147354440E-16, 0.000000000000000000 ) ) ;
#254 = LOCAL_TIME ( 17, 36, 34.00000000000000000, #269 ) ;
#255 =( NAMED_UNIT ( * ) PLANE_ANGLE_UNIT ( ) SI_UNIT ( $, .RADIAN. ) );
#256 = DIRECTION ( 'NONE',  ( 1.000000000000000000, 0.000000000000000000, 0.000000000000000000 ) ) ;
#257 = CARTESIAN_POINT ( 'NONE',  ( 0.000000000000000000, 0.000000000000000000, 0.000000000000000000 ) ) ;
#258 = CARTESIAN_POINT ( 'NONE',  ( -6.000000000000000888, 0.000000000000000000, 0.000000000000000000 ) ) ;
#259 = CARTESIAN_POINT ( 'NONE',  ( 2.000000000000000000, 2.449293598294706414E-16, 130.0000000000000000 ) ) ;
#260 = DIRECTION ( 'NONE',  ( 0.000000000000000000, 0.000000000000000000, 1.000000000000000000 ) ) ;
#261 = DIRECTION ( 'NONE',  ( 0.000000000000000000, 0.000000000000000000, -1.000000000000000000 ) ) ;
#262 = SECURITY_CLASSIFICATION ( '', '', #327 ) ;
#263 = MANIFOLD_SOLID_BREP ( 'Odebrat vysunutím3', #265 ) ;
#264 = EDGE_LOOP ( 'NONE', ( #123, #267 ) ) ;
#265 = CLOSED_SHELL ( 'NONE', ( #133, #231, #271, #25, #102, #185, #290, #110, #358, #37, #252 ) ) ;
#266 = PERSON_AND_ORGANIZATION_ROLE ( 'design_owner' ) ;
#267 = ORIENTED_EDGE ( 'NONE', *, *, #169, .F. ) ;
#268 = AXIS2_PLACEMENT_3D ( 'NONE', #347, #323, #52 ) ;
#269 = COORDINATED_UNIVERSAL_TIME_OFFSET ( 1, 0, .AHEAD. ) ;
#270 = SHAPE_DEFINITION_REPRESENTATION ( #32, #349 ) ;
#271 = ADVANCED_FACE ( 'NONE', ( #276 ), #16, .T. ) ;
#272 = AXIS2_PLACEMENT_3D ( 'NONE', #138, #174, #317 ) ;
#273 = EDGE_LOOP ( 'NONE', ( #380, #359 ) ) ;
#274 = CARTESIAN_POINT ( 'NONE',  ( 0.000000000000000000, 0.000000000000000000, 5.000000000000000000 ) ) ;
#275 = DIRECTION ( 'NONE',  ( 1.000000000000000000, 0.000000000000000000, 0.000000000000000000 ) ) ;
#276 = FACE_OUTER_BOUND ( 'NONE', #221, .T. ) ;
#277 = CIRCLE ( 'NONE', #27, 6.000000000000000888 ) ;
#278 = ORIENTED_EDGE ( 'NONE', *, *, #219, .T. ) ;
#279 = CIRCLE ( 'NONE', #10, 0.5000000000000004441 ) ;
#280 = DIRECTION ( 'NONE',  ( 0.000000000000000000, 0.000000000000000000, 1.000000000000000000 ) ) ;
#281 = ORIENTED_EDGE ( 'NONE', *, *, #299, .T. ) ;
#282 = EDGE_CURVE ( 'NONE', #294, #192, #238, .T. ) ;
#283 = DIRECTION ( 'NONE',  ( 1.000000000000000000, 0.000000000000000000, 0.000000000000000000 ) ) ;
#284 = VERTEX_POINT ( 'NONE', #103 ) ;
#285 = CARTESIAN_POINT ( 'NONE',  ( 3.000000000000000444, 3.673940397442060361E-16, 5.500000000000005329 ) ) ;
#286 = LOCAL_TIME ( 17, 36, 34.00000000000000000, #297 ) ;
#287 = DIRECTION ( 'NONE',  ( -0.000000000000000000, -0.000000000000000000, -1.000000000000000000 ) ) ;
#288 = AXIS2_PLACEMENT_3D ( 'NONE', #374, #47, #209 ) ;
#289 = DIRECTION ( 'NONE',  ( -0.000000000000000000, -0.000000000000000000, -1.000000000000000000 ) ) ;
#290 = ADVANCED_FACE ( 'NONE', ( #249, #226 ), #77, .F. ) ;
#291 = DIRECTION ( 'NONE',  ( -1.000000000000000000, 0.000000000000000000, 0.000000000000000000 ) ) ;
#292 = CARTESIAN_POINT ( 'NONE',  ( 0.000000000000000000, 0.000000000000000000, 5.000000000000000000 ) ) ;
#293 = DIRECTION ( 'NONE',  ( 0.000000000000000000, 0.000000000000000000, 1.000000000000000000 ) ) ;
#294 = VERTEX_POINT ( 'NONE', #371 ) ;
#295 = PERSON_AND_ORGANIZATION_ROLE ( 'creator' ) ;
#296 = CIRCLE ( 'NONE', #2, 3.000000000000000444 ) ;
#297 = COORDINATED_UNIVERSAL_TIME_OFFSET ( 1, 0, .AHEAD. ) ;
#298 = ORIENTED_EDGE ( 'NONE', *, *, #228, .F. ) ;
#299 = EDGE_CURVE ( 'NONE', #13, #99, #363, .T. ) ;
#300 = CIRCLE ( 'NONE', #322, 3.000000000000000444 ) ;
#301 = PERSON_AND_ORGANIZATION_ROLE ( 'classification_officer' ) ;
#302 = PERSON_AND_ORGANIZATION ( #334, #236 ) ;
#303 = CALENDAR_DATE ( 2022, 8, 7 ) ;
#304 = APPROVAL_PERSON_ORGANIZATION ( #357, #20, #379 ) ;
#305 = AXIS2_PLACEMENT_3D ( 'NONE', #156, #9, #342 ) ;
#306 = LINE ( 'NONE', #131, #330 ) ;
#307 = EDGE_LOOP ( 'NONE', ( #124, #224 ) ) ;
#308 = DIRECTION ( 'NONE',  ( -0.000000000000000000, -0.000000000000000000, -1.000000000000000000 ) ) ;
#309 = ORIENTED_EDGE ( 'NONE', *, *, #367, .T. ) ;
#310 = CARTESIAN_POINT ( 'NONE',  ( 0.000000000000000000, 0.000000000000000000, 5.500000000000005329 ) ) ;
#311 = AXIS2_PLACEMENT_3D ( 'NONE', #87, #206, #256 ) ;
#312 = VERTEX_POINT ( 'NONE', #81 ) ;
#313 = EDGE_CURVE ( 'NONE', #147, #40, #71, .T. ) ;
#314 = AXIS2_PLACEMENT_3D ( 'NONE', #12, #166, #134 ) ;
#315 = ORIENTED_EDGE ( 'NONE', *, *, #212, .T. ) ;
#316 = FACE_OUTER_BOUND ( 'NONE', #89, .T. ) ;
#317 = DIRECTION ( 'NONE',  ( -1.000000000000000000, 0.000000000000000000, 0.000000000000000000 ) ) ;
#318 = PLANE ( 'NONE',  #28 ) ;
#319 = CARTESIAN_POINT ( 'NONE',  ( 0.000000000000000000, 0.000000000000000000, 130.0000000000000000 ) ) ;
#320 = APPROVAL_PERSON_ORGANIZATION ( #62, #117, #151 ) ;
#321 = CARTESIAN_POINT ( 'NONE',  ( -2.000000000000000000, 0.000000000000000000, 130.0000000000000000 ) ) ;
#322 = AXIS2_PLACEMENT_3D ( 'NONE', #113, #85, #346 ) ;
#323 = DIRECTION ( 'NONE',  ( -0.000000000000000000, -0.000000000000000000, -1.000000000000000000 ) ) ;
#324 = CARTESIAN_POINT ( 'NONE',  ( 0.000000000000000000, 0.000000000000000000, 130.0000000000000000 ) ) ;
#325 = CIRCLE ( 'NONE', #86, 6.000000000000000888 ) ;
#326 = CALENDAR_DATE ( 2022, 8, 7 ) ;
#327 = SECURITY_CLASSIFICATION_LEVEL ( 'unclassified' ) ;
#328 = DATE_AND_TIME ( #360, #254 ) ;
#329 = CC_DESIGN_SECURITY_CLASSIFICATION ( #262, ( #104 ) ) ;
#330 = VECTOR ( 'NONE', #109, 1000.000000000000000 ) ;
#331 = CC_DESIGN_DATE_AND_TIME_ASSIGNMENT ( #95, #240, ( #262 ) ) ;
#332 = PERSON_AND_ORGANIZATION ( #334, #236 ) ;
#333 = ORIENTED_EDGE ( 'NONE', *, *, #169, .T. ) ;
#334 = PERSON ( 'NEURÈENÝ', 'NEURÈENÝ', 'NEURÈENÝ', ('NEURÈENÝ'), ('NEURÈENÝ'), ('NEURÈENÝ') ) ;
#335 = EDGE_LOOP ( 'NONE', ( #340, #353 ) ) ;
#336 = CARTESIAN_POINT ( 'NONE',  ( 0.000000000000000000, 0.000000000000000000, 5.000000000000000000 ) ) ;
#337 = ORIENTED_EDGE ( 'NONE', *, *, #191, .T. ) ;
#338 = DIRECTION ( 'NONE',  ( -1.000000000000000000, 0.000000000000000000, 0.000000000000000000 ) ) ;
#339 = CC_DESIGN_PERSON_AND_ORGANIZATION_ASSIGNMENT ( #302, #64, ( #104 ) ) ;
#340 = ORIENTED_EDGE ( 'NONE', *, *, #162, .T. ) ;
#341 = ORIENTED_EDGE ( 'NONE', *, *, #299, .F. ) ;
#342 = DIRECTION ( 'NONE',  ( 1.000000000000000000, 0.000000000000000000, 0.000000000000000000 ) ) ;
#343 = CARTESIAN_POINT ( 'NONE',  ( 0.000000000000000000, 0.000000000000000000, 5.500000000000005329 ) ) ;
#344 = EDGE_CURVE ( 'NONE', #370, #147, #208, .T. ) ;
#345 = DIRECTION ( 'NONE',  ( 0.000000000000000000, -1.000000000000000000, 0.000000000000000000 ) ) ;
#346 = DIRECTION ( 'NONE',  ( 1.000000000000000000, 0.000000000000000000, 0.000000000000000000 ) ) ;
#347 = CARTESIAN_POINT ( 'NONE',  ( 0.000000000000000000, 0.000000000000000000, 5.000000000000000000 ) ) ;
#348 = AXIS2_PLACEMENT_3D ( 'NONE', #257, #287, #83 ) ;
#349 = ADVANCED_BREP_SHAPE_REPRESENTATION ( '4b57', ( #263, #217 ), #90 ) ;
#350 = DIRECTION ( 'NONE',  ( 0.000000000000000000, 0.000000000000000000, 1.000000000000000000 ) ) ;
#351 = EDGE_CURVE ( 'NONE', #40, #147, #198, .T. ) ;
#352 = CIRCLE ( 'NONE', #235, 2.000000000000000000 ) ;
#353 = ORIENTED_EDGE ( 'NONE', *, *, #207, .T. ) ;
#354 = DATE_AND_TIME ( #303, #203 ) ;
#355 = LOCAL_TIME ( 17, 36, 34.00000000000000000, #183 ) ;
#356 = ORIENTED_EDGE ( 'NONE', *, *, #139, .T. ) ;
#357 = PERSON_AND_ORGANIZATION ( #334, #236 ) ;
#358 = ADVANCED_FACE ( 'NONE', ( #21, #18 ), #318, .T. ) ;
#359 = ORIENTED_EDGE ( 'NONE', *, *, #144, .T. ) ;
#360 = CALENDAR_DATE ( 2022, 8, 7 ) ;
#361 = VECTOR ( 'NONE', #54, 1000.000000000000000 ) ;
#362 = EDGE_LOOP ( 'NONE', ( #189, #1, #92, #227 ) ) ;
#363 = LINE ( 'NONE', #222, #61 ) ;
#364 = FACE_OUTER_BOUND ( 'NONE', #362, .T. ) ;
#365 = CARTESIAN_POINT ( 'NONE',  ( 0.000000000000000000, 0.000000000000000000, 5.000000000000000000 ) ) ;
#366 = DIRECTION ( 'NONE',  ( 0.000000000000000000, 0.000000000000000000, 1.000000000000000000 ) ) ;
#367 = EDGE_CURVE ( 'NONE', #111, #40, #201, .T. ) ;
#368 = DIRECTION ( 'NONE',  ( 0.000000000000000000, 0.000000000000000000, 1.000000000000000000 ) ) ;
#369 = CARTESIAN_POINT ( 'NONE',  ( -6.000000000000000888, 0.000000000000000000, 5.000000000000000000 ) ) ;
#370 = VERTEX_POINT ( 'NONE', #321 ) ;
#371 = CARTESIAN_POINT ( 'NONE',  ( -3.000000000000000444, 0.000000000000000000, 130.0000000000000000 ) ) ;
#372 = AXIS2_PLACEMENT_3D ( 'NONE', #135, #188, #251 ) ;
#373 = CYLINDRICAL_SURFACE ( 'NONE', #22, 6.000000000000000888 ) ;
#374 = CARTESIAN_POINT ( 'NONE',  ( 0.000000000000000000, 0.000000000000000000, 0.000000000000000000 ) ) ;
#375 = CARTESIAN_POINT ( 'NONE',  ( -3.500000000000000444, 4.286263797015737088E-16, 5.500000000000005329 ) ) ;
#376 = EDGE_CURVE ( 'NONE', #70, #312, #279, .T. ) ;
#377 = ORIENTED_EDGE ( 'NONE', *, *, #351, .T. ) ;
#378 = CC_DESIGN_PERSON_AND_ORGANIZATION_ASSIGNMENT ( #146, #266, ( #155 ) ) ;
#379 = APPROVAL_ROLE ( '' ) ;
#380 = ORIENTED_EDGE ( 'NONE', *, *, #282, .T. ) ;
#381 = DATE_AND_TIME ( #326, #69 ) ;
ENDSEC;
END-ISO-10303-21;
